  0
SECTION
  2
HEADER
  0
ENDSEC
  0
SECTION
  2
TABLES
  0
TABLE
  2
LTYPE
 70
10
  0
LTYPE
  2
CONTINUOUS
 70
64
  3
solid line
 72
65
 73
0
 40
0.0
  0
LTYPE
  2
DASHED
 70
0
  3
__ __ __ __ __ __ __ __ __ __ __ __ __ __ __
 72
65
 73
2
 40
0.75
 49
0.5
 49
-0.25
  0
LTYPE
  2
HIDDEN
 70
0
  3
_ _ _ _ _ _ _ _ _ _ _ _ _ _ _ _ _ _ _ _ _ _
 72
65
 73
2
 40
0.375
 49
0.25
 49
-0.125
  0
LTYPE
  2
CENTER
 70
0
  3
____ _ ____ _ ____ _ ____ _ ____ _ ____ _ __
 72
65
 73
4
 40
2.0
 49
1.25
 49
-0.25
 49
0.25
 49
-0.25
  0
LTYPE
  2
PHANTOM
 70
0
  3
_____ _ _ _____ _ _ _____ _ _ _____ _ _ ____
 72
65
 73
6
 40
2.5
 49
1.25
 49
-0.25
 49
0.25
 49
-0.25
 49
0.25
 49
-0.25
  0
LTYPE
  2
DOT
 70
0
  3
............................................
 72
65
 73
2
 40
0.25
 49
0.0
 49
-0.25
  0
LTYPE
  2
DASHDOT
 70
0
  3
__ . __ . __ . __ . __ . __ . __ . __ . __ .
 72
65
 73
4
 40
1.0
 49
0.5
 49
-0.25
 49
0.0
 49
-0.25
  0
LTYPE
  2
BORDER
 70
0
  3
__ __ . __ __ . __ __ . __ __ . __ __ . __ _
 72
65
 73
6
 40
1.75
 49
0.5
 49
-0.25
 49
0.5
 49
-0.25
 49
0.0
 49
-0.25
  0
LTYPE
  2
DIVIDE
 70
0
  3
__ . . __ . . __ . . __ . . __ . . __ . . __
 72
65
 73
6
 40
1.25
 49
0.5
 49
-0.25
 49
0.0
 49
-0.25
 49
0.0
 49
-0.25
  0
LTYPE
  2
DIVIDE2
 70
0
  3
__..__..__..__..__..__..__..__..__..__..__..__.
 72
65
 73
8
 40
0.9
 49
0.25
 49
-0.1
 49
0.25
 49
-0.1
 49
0.0
 49
-0.1
 49
0.0
 49
-0.1
  0
ENDTAB
  0
TABLE
  2
LAYER
 70
18
  0
LAYER
  2
RAILS
 70
0
  6
CONTINUOUS
 62
7
  0
LAYER
  2
ADJTRACK
 70
0
  6
CONTINUOUS
 62
8
  0
LAYER
  2
CENTLINE
 70
0
  6
CENTER
 62
6
  0
LAYER
  2
TIMBOUTL
 70
0
  6
CONTINUOUS
 62
5
  0
LAYER
  2
SLEEPEND
 70
0
  6
CONTINUOUS
 62
1
  0
LAYER
  2
TIMBCENT
 70
0
  6
CENTER
 62
4
  0
LAYER
  2
GDMARKS
 70
0
  6
CONTINUOUS
 62
1
  0
LAYER
  2
RADMARKS
 70
0
  6
CONTINUOUS
 62
3
  0
LAYER
  2
JOINTS
 70
0
  6
CONTINUOUS
 62
7
  0
LAYER
  2
SBGSHAPE
 70
0
  6
CONTINUOUS
 62
1
  0
LAYER
  2
DBGSHAPE
 70
0
  6
HIDDEN
 62
1
  0
LAYER
  2
INFOTEXT
 70
0
  6
CONTINUOUS
 62
5
  0
LAYER
  2
TIMBNUMB
 70
0
  6
CONTINUOUS
 62
3
  0
LAYER
  2
RLSIDE3D
 70
0
  6
CONTINUOUS
 62
33
  0
LAYER
  2
RLTOP3D
 70
0
  6
CONTINUOUS
 62
252
  0
LAYER
  2
CHAIR3D
 70
0
  6
CONTINUOUS
 62
54
  0
LAYER
  2
TIMBER3D
 70
0
  6
CONTINUOUS
 62
8
  0
ENDTAB
  0
ENDSEC
  0
SECTION
  2
ENTITIES
  0
LINE
  8
TIMBOUTL
 10
28.33
 20
96.46
 11
34.66
 21
96.46
  0
LINE
  8
TIMBOUTL
 10
28.33
 20
60.46
 11
34.66
 21
60.46
  0
LINE
  8
TIMBOUTL
 10
29.83
 20
97.96
 11
29.83
 21
58.96
  0
LINE
  8
TIMBOUTL
 10
33.16
 20
97.96
 11
33.16
 21
58.96
  0
LINE
  8
SLEEPEND
 10
28.33
 20
95.46
 11
34.66
 21
95.46
  0
LINE
  8
SLEEPEND
 10
28.33
 20
61.46
 11
34.66
 21
61.46
  0
LINE
  8
TIMBCENT
 10
31.49
 20
56.46
 11
31.49
 21
100.46
  0
TEXT
  8
TIMBNUMB
 10
29.49
 20
99.99
 40
2.47
  1
254.J1
  0
LINE
  8
TIMBOUTL
 10
18.66
 20
96.46
 11
25.66
 21
96.46
  0
LINE
  8
TIMBOUTL
 10
18.66
 20
60.46
 11
25.66
 21
60.46
  0
LINE
  8
TIMBOUTL
 10
20.16
 20
97.96
 11
20.16
 21
58.96
  0
LINE
  8
TIMBOUTL
 10
24.16
 20
97.96
 11
24.16
 21
58.96
  0
LINE
  8
SLEEPEND
 10
18.66
 20
95.46
 11
25.66
 21
95.46
  0
LINE
  8
SLEEPEND
 10
18.66
 20
61.46
 11
25.66
 21
61.46
  0
LINE
  8
TIMBCENT
 10
22.16
 20
56.46
 11
22.16
 21
100.46
  0
TEXT
  8
TIMBNUMB
 10
20.16
 20
99.99
 40
2.47
  1
254.J2
  0
LINE
  8
TIMBOUTL
 10
37.33
 20
96.46
 11
44.33
 21
96.46
  0
LINE
  8
TIMBOUTL
 10
37.33
 20
60.46
 11
44.33
 21
60.46
  0
LINE
  8
TIMBOUTL
 10
38.83
 20
97.96
 11
38.83
 21
58.96
  0
LINE
  8
TIMBOUTL
 10
42.83
 20
97.96
 11
42.83
 21
58.96
  0
LINE
  8
SLEEPEND
 10
37.33
 20
95.46
 11
44.33
 21
95.46
  0
LINE
  8
SLEEPEND
 10
37.33
 20
61.46
 11
44.33
 21
61.46
  0
LINE
  8
TIMBCENT
 10
40.83
 20
56.46
 11
40.83
 21
100.46
  0
TEXT
  8
TIMBNUMB
 10
38.83
 20
99.99
 40
2.47
  1
254.S1
  0
LINE
  8
TIMBOUTL
 10
47.33
 20
96.46
 11
54.33
 21
96.46
  0
LINE
  8
TIMBOUTL
 10
47.33
 20
60.46
 11
54.33
 21
60.46
  0
LINE
  8
TIMBOUTL
 10
48.83
 20
97.96
 11
48.83
 21
58.96
  0
LINE
  8
TIMBOUTL
 10
52.83
 20
97.96
 11
52.83
 21
58.96
  0
LINE
  8
SLEEPEND
 10
47.33
 20
95.46
 11
54.33
 21
95.46
  0
LINE
  8
SLEEPEND
 10
47.33
 20
61.46
 11
54.33
 21
61.46
  0
LINE
  8
TIMBCENT
 10
50.83
 20
56.46
 11
50.83
 21
100.46
  0
TEXT
  8
TIMBNUMB
 10
48.83
 20
99.99
 40
2.47
  1
254.S2
  0
LINE
  8
TIMBOUTL
 10
55.99
 20
96.46
 11
62.99
 21
96.46
  0
LINE
  8
TIMBOUTL
 10
55.99
 20
60.46
 11
62.99
 21
60.46
  0
LINE
  8
TIMBOUTL
 10
57.49
 20
97.96
 11
57.49
 21
58.96
  0
LINE
  8
TIMBOUTL
 10
61.49
 20
97.96
 11
61.49
 21
58.96
  0
LINE
  8
SLEEPEND
 10
55.99
 20
95.46
 11
62.99
 21
95.46
  0
LINE
  8
SLEEPEND
 10
55.99
 20
61.46
 11
62.99
 21
61.46
  0
LINE
  8
TIMBCENT
 10
59.49
 20
56.46
 11
59.49
 21
100.46
  0
TEXT
  8
TIMBNUMB
 10
57.49
 20
99.99
 40
2.47
  1
254.S3
  0
LINE
  8
TIMBOUTL
 10
64.66
 20
96.46
 11
71.66
 21
96.46
  0
LINE
  8
TIMBOUTL
 10
64.66
 20
58.46
 11
71.66
 21
58.46
  0
LINE
  8
TIMBOUTL
 10
66.16
 20
97.96
 11
66.16
 21
56.96
  0
LINE
  8
TIMBOUTL
 10
70.16
 20
97.96
 11
70.16
 21
56.96
  0
LINE
  8
SLEEPEND
 10
64.66
 20
95.46
 11
71.66
 21
95.46
  0
LINE
  8
SLEEPEND
 10
64.66
 20
59.46
 11
71.66
 21
59.46
  0
LINE
  8
TIMBCENT
 10
68.16
 20
54.46
 11
68.16
 21
100.46
  0
TEXT
  8
TIMBNUMB
 10
66.16
 20
99.99
 40
2.47
  1
254.S4
  0
LINE
  8
TIMBOUTL
 10
72.66
 20
96.46
 11
79.66
 21
96.46
  0
LINE
  8
TIMBOUTL
 10
72.66
 20
58.46
 11
79.66
 21
58.46
  0
LINE
  8
TIMBOUTL
 10
74.16
 20
97.96
 11
74.16
 21
56.96
  0
LINE
  8
TIMBOUTL
 10
78.16
 20
97.96
 11
78.16
 21
56.96
  0
LINE
  8
SLEEPEND
 10
72.66
 20
95.46
 11
79.66
 21
95.46
  0
LINE
  8
SLEEPEND
 10
72.66
 20
59.46
 11
79.66
 21
59.46
  0
LINE
  8
TIMBCENT
 10
76.16
 20
54.46
 11
76.16
 21
100.46
  0
TEXT
  8
TIMBNUMB
 10
74.16
 20
99.99
 40
2.47
  1
254.S5
  0
LINE
  8
TIMBOUTL
 10
80.66
 20
96.46
 11
87.66
 21
96.46
  0
LINE
  8
TIMBOUTL
 10
80.66
 20
58.46
 11
87.66
 21
58.46
  0
LINE
  8
TIMBOUTL
 10
82.16
 20
97.96
 11
82.16
 21
56.96
  0
LINE
  8
TIMBOUTL
 10
86.16
 20
97.96
 11
86.16
 21
56.96
  0
LINE
  8
SLEEPEND
 10
80.66
 20
95.46
 11
87.66
 21
95.46
  0
LINE
  8
SLEEPEND
 10
80.66
 20
59.46
 11
87.66
 21
59.46
  0
LINE
  8
TIMBCENT
 10
84.16
 20
54.46
 11
84.16
 21
100.46
  0
TEXT
  8
TIMBNUMB
 10
82.16
 20
99.99
 40
2.47
  1
254.S6
  0
LINE
  8
TIMBOUTL
 10
88.66
 20
96.46
 11
95.66
 21
96.46
  0
LINE
  8
TIMBOUTL
 10
88.66
 20
58.46
 11
95.66
 21
58.46
  0
LINE
  8
TIMBOUTL
 10
90.16
 20
97.96
 11
90.16
 21
56.96
  0
LINE
  8
TIMBOUTL
 10
94.16
 20
97.96
 11
94.16
 21
56.96
  0
LINE
  8
SLEEPEND
 10
88.66
 20
95.46
 11
95.66
 21
95.46
  0
LINE
  8
SLEEPEND
 10
88.66
 20
59.46
 11
95.66
 21
59.46
  0
LINE
  8
TIMBCENT
 10
92.16
 20
54.46
 11
92.16
 21
100.46
  0
TEXT
  8
TIMBNUMB
 10
90.16
 20
99.99
 40
2.47
  1
254.S7
  0
LINE
  8
TIMBOUTL
 10
97.66
 20
96.46
 11
104.66
 21
96.46
  0
LINE
  8
TIMBOUTL
 10
97.66
 20
58.46
 11
104.66
 21
58.46
  0
LINE
  8
TIMBOUTL
 10
99.16
 20
97.96
 11
99.16
 21
56.96
  0
LINE
  8
TIMBOUTL
 10
103.16
 20
97.96
 11
103.16
 21
56.96
  0
LINE
  8
SLEEPEND
 10
97.66
 20
95.46
 11
104.66
 21
95.46
  0
LINE
  8
SLEEPEND
 10
97.66
 20
59.46
 11
104.66
 21
59.46
  0
LINE
  8
TIMBCENT
 10
101.16
 20
54.46
 11
101.16
 21
100.46
  0
TEXT
  8
TIMBNUMB
 10
99.16
 20
99.99
 40
2.47
  1
254.S8
  0
LINE
  8
TIMBOUTL
 10
106.66
 20
96.46
 11
113.66
 21
96.46
  0
LINE
  8
TIMBOUTL
 10
106.66
 20
58.46
 11
113.66
 21
58.46
  0
LINE
  8
TIMBOUTL
 10
108.16
 20
97.96
 11
108.16
 21
56.96
  0
LINE
  8
TIMBOUTL
 10
112.16
 20
97.96
 11
112.16
 21
56.96
  0
LINE
  8
SLEEPEND
 10
106.66
 20
95.46
 11
113.66
 21
95.46
  0
LINE
  8
SLEEPEND
 10
106.66
 20
59.46
 11
113.66
 21
59.46
  0
LINE
  8
TIMBCENT
 10
110.16
 20
54.46
 11
110.16
 21
100.46
  0
TEXT
  8
TIMBNUMB
 10
108.16
 20
99.99
 40
2.47
  1
254.S9
  0
LINE
  8
TIMBOUTL
 10
114.66
 20
96.46
 11
121.66
 21
96.46
  0
LINE
  8
TIMBOUTL
 10
114.66
 20
56.46
 11
121.66
 21
56.46
  0
LINE
  8
TIMBOUTL
 10
116.16
 20
97.96
 11
116.16
 21
54.96
  0
LINE
  8
TIMBOUTL
 10
120.16
 20
97.96
 11
120.16
 21
54.96
  0
LINE
  8
SLEEPEND
 10
114.66
 20
95.46
 11
121.66
 21
95.46
  0
LINE
  8
SLEEPEND
 10
114.66
 20
57.46
 11
121.66
 21
57.46
  0
LINE
  8
TIMBCENT
 10
118.16
 20
52.46
 11
118.16
 21
100.46
  0
TEXT
  8
TIMBNUMB
 10
116.16
 20
99.99
 40
2.47
  1
254.S10
  0
LINE
  8
TIMBOUTL
 10
122.66
 20
96.46
 11
129.66
 21
96.46
  0
LINE
  8
TIMBOUTL
 10
122.66
 20
56.46
 11
129.66
 21
56.46
  0
LINE
  8
TIMBOUTL
 10
124.16
 20
97.96
 11
124.16
 21
54.96
  0
LINE
  8
TIMBOUTL
 10
128.16
 20
97.96
 11
128.16
 21
54.96
  0
LINE
  8
SLEEPEND
 10
122.66
 20
95.46
 11
129.66
 21
95.46
  0
LINE
  8
SLEEPEND
 10
122.66
 20
57.46
 11
129.66
 21
57.46
  0
LINE
  8
TIMBCENT
 10
126.16
 20
52.46
 11
126.16
 21
100.46
  0
TEXT
  8
TIMBNUMB
 10
124.16
 20
99.99
 40
2.47
  1
254.S11
  0
LINE
  8
TIMBOUTL
 10
132.66
 20
96.46
 11
139.66
 21
96.46
  0
LINE
  8
TIMBOUTL
 10
132.66
 20
56.46
 11
139.66
 21
56.46
  0
LINE
  8
TIMBOUTL
 10
134.16
 20
97.96
 11
134.16
 21
54.96
  0
LINE
  8
TIMBOUTL
 10
138.16
 20
97.96
 11
138.16
 21
54.96
  0
LINE
  8
SLEEPEND
 10
132.66
 20
95.46
 11
139.66
 21
95.46
  0
LINE
  8
SLEEPEND
 10
132.66
 20
57.46
 11
139.66
 21
57.46
  0
LINE
  8
TIMBCENT
 10
136.16
 20
52.46
 11
136.16
 21
100.46
  0
TEXT
  8
TIMBNUMB
 10
134.16
 20
99.99
 40
2.47
  1
254.S12
  0
LINE
  8
TIMBOUTL
 10
142.66
 20
96.46
 11
149.66
 21
96.46
  0
LINE
  8
TIMBOUTL
 10
142.66
 20
56.46
 11
149.66
 21
56.46
  0
LINE
  8
TIMBOUTL
 10
144.16
 20
97.96
 11
144.16
 21
54.96
  0
LINE
  8
TIMBOUTL
 10
148.16
 20
97.96
 11
148.16
 21
54.96
  0
LINE
  8
SLEEPEND
 10
142.66
 20
95.46
 11
149.66
 21
95.46
  0
LINE
  8
SLEEPEND
 10
142.66
 20
57.46
 11
149.66
 21
57.46
  0
LINE
  8
TIMBCENT
 10
146.16
 20
52.46
 11
146.16
 21
100.46
  0
TEXT
  8
TIMBNUMB
 10
144.16
 20
99.99
 40
2.47
  1
254.T1
  0
LINE
  8
TIMBOUTL
 10
289.61
 20
96.46
 11
296.61
 21
96.46
  0
LINE
  8
TIMBOUTL
 10
289.61
 20
42.46
 11
296.61
 21
42.46
  0
LINE
  8
TIMBOUTL
 10
291.11
 20
97.96
 11
291.11
 21
40.96
  0
LINE
  8
TIMBOUTL
 10
295.11
 20
97.96
 11
295.11
 21
40.96
  0
LINE
  8
SLEEPEND
 10
289.61
 20
95.46
 11
296.61
 21
95.46
  0
LINE
  8
SLEEPEND
 10
289.61
 20
43.46
 11
296.61
 21
43.46
  0
LINE
  8
TIMBCENT
 10
293.11
 20
38.46
 11
293.11
 21
100.46
  0
TEXT
  8
TIMBNUMB
 10
291.11
 20
99.99
 40
2.47
  1
254.X1 - Y
  0
LINE
  8
TIMBOUTL
 10
299.61
 20
96.46
 11
306.61
 21
96.46
  0
LINE
  8
TIMBOUTL
 10
299.61
 20
42.46
 11
306.61
 21
42.46
  0
LINE
  8
TIMBOUTL
 10
301.11
 20
97.96
 11
301.11
 21
40.96
  0
LINE
  8
TIMBOUTL
 10
305.11
 20
97.96
 11
305.11
 21
40.96
  0
LINE
  8
SLEEPEND
 10
299.61
 20
95.46
 11
306.61
 21
95.46
  0
LINE
  8
SLEEPEND
 10
299.61
 20
43.46
 11
306.61
 21
43.46
  0
LINE
  8
TIMBCENT
 10
303.11
 20
38.46
 11
303.11
 21
100.46
  0
TEXT
  8
TIMBNUMB
 10
301.11
 20
99.99
 40
2.47
  1
254.X2 - X
  0
LINE
  8
TIMBOUTL
 10
309.61
 20
96.46
 11
316.61
 21
96.46
  0
LINE
  8
TIMBOUTL
 10
309.61
 20
40.46
 11
316.61
 21
40.46
  0
LINE
  8
TIMBOUTL
 10
311.11
 20
97.96
 11
311.11
 21
38.96
  0
LINE
  8
TIMBOUTL
 10
315.11
 20
97.96
 11
315.11
 21
38.96
  0
LINE
  8
SLEEPEND
 10
309.61
 20
95.46
 11
316.61
 21
95.46
  0
LINE
  8
SLEEPEND
 10
309.61
 20
41.46
 11
316.61
 21
41.46
  0
LINE
  8
TIMBCENT
 10
313.11
 20
36.46
 11
313.11
 21
100.46
  0
TEXT
  8
TIMBNUMB
 10
311.11
 20
99.99
 40
2.47
  1
254.X3 - A
  0
LINE
  8
TIMBOUTL
 10
319.61
 20
96.46
 11
326.61
 21
96.46
  0
LINE
  8
TIMBOUTL
 10
319.61
 20
40.46
 11
326.61
 21
40.46
  0
LINE
  8
TIMBOUTL
 10
321.11
 20
97.96
 11
321.11
 21
38.96
  0
LINE
  8
TIMBOUTL
 10
325.11
 20
97.96
 11
325.11
 21
38.96
  0
LINE
  8
SLEEPEND
 10
319.61
 20
95.46
 11
326.61
 21
95.46
  0
LINE
  8
SLEEPEND
 10
319.61
 20
41.46
 11
326.61
 21
41.46
  0
LINE
  8
TIMBCENT
 10
323.11
 20
36.46
 11
323.11
 21
100.46
  0
TEXT
  8
TIMBNUMB
 10
321.11
 20
99.99
 40
2.47
  1
254.X4 - B
  0
LINE
  8
TIMBOUTL
 10
329.61
 20
96.46
 11
336.61
 21
96.46
  0
LINE
  8
TIMBOUTL
 10
329.61
 20
38.46
 11
336.61
 21
38.46
  0
LINE
  8
TIMBOUTL
 10
331.11
 20
97.96
 11
331.11
 21
36.96
  0
LINE
  8
TIMBOUTL
 10
335.11
 20
97.96
 11
335.11
 21
36.96
  0
LINE
  8
SLEEPEND
 10
329.61
 20
95.46
 11
336.61
 21
95.46
  0
LINE
  8
SLEEPEND
 10
329.61
 20
39.46
 11
336.61
 21
39.46
  0
LINE
  8
TIMBCENT
 10
333.11
 20
34.46
 11
333.11
 21
100.46
  0
TEXT
  8
TIMBNUMB
 10
331.11
 20
99.99
 40
2.47
  1
254.X5 - C
  0
LINE
  8
TIMBOUTL
 10
338.95
 20
96.46
 11
345.95
 21
96.46
  0
LINE
  8
TIMBOUTL
 10
338.95
 20
36.46
 11
345.95
 21
36.46
  0
LINE
  8
TIMBOUTL
 10
340.45
 20
97.96
 11
340.45
 21
34.96
  0
LINE
  8
TIMBOUTL
 10
344.45
 20
97.96
 11
344.45
 21
34.96
  0
LINE
  8
SLEEPEND
 10
338.95
 20
95.46
 11
345.95
 21
95.46
  0
LINE
  8
SLEEPEND
 10
338.95
 20
37.46
 11
345.95
 21
37.46
  0
LINE
  8
TIMBCENT
 10
342.45
 20
32.46
 11
342.45
 21
100.46
  0
TEXT
  8
TIMBNUMB
 10
340.45
 20
99.99
 40
2.47
  1
254.X6 - D
  0
LINE
  8
TIMBOUTL
 10
348.28
 20
96.46
 11
355.28
 21
96.46
  0
LINE
  8
TIMBOUTL
 10
348.28
 20
36.46
 11
355.28
 21
36.46
  0
LINE
  8
TIMBOUTL
 10
349.78
 20
97.96
 11
349.78
 21
34.96
  0
LINE
  8
TIMBOUTL
 10
353.78
 20
97.96
 11
353.78
 21
34.96
  0
LINE
  8
SLEEPEND
 10
348.28
 20
95.46
 11
355.28
 21
95.46
  0
LINE
  8
SLEEPEND
 10
348.28
 20
37.46
 11
355.28
 21
37.46
  0
LINE
  8
TIMBCENT
 10
351.78
 20
32.46
 11
351.78
 21
100.46
  0
TEXT
  8
TIMBNUMB
 10
349.78
 20
99.99
 40
2.47
  1
254.X7
  0
LINE
  8
TIMBOUTL
 10
152.66
 20
96.46
 11
159.66
 21
96.46
  0
LINE
  8
TIMBOUTL
 10
152.66
 20
54.46
 11
159.66
 21
54.46
  0
LINE
  8
TIMBOUTL
 10
154.16
 20
97.96
 11
154.16
 21
52.96
  0
LINE
  8
TIMBOUTL
 10
158.16
 20
97.96
 11
158.16
 21
52.96
  0
LINE
  8
SLEEPEND
 10
152.66
 20
95.46
 11
159.66
 21
95.46
  0
LINE
  8
SLEEPEND
 10
152.66
 20
55.46
 11
159.66
 21
55.46
  0
LINE
  8
TIMBCENT
 10
156.16
 20
50.46
 11
156.16
 21
100.46
  0
TEXT
  8
TIMBNUMB
 10
154.16
 20
99.99
 40
2.47
  1
254.T2
  0
LINE
  8
TIMBOUTL
 10
162.66
 20
96.46
 11
169.66
 21
96.46
  0
LINE
  8
TIMBOUTL
 10
162.66
 20
54.46
 11
169.66
 21
54.46
  0
LINE
  8
TIMBOUTL
 10
164.16
 20
97.96
 11
164.16
 21
52.96
  0
LINE
  8
TIMBOUTL
 10
168.16
 20
97.96
 11
168.16
 21
52.96
  0
LINE
  8
SLEEPEND
 10
162.66
 20
95.46
 11
169.66
 21
95.46
  0
LINE
  8
SLEEPEND
 10
162.66
 20
55.46
 11
169.66
 21
55.46
  0
LINE
  8
TIMBCENT
 10
166.16
 20
50.46
 11
166.16
 21
100.46
  0
TEXT
  8
TIMBNUMB
 10
164.16
 20
99.99
 40
2.47
  1
254.T3
  0
LINE
  8
TIMBOUTL
 10
172.66
 20
96.46
 11
179.66
 21
96.46
  0
LINE
  8
TIMBOUTL
 10
172.66
 20
54.46
 11
179.66
 21
54.46
  0
LINE
  8
TIMBOUTL
 10
174.16
 20
97.96
 11
174.16
 21
52.96
  0
LINE
  8
TIMBOUTL
 10
178.16
 20
97.96
 11
178.16
 21
52.96
  0
LINE
  8
SLEEPEND
 10
172.66
 20
95.46
 11
179.66
 21
95.46
  0
LINE
  8
SLEEPEND
 10
172.66
 20
55.46
 11
179.66
 21
55.46
  0
LINE
  8
TIMBCENT
 10
176.16
 20
50.46
 11
176.16
 21
100.46
  0
TEXT
  8
TIMBNUMB
 10
174.16
 20
99.99
 40
2.47
  1
254.T4
  0
LINE
  8
TIMBOUTL
 10
182.66
 20
96.46
 11
189.66
 21
96.46
  0
LINE
  8
TIMBOUTL
 10
182.66
 20
54.46
 11
189.66
 21
54.46
  0
LINE
  8
TIMBOUTL
 10
184.16
 20
97.96
 11
184.16
 21
52.96
  0
LINE
  8
TIMBOUTL
 10
188.16
 20
97.96
 11
188.16
 21
52.96
  0
LINE
  8
SLEEPEND
 10
182.66
 20
95.46
 11
189.66
 21
95.46
  0
LINE
  8
SLEEPEND
 10
182.66
 20
55.46
 11
189.66
 21
55.46
  0
LINE
  8
TIMBCENT
 10
186.16
 20
50.46
 11
186.16
 21
100.46
  0
TEXT
  8
TIMBNUMB
 10
184.16
 20
99.99
 40
2.47
  1
254.T5
  0
LINE
  8
TIMBOUTL
 10
192.66
 20
96.46
 11
199.66
 21
96.46
  0
LINE
  8
TIMBOUTL
 10
192.66
 20
52.46
 11
199.66
 21
52.46
  0
LINE
  8
TIMBOUTL
 10
194.16
 20
97.96
 11
194.16
 21
50.96
  0
LINE
  8
TIMBOUTL
 10
198.16
 20
97.96
 11
198.16
 21
50.96
  0
LINE
  8
SLEEPEND
 10
192.66
 20
95.46
 11
199.66
 21
95.46
  0
LINE
  8
SLEEPEND
 10
192.66
 20
53.46
 11
199.66
 21
53.46
  0
LINE
  8
TIMBCENT
 10
196.16
 20
48.46
 11
196.16
 21
100.46
  0
TEXT
  8
TIMBNUMB
 10
194.16
 20
99.99
 40
2.47
  1
254.T6
  0
LINE
  8
TIMBOUTL
 10
202.66
 20
96.46
 11
209.66
 21
96.46
  0
LINE
  8
TIMBOUTL
 10
202.66
 20
52.46
 11
209.66
 21
52.46
  0
LINE
  8
TIMBOUTL
 10
204.16
 20
97.96
 11
204.16
 21
50.96
  0
LINE
  8
TIMBOUTL
 10
208.16
 20
97.96
 11
208.16
 21
50.96
  0
LINE
  8
SLEEPEND
 10
202.66
 20
95.46
 11
209.66
 21
95.46
  0
LINE
  8
SLEEPEND
 10
202.66
 20
53.46
 11
209.66
 21
53.46
  0
LINE
  8
TIMBCENT
 10
206.16
 20
48.46
 11
206.16
 21
100.46
  0
TEXT
  8
TIMBNUMB
 10
204.16
 20
99.99
 40
2.47
  1
254.T7
  0
LINE
  8
TIMBOUTL
 10
212.66
 20
96.46
 11
219.66
 21
96.46
  0
LINE
  8
TIMBOUTL
 10
212.66
 20
50.46
 11
219.66
 21
50.46
  0
LINE
  8
TIMBOUTL
 10
214.16
 20
97.96
 11
214.16
 21
48.96
  0
LINE
  8
TIMBOUTL
 10
218.16
 20
97.96
 11
218.16
 21
48.96
  0
LINE
  8
SLEEPEND
 10
212.66
 20
95.46
 11
219.66
 21
95.46
  0
LINE
  8
SLEEPEND
 10
212.66
 20
51.46
 11
219.66
 21
51.46
  0
LINE
  8
TIMBCENT
 10
216.16
 20
46.46
 11
216.16
 21
100.46
  0
TEXT
  8
TIMBNUMB
 10
214.16
 20
99.99
 40
2.47
  1
254.T8
  0
LINE
  8
TIMBOUTL
 10
222.66
 20
96.46
 11
229.66
 21
96.46
  0
LINE
  8
TIMBOUTL
 10
222.66
 20
50.46
 11
229.66
 21
50.46
  0
LINE
  8
TIMBOUTL
 10
224.16
 20
97.96
 11
224.16
 21
48.96
  0
LINE
  8
TIMBOUTL
 10
228.16
 20
97.96
 11
228.16
 21
48.96
  0
LINE
  8
SLEEPEND
 10
222.66
 20
95.46
 11
229.66
 21
95.46
  0
LINE
  8
SLEEPEND
 10
222.66
 20
51.46
 11
229.66
 21
51.46
  0
LINE
  8
TIMBCENT
 10
226.16
 20
46.46
 11
226.16
 21
100.46
  0
TEXT
  8
TIMBNUMB
 10
224.16
 20
99.99
 40
2.47
  1
254.T9
  0
LINE
  8
TIMBOUTL
 10
232.66
 20
96.46
 11
239.66
 21
96.46
  0
LINE
  8
TIMBOUTL
 10
232.66
 20
48.46
 11
239.66
 21
48.46
  0
LINE
  8
TIMBOUTL
 10
234.16
 20
97.96
 11
234.16
 21
46.96
  0
LINE
  8
TIMBOUTL
 10
238.16
 20
97.96
 11
238.16
 21
46.96
  0
LINE
  8
SLEEPEND
 10
232.66
 20
95.46
 11
239.66
 21
95.46
  0
LINE
  8
SLEEPEND
 10
232.66
 20
49.46
 11
239.66
 21
49.46
  0
LINE
  8
TIMBCENT
 10
236.16
 20
44.46
 11
236.16
 21
100.46
  0
TEXT
  8
TIMBNUMB
 10
234.16
 20
99.99
 40
2.47
  1
254.T10
  0
LINE
  8
TIMBOUTL
 10
242.66
 20
96.46
 11
249.66
 21
96.46
  0
LINE
  8
TIMBOUTL
 10
242.66
 20
48.46
 11
249.66
 21
48.46
  0
LINE
  8
TIMBOUTL
 10
244.16
 20
97.96
 11
244.16
 21
46.96
  0
LINE
  8
TIMBOUTL
 10
248.16
 20
97.96
 11
248.16
 21
46.96
  0
LINE
  8
SLEEPEND
 10
242.66
 20
95.46
 11
249.66
 21
95.46
  0
LINE
  8
SLEEPEND
 10
242.66
 20
49.46
 11
249.66
 21
49.46
  0
LINE
  8
TIMBCENT
 10
246.16
 20
44.46
 11
246.16
 21
100.46
  0
TEXT
  8
TIMBNUMB
 10
244.16
 20
99.99
 40
2.47
  1
254.T11
  0
LINE
  8
TIMBOUTL
 10
252.66
 20
96.46
 11
259.66
 21
96.46
  0
LINE
  8
TIMBOUTL
 10
252.66
 20
46.46
 11
259.66
 21
46.46
  0
LINE
  8
TIMBOUTL
 10
254.16
 20
97.96
 11
254.16
 21
44.96
  0
LINE
  8
TIMBOUTL
 10
258.16
 20
97.96
 11
258.16
 21
44.96
  0
LINE
  8
SLEEPEND
 10
252.66
 20
95.46
 11
259.66
 21
95.46
  0
LINE
  8
SLEEPEND
 10
252.66
 20
47.46
 11
259.66
 21
47.46
  0
LINE
  8
TIMBCENT
 10
256.16
 20
42.46
 11
256.16
 21
100.46
  0
TEXT
  8
TIMBNUMB
 10
254.16
 20
99.99
 40
2.47
  1
254.T12
  0
LINE
  8
TIMBOUTL
 10
262.66
 20
96.46
 11
269.66
 21
96.46
  0
LINE
  8
TIMBOUTL
 10
262.66
 20
46.46
 11
269.66
 21
46.46
  0
LINE
  8
TIMBOUTL
 10
264.16
 20
97.96
 11
264.16
 21
44.96
  0
LINE
  8
TIMBOUTL
 10
268.16
 20
97.96
 11
268.16
 21
44.96
  0
LINE
  8
SLEEPEND
 10
262.66
 20
95.46
 11
269.66
 21
95.46
  0
LINE
  8
SLEEPEND
 10
262.66
 20
47.46
 11
269.66
 21
47.46
  0
LINE
  8
TIMBCENT
 10
266.16
 20
42.46
 11
266.16
 21
100.46
  0
TEXT
  8
TIMBNUMB
 10
264.16
 20
99.99
 40
2.47
  1
254.T13
  0
LINE
  8
TIMBOUTL
 10
272.66
 20
96.46
 11
279.66
 21
96.46
  0
LINE
  8
TIMBOUTL
 10
272.66
 20
44.46
 11
279.66
 21
44.46
  0
LINE
  8
TIMBOUTL
 10
274.16
 20
97.96
 11
274.16
 21
42.96
  0
LINE
  8
TIMBOUTL
 10
278.16
 20
97.96
 11
278.16
 21
42.96
  0
LINE
  8
SLEEPEND
 10
272.66
 20
95.46
 11
279.66
 21
95.46
  0
LINE
  8
SLEEPEND
 10
272.66
 20
45.46
 11
279.66
 21
45.46
  0
LINE
  8
TIMBCENT
 10
276.16
 20
40.46
 11
276.16
 21
100.46
  0
TEXT
  8
TIMBNUMB
 10
274.16
 20
99.99
 40
2.47
  1
254.T14
  0
LINE
  8
TIMBOUTL
 10
281.61
 20
96.46
 11
288.61
 21
96.46
  0
LINE
  8
TIMBOUTL
 10
281.61
 20
44.46
 11
288.61
 21
44.46
  0
LINE
  8
TIMBOUTL
 10
283.11
 20
97.96
 11
283.11
 21
42.96
  0
LINE
  8
TIMBOUTL
 10
287.11
 20
97.96
 11
287.11
 21
42.96
  0
LINE
  8
SLEEPEND
 10
281.61
 20
95.46
 11
288.61
 21
95.46
  0
LINE
  8
SLEEPEND
 10
281.61
 20
45.46
 11
288.61
 21
45.46
  0
LINE
  8
TIMBCENT
 10
285.11
 20
40.46
 11
285.11
 21
100.46
  0
TEXT
  8
TIMBNUMB
 10
283.11
 20
99.99
 40
2.47
  1
254.T15
  0
LINE
  8
TIMBOUTL
 10
356.61
 20
96.46
 11
362.95
 21
96.46
  0
LINE
  8
TIMBOUTL
 10
356.61
 20
60.46
 11
362.95
 21
60.46
  0
LINE
  8
TIMBOUTL
 10
358.11
 20
97.96
 11
358.11
 21
58.96
  0
LINE
  8
TIMBOUTL
 10
361.45
 20
97.96
 11
361.45
 21
58.96
  0
LINE
  8
SLEEPEND
 10
356.61
 20
95.46
 11
362.95
 21
95.46
  0
LINE
  8
SLEEPEND
 10
356.61
 20
61.46
 11
362.95
 21
61.46
  0
LINE
  8
TIMBCENT
 10
359.78
 20
56.46
 11
359.78
 21
100.46
  0
TEXT
  8
TIMBNUMB
 10
357.78
 20
99.99
 40
2.47
  1
254.E1
  0
LINE
  8
TIMBOUTL
 10
365.78
 20
96.46
 11
372.11
 21
96.46
  0
LINE
  8
TIMBOUTL
 10
365.78
 20
60.46
 11
372.11
 21
60.46
  0
LINE
  8
TIMBOUTL
 10
367.28
 20
97.96
 11
367.28
 21
58.96
  0
LINE
  8
TIMBOUTL
 10
370.61
 20
97.96
 11
370.61
 21
58.96
  0
LINE
  8
SLEEPEND
 10
365.78
 20
95.46
 11
372.11
 21
95.46
  0
LINE
  8
SLEEPEND
 10
365.78
 20
61.46
 11
372.11
 21
61.46
  0
LINE
  8
TIMBCENT
 10
368.95
 20
56.46
 11
368.95
 21
100.46
  0
TEXT
  8
TIMBNUMB
 10
366.95
 20
99.99
 40
2.47
  1
254.E2
  0
TEXT
  8
INFOTEXT
 10
179.12
 20
66.82
 40
4.59
  1
LNWR 12ft Loose Heel Switch for 1:8 CLM crossing.
  0
LINE
  8
GDMARKS
 10
18.16
 20
79.79
 11
18.16
 21
77.13
  0
LINE
  8
GDMARKS
 10
18.16
 20
79.79
 11
18.16
 21
77.13
  0
LINE
  8
GDMARKS
 10
40.13
 20
86.21
 11
40.20
 21
90.46
  0
LINE
  8
GDMARKS
 10
39.89
 20
70.71
 11
39.82
 21
66.46
  0
LINE
  8
GDMARKS
 10
69.43
 20
85.29
 11
69.59
 21
90.46
  0
LINE
  8
GDMARKS
 10
69.20
 20
65.54
 11
69.20
 21
70.71
  0
LINE
  8
GDMARKS
 10
309.28
 20
69.04
 11
310.28
 21
69.04
  0
LINE
  8
GDMARKS
 10
309.78
 20
69.38
 11
309.78
 21
68.71
  0
LINE
  8
GDMARKS
 10
40.01
 20
79.79
 11
40.01
 21
77.13
  0
LINE
  8
GDMARKS
 10
159.14
 20
79.79
 11
159.14
 21
77.13
  0
LINE
  8
GDMARKS
 10
337.11
 20
57.46
 11
337.11
 21
54.79
  0
LINE
  8
GDMARKS
 10
338.50
 20
79.79
 11
338.50
 21
77.13
  0
LINE
  8
GDMARKS
 10
354.27
 20
55.31
 11
354.27
 21
52.64
  0
LINE
  8
GDMARKS
 10
355.78
 20
79.79
 11
355.78
 21
77.13
  0
LINE
  8
GDMARKS
 10
45.49
 20
65.04
 11
46.83
 21
65.04
  0
LINE
  8
GDMARKS
 10
45.49
 20
91.87
 11
46.83
 21
91.87
  0
LINE
  8
GDMARKS
 10
45.49
 20
65.04
 11
45.49
 21
91.87
  0
LINE
  8
GDMARKS
 10
46.83
 20
65.04
 11
46.83
 21
91.87
  0
LINE
  8
JOINTS
 10
18.16
 20
70.71
 11
18.16
 21
66.46
  0
LINE
  8
JOINTS
 10
18.16
 20
86.21
 11
18.16
 21
90.46
  0
LINE
  8
JOINTS
 10
88.21
 20
88.04
 11
88.11
 21
84.71
  0
LINE
  8
JOINTS
 10
88.16
 20
67.38
 11
88.16
 21
70.71
  0
LINE
  8
JOINTS
 10
122.04
 20
63.64
 11
122.19
 21
66.97
  0
LINE
  8
JOINTS
 10
122.16
 20
87.12
 11
122.16
 21
90.46
  0
LINE
  8
JOINTS
 10
289.11
 20
66.46
 11
289.11
 21
70.71
  0
LINE
  8
JOINTS
 10
289.08
 20
69.87
 11
289.58
 21
74.09
  0
LINE
  8
JOINTS
 10
355.23
 20
61.66
 11
355.76
 21
65.88
  0
LINE
  8
JOINTS
 10
355.78
 20
70.71
 11
355.78
 21
66.46
  0
LINE
  8
RADMARKS
 10
87.57
 20
67.55
 11
88.16
 21
86.37
  0
LINE
  8
RADMARKS
 10
307.43
 20
50.36
 11
309.78
 21
69.04
  0
LINE
  8
CENTLINE
 10
18.16
 20
78.46
 11
24.16
 21
78.46
  0
LINE
  8
CENTLINE
 10
24.16
 20
78.46
 11
30.16
 21
78.46
  0
LINE
  8
CENTLINE
 10
30.16
 20
78.46
 11
36.16
 21
78.46
  0
LINE
  8
CENTLINE
 10
36.16
 20
78.46
 11
42.16
 21
78.46
  0
LINE
  8
CENTLINE
 10
42.16
 20
78.46
 11
48.16
 21
78.46
  0
LINE
  8
CENTLINE
 10
48.16
 20
78.46
 11
54.16
 21
78.46
  0
LINE
  8
CENTLINE
 10
54.16
 20
78.46
 11
60.16
 21
78.46
  0
LINE
  8
CENTLINE
 10
60.16
 20
78.46
 11
66.16
 21
78.46
  0
LINE
  8
CENTLINE
 10
66.16
 20
78.46
 11
72.16
 21
78.46
  0
LINE
  8
CENTLINE
 10
72.16
 20
78.46
 11
78.16
 21
78.46
  0
LINE
  8
CENTLINE
 10
78.16
 20
78.46
 11
84.16
 21
78.46
  0
LINE
  8
CENTLINE
 10
84.16
 20
78.46
 11
90.16
 21
78.46
  0
LINE
  8
CENTLINE
 10
90.16
 20
78.46
 11
96.16
 21
78.46
  0
LINE
  8
CENTLINE
 10
96.16
 20
78.46
 11
102.16
 21
78.46
  0
LINE
  8
CENTLINE
 10
102.16
 20
78.46
 11
108.16
 21
78.46
  0
LINE
  8
CENTLINE
 10
108.16
 20
78.46
 11
114.16
 21
78.46
  0
LINE
  8
CENTLINE
 10
114.16
 20
78.46
 11
120.16
 21
78.46
  0
LINE
  8
CENTLINE
 10
120.16
 20
78.46
 11
126.16
 21
78.46
  0
LINE
  8
CENTLINE
 10
126.16
 20
78.46
 11
132.16
 21
78.46
  0
LINE
  8
CENTLINE
 10
132.16
 20
78.46
 11
138.16
 21
78.46
  0
LINE
  8
CENTLINE
 10
138.16
 20
78.46
 11
144.16
 21
78.46
  0
LINE
  8
CENTLINE
 10
144.16
 20
78.46
 11
150.16
 21
78.46
  0
LINE
  8
CENTLINE
 10
150.16
 20
78.46
 11
156.16
 21
78.46
  0
LINE
  8
CENTLINE
 10
156.16
 20
78.46
 11
162.16
 21
78.46
  0
LINE
  8
CENTLINE
 10
162.16
 20
78.46
 11
168.16
 21
78.46
  0
LINE
  8
CENTLINE
 10
168.16
 20
78.46
 11
174.16
 21
78.46
  0
LINE
  8
CENTLINE
 10
174.16
 20
78.46
 11
180.16
 21
78.46
  0
LINE
  8
CENTLINE
 10
180.16
 20
78.46
 11
186.16
 21
78.46
  0
LINE
  8
CENTLINE
 10
186.16
 20
78.46
 11
192.16
 21
78.46
  0
LINE
  8
CENTLINE
 10
192.16
 20
78.46
 11
198.16
 21
78.46
  0
LINE
  8
CENTLINE
 10
198.16
 20
78.46
 11
204.16
 21
78.46
  0
LINE
  8
CENTLINE
 10
204.16
 20
78.46
 11
210.16
 21
78.46
  0
LINE
  8
CENTLINE
 10
210.16
 20
78.46
 11
216.16
 21
78.46
  0
LINE
  8
CENTLINE
 10
216.16
 20
78.46
 11
222.16
 21
78.46
  0
LINE
  8
CENTLINE
 10
222.16
 20
78.46
 11
228.16
 21
78.46
  0
LINE
  8
CENTLINE
 10
228.16
 20
78.46
 11
234.16
 21
78.46
  0
LINE
  8
CENTLINE
 10
234.16
 20
78.46
 11
240.16
 21
78.46
  0
LINE
  8
CENTLINE
 10
240.16
 20
78.46
 11
246.16
 21
78.46
  0
LINE
  8
CENTLINE
 10
246.16
 20
78.46
 11
252.16
 21
78.46
  0
LINE
  8
CENTLINE
 10
252.16
 20
78.46
 11
258.16
 21
78.46
  0
LINE
  8
CENTLINE
 10
258.16
 20
78.46
 11
264.16
 21
78.46
  0
LINE
  8
CENTLINE
 10
264.16
 20
78.46
 11
270.16
 21
78.46
  0
LINE
  8
CENTLINE
 10
270.16
 20
78.46
 11
276.16
 21
78.46
  0
LINE
  8
CENTLINE
 10
276.16
 20
78.46
 11
282.16
 21
78.46
  0
LINE
  8
CENTLINE
 10
282.16
 20
78.46
 11
288.16
 21
78.46
  0
LINE
  8
CENTLINE
 10
288.16
 20
78.46
 11
294.16
 21
78.46
  0
LINE
  8
CENTLINE
 10
294.16
 20
78.46
 11
300.16
 21
78.46
  0
LINE
  8
CENTLINE
 10
300.16
 20
78.46
 11
306.16
 21
78.46
  0
LINE
  8
CENTLINE
 10
306.16
 20
78.46
 11
312.16
 21
78.46
  0
LINE
  8
CENTLINE
 10
312.16
 20
78.46
 11
318.16
 21
78.46
  0
LINE
  8
CENTLINE
 10
318.16
 20
78.46
 11
324.16
 21
78.46
  0
LINE
  8
CENTLINE
 10
324.16
 20
78.46
 11
330.16
 21
78.46
  0
LINE
  8
CENTLINE
 10
330.16
 20
78.46
 11
336.16
 21
78.46
  0
LINE
  8
CENTLINE
 10
336.16
 20
78.46
 11
342.16
 21
78.46
  0
LINE
  8
CENTLINE
 10
342.16
 20
78.46
 11
348.16
 21
78.46
  0
LINE
  8
CENTLINE
 10
348.16
 20
78.46
 11
354.16
 21
78.46
  0
LINE
  8
CENTLINE
 10
354.16
 20
78.46
 11
360.16
 21
78.46
  0
LINE
  8
CENTLINE
 10
360.16
 20
78.46
 11
366.16
 21
78.46
  0
LINE
  8
CENTLINE
 10
366.16
 20
78.46
 11
372.16
 21
78.46
  0
LINE
  8
CENTLINE
 10
372.16
 20
78.46
 11
373.99
 21
78.46
  0
LINE
  8
CENTLINE
 10
159.14
 20
78.46
 11
165.14
 21
77.71
  0
LINE
  8
CENTLINE
 10
165.14
 20
77.71
 11
171.14
 21
76.95
  0
LINE
  8
CENTLINE
 10
171.14
 20
76.95
 11
177.14
 21
76.20
  0
LINE
  8
CENTLINE
 10
177.14
 20
76.20
 11
183.14
 21
75.45
  0
LINE
  8
CENTLINE
 10
183.14
 20
75.45
 11
189.14
 21
74.70
  0
LINE
  8
CENTLINE
 10
189.14
 20
74.70
 11
195.14
 21
73.94
  0
LINE
  8
CENTLINE
 10
195.14
 20
73.94
 11
201.14
 21
73.19
  0
LINE
  8
CENTLINE
 10
201.14
 20
73.19
 11
207.14
 21
72.44
  0
LINE
  8
CENTLINE
 10
207.14
 20
72.44
 11
213.14
 21
71.68
  0
LINE
  8
CENTLINE
 10
213.14
 20
71.68
 11
219.14
 21
70.93
  0
LINE
  8
CENTLINE
 10
219.14
 20
70.93
 11
225.14
 21
70.18
  0
LINE
  8
CENTLINE
 10
225.14
 20
70.18
 11
231.14
 21
69.42
  0
LINE
  8
CENTLINE
 10
231.14
 20
69.42
 11
237.14
 21
68.67
  0
LINE
  8
CENTLINE
 10
237.14
 20
68.67
 11
243.14
 21
67.92
  0
LINE
  8
CENTLINE
 10
243.14
 20
67.92
 11
249.14
 21
67.17
  0
LINE
  8
CENTLINE
 10
249.14
 20
67.17
 11
255.14
 21
66.41
  0
LINE
  8
CENTLINE
 10
255.14
 20
66.41
 11
261.14
 21
65.66
  0
LINE
  8
CENTLINE
 10
261.14
 20
65.66
 11
267.14
 21
64.91
  0
LINE
  8
CENTLINE
 10
267.14
 20
64.91
 11
273.14
 21
64.15
  0
LINE
  8
CENTLINE
 10
273.14
 20
64.15
 11
279.14
 21
63.40
  0
LINE
  8
CENTLINE
 10
279.14
 20
63.40
 11
285.14
 21
62.65
  0
LINE
  8
CENTLINE
 10
285.14
 20
62.65
 11
291.14
 21
61.90
  0
LINE
  8
CENTLINE
 10
291.14
 20
61.90
 11
297.14
 21
61.14
  0
LINE
  8
CENTLINE
 10
297.14
 20
61.14
 11
303.14
 21
60.39
  0
LINE
  8
CENTLINE
 10
303.14
 20
60.39
 11
309.14
 21
59.64
  0
LINE
  8
CENTLINE
 10
309.14
 20
59.64
 11
315.14
 21
58.88
  0
LINE
  8
CENTLINE
 10
315.14
 20
58.88
 11
321.14
 21
58.13
  0
LINE
  8
CENTLINE
 10
321.14
 20
58.13
 11
327.14
 21
57.38
  0
LINE
  8
CENTLINE
 10
327.14
 20
57.38
 11
333.14
 21
56.62
  0
LINE
  8
CENTLINE
 10
333.14
 20
56.62
 11
339.14
 21
55.87
  0
LINE
  8
CENTLINE
 10
339.14
 20
55.87
 11
345.14
 21
55.12
  0
LINE
  8
CENTLINE
 10
345.14
 20
55.12
 11
351.14
 21
54.37
  0
LINE
  8
CENTLINE
 10
351.14
 20
54.37
 11
357.14
 21
53.61
  0
LINE
  8
CENTLINE
 10
357.14
 20
53.61
 11
357.44
 21
53.58
  0
LINE
  8
RAILS
 10
18.16
 20
87.87
 11
24.16
 21
87.87
  0
LINE
  8
RAILS
 10
24.16
 20
87.87
 11
30.16
 21
87.87
  0
LINE
  8
RAILS
 10
30.16
 20
87.87
 11
36.16
 21
87.87
  0
LINE
  8
RAILS
 10
36.16
 20
87.87
 11
42.16
 21
87.87
  0
LINE
  8
RAILS
 10
42.16
 20
87.87
 11
48.16
 21
87.87
  0
LINE
  8
RAILS
 10
48.16
 20
87.87
 11
54.16
 21
87.87
  0
LINE
  8
RAILS
 10
54.16
 20
87.87
 11
60.16
 21
87.87
  0
LINE
  8
RAILS
 10
60.16
 20
87.87
 11
66.16
 21
87.87
  0
LINE
  8
RAILS
 10
66.16
 20
87.87
 11
72.16
 21
87.87
  0
LINE
  8
RAILS
 10
72.16
 20
87.87
 11
78.16
 21
87.87
  0
LINE
  8
RAILS
 10
78.16
 20
87.87
 11
84.16
 21
87.87
  0
LINE
  8
RAILS
 10
84.16
 20
87.87
 11
90.16
 21
87.87
  0
LINE
  8
RAILS
 10
90.16
 20
87.87
 11
96.16
 21
87.87
  0
LINE
  8
RAILS
 10
96.16
 20
87.87
 11
102.16
 21
87.87
  0
LINE
  8
RAILS
 10
102.16
 20
87.87
 11
108.16
 21
87.87
  0
LINE
  8
RAILS
 10
108.16
 20
87.87
 11
114.16
 21
87.87
  0
LINE
  8
RAILS
 10
114.16
 20
87.87
 11
120.16
 21
87.87
  0
LINE
  8
RAILS
 10
120.16
 20
87.87
 11
126.16
 21
87.87
  0
LINE
  8
RAILS
 10
126.16
 20
87.87
 11
132.16
 21
87.87
  0
LINE
  8
RAILS
 10
132.16
 20
87.87
 11
138.16
 21
87.87
  0
LINE
  8
RAILS
 10
138.16
 20
87.87
 11
144.16
 21
87.87
  0
LINE
  8
RAILS
 10
144.16
 20
87.87
 11
150.16
 21
87.87
  0
LINE
  8
RAILS
 10
150.16
 20
87.87
 11
156.16
 21
87.87
  0
LINE
  8
RAILS
 10
156.16
 20
87.87
 11
162.16
 21
87.87
  0
LINE
  8
RAILS
 10
162.16
 20
87.87
 11
168.16
 21
87.87
  0
LINE
  8
RAILS
 10
168.16
 20
87.87
 11
174.16
 21
87.87
  0
LINE
  8
RAILS
 10
174.16
 20
87.87
 11
180.16
 21
87.87
  0
LINE
  8
RAILS
 10
180.16
 20
87.87
 11
186.16
 21
87.87
  0
LINE
  8
RAILS
 10
186.16
 20
87.87
 11
192.16
 21
87.87
  0
LINE
  8
RAILS
 10
192.16
 20
87.87
 11
198.16
 21
87.87
  0
LINE
  8
RAILS
 10
198.16
 20
87.87
 11
204.16
 21
87.87
  0
LINE
  8
RAILS
 10
204.16
 20
87.87
 11
210.16
 21
87.87
  0
LINE
  8
RAILS
 10
210.16
 20
87.87
 11
216.16
 21
87.87
  0
LINE
  8
RAILS
 10
216.16
 20
87.87
 11
222.16
 21
87.87
  0
LINE
  8
RAILS
 10
222.16
 20
87.87
 11
228.16
 21
87.87
  0
LINE
  8
RAILS
 10
228.16
 20
87.87
 11
234.16
 21
87.87
  0
LINE
  8
RAILS
 10
234.16
 20
87.87
 11
240.16
 21
87.87
  0
LINE
  8
RAILS
 10
240.16
 20
87.87
 11
246.16
 21
87.87
  0
LINE
  8
RAILS
 10
246.16
 20
87.87
 11
252.16
 21
87.87
  0
LINE
  8
RAILS
 10
252.16
 20
87.87
 11
258.16
 21
87.87
  0
LINE
  8
RAILS
 10
258.16
 20
87.87
 11
264.16
 21
87.87
  0
LINE
  8
RAILS
 10
264.16
 20
87.87
 11
270.16
 21
87.87
  0
LINE
  8
RAILS
 10
270.16
 20
87.87
 11
276.16
 21
87.87
  0
LINE
  8
RAILS
 10
276.16
 20
87.87
 11
282.16
 21
87.87
  0
LINE
  8
RAILS
 10
282.16
 20
87.87
 11
288.16
 21
87.87
  0
LINE
  8
RAILS
 10
288.16
 20
87.87
 11
294.16
 21
87.87
  0
LINE
  8
RAILS
 10
294.16
 20
87.87
 11
300.16
 21
87.87
  0
LINE
  8
RAILS
 10
300.16
 20
87.87
 11
306.16
 21
87.87
  0
LINE
  8
RAILS
 10
306.16
 20
87.87
 11
312.16
 21
87.87
  0
LINE
  8
RAILS
 10
312.16
 20
87.87
 11
318.16
 21
87.87
  0
LINE
  8
RAILS
 10
318.16
 20
87.87
 11
324.16
 21
87.87
  0
LINE
  8
RAILS
 10
324.16
 20
87.87
 11
330.16
 21
87.87
  0
LINE
  8
RAILS
 10
330.16
 20
87.87
 11
336.16
 21
87.87
  0
LINE
  8
RAILS
 10
336.16
 20
87.87
 11
342.16
 21
87.87
  0
LINE
  8
RAILS
 10
342.16
 20
87.87
 11
348.16
 21
87.87
  0
LINE
  8
RAILS
 10
348.16
 20
87.87
 11
354.16
 21
87.87
  0
LINE
  8
RAILS
 10
354.16
 20
87.87
 11
360.16
 21
87.87
  0
LINE
  8
RAILS
 10
360.16
 20
87.87
 11
366.16
 21
87.87
  0
LINE
  8
RAILS
 10
366.16
 20
87.87
 11
372.16
 21
87.87
  0
LINE
  8
RAILS
 10
372.16
 20
87.87
 11
373.99
 21
87.87
  0
LINE
  8
RAILS
 10
39.86
 20
69.04
 11
45.86
 21
69.04
  0
LINE
  8
RAILS
 10
45.86
 20
69.04
 11
51.86
 21
69.04
  0
LINE
  8
RAILS
 10
51.86
 20
69.04
 11
57.86
 21
69.04
  0
LINE
  8
RAILS
 10
57.86
 20
69.04
 11
63.86
 21
69.04
  0
LINE
  8
RAILS
 10
63.86
 20
69.04
 11
69.20
 21
69.04
  0
LINE
  8
RAILS
 10
69.20
 20
69.04
 11
69.20
 21
69.04
  0
LINE
  8
RAILS
 10
69.20
 20
69.04
 11
75.20
 21
69.04
  0
LINE
  8
RAILS
 10
75.20
 20
69.04
 11
81.20
 21
69.04
  0
LINE
  8
RAILS
 10
81.20
 20
69.04
 11
87.20
 21
69.04
  0
LINE
  8
RAILS
 10
87.20
 20
69.04
 11
93.20
 21
69.04
  0
LINE
  8
RAILS
 10
93.20
 20
69.04
 11
99.20
 21
69.04
  0
LINE
  8
RAILS
 10
99.20
 20
69.04
 11
105.20
 21
69.04
  0
LINE
  8
RAILS
 10
105.20
 20
69.04
 11
111.20
 21
69.04
  0
LINE
  8
RAILS
 10
111.20
 20
69.04
 11
117.20
 21
69.04
  0
LINE
  8
RAILS
 10
117.20
 20
69.04
 11
123.20
 21
69.04
  0
LINE
  8
RAILS
 10
123.20
 20
69.04
 11
129.20
 21
69.04
  0
LINE
  8
RAILS
 10
129.20
 20
69.04
 11
135.20
 21
69.04
  0
LINE
  8
RAILS
 10
135.20
 20
69.04
 11
141.20
 21
69.04
  0
LINE
  8
RAILS
 10
141.20
 20
69.04
 11
147.20
 21
69.04
  0
LINE
  8
RAILS
 10
147.20
 20
69.04
 11
153.20
 21
69.04
  0
LINE
  8
RAILS
 10
153.20
 20
69.04
 11
159.20
 21
69.04
  0
LINE
  8
RAILS
 10
159.20
 20
69.04
 11
165.20
 21
69.04
  0
LINE
  8
RAILS
 10
165.20
 20
69.04
 11
171.20
 21
69.04
  0
LINE
  8
RAILS
 10
171.20
 20
69.04
 11
177.20
 21
69.04
  0
LINE
  8
RAILS
 10
177.20
 20
69.04
 11
183.20
 21
69.04
  0
LINE
  8
RAILS
 10
183.20
 20
69.04
 11
189.20
 21
69.04
  0
LINE
  8
RAILS
 10
189.20
 20
69.04
 11
195.20
 21
69.04
  0
LINE
  8
RAILS
 10
195.20
 20
69.04
 11
201.20
 21
69.04
  0
LINE
  8
RAILS
 10
201.20
 20
69.04
 11
207.20
 21
69.04
  0
LINE
  8
RAILS
 10
207.20
 20
69.04
 11
213.20
 21
69.04
  0
LINE
  8
RAILS
 10
213.20
 20
69.04
 11
219.20
 21
69.04
  0
LINE
  8
RAILS
 10
219.20
 20
69.04
 11
225.20
 21
69.04
  0
LINE
  8
RAILS
 10
225.20
 20
69.04
 11
231.20
 21
69.04
  0
LINE
  8
RAILS
 10
231.20
 20
69.04
 11
237.20
 21
69.04
  0
LINE
  8
RAILS
 10
237.20
 20
69.04
 11
243.20
 21
69.04
  0
LINE
  8
RAILS
 10
243.20
 20
69.04
 11
249.20
 21
69.04
  0
LINE
  8
RAILS
 10
249.20
 20
69.04
 11
255.20
 21
69.04
  0
LINE
  8
RAILS
 10
255.20
 20
69.04
 11
261.20
 21
69.04
  0
LINE
  8
RAILS
 10
261.20
 20
69.04
 11
267.20
 21
69.04
  0
LINE
  8
RAILS
 10
267.20
 20
69.04
 11
273.20
 21
69.04
  0
LINE
  8
RAILS
 10
273.20
 20
69.04
 11
279.20
 21
69.04
  0
LINE
  8
RAILS
 10
279.20
 20
69.04
 11
285.20
 21
69.04
  0
LINE
  8
RAILS
 10
285.20
 20
69.04
 11
291.20
 21
69.04
  0
LINE
  8
RAILS
 10
291.20
 20
69.04
 11
297.20
 21
69.04
  0
LINE
  8
RAILS
 10
297.20
 20
69.04
 11
303.20
 21
69.04
  0
LINE
  8
RAILS
 10
303.20
 20
69.04
 11
304.35
 21
69.04
  0
LINE
  8
RAILS
 10
304.35
 20
69.04
 11
304.35
 21
69.04
  0
LINE
  8
RAILS
 10
304.35
 20
69.04
 11
309.69
 21
68.38
  0
LINE
  8
RAILS
 10
309.69
 20
68.38
 11
309.69
 21
68.38
  0
LINE
  8
RAILS
 10
309.69
 20
68.38
 11
315.69
 21
67.63
  0
LINE
  8
RAILS
 10
315.69
 20
67.63
 11
319.12
 21
67.20
  0
LINE
  8
RAILS
 10
319.12
 20
67.20
 11
319.12
 21
67.20
  0
LINE
  8
RAILS
 10
319.12
 20
67.20
 11
325.12
 21
66.15
  0
LINE
  8
RAILS
 10
325.12
 20
66.15
 11
330.94
 21
65.13
  0
LINE
  8
RAILS
 10
40.16
 20
87.87
 11
40.16
 21
87.87
  0
LINE
  8
RAILS
 10
40.16
 20
87.87
 11
46.16
 21
87.69
  0
LINE
  8
RAILS
 10
46.16
 20
87.69
 11
52.16
 21
87.50
  0
LINE
  8
RAILS
 10
52.16
 20
87.50
 11
58.16
 21
87.31
  0
LINE
  8
RAILS
 10
58.16
 20
87.31
 11
64.16
 21
87.12
  0
LINE
  8
RAILS
 10
64.16
 20
87.12
 11
69.51
 21
86.96
  0
LINE
  8
RAILS
 10
69.51
 20
86.96
 11
75.51
 21
86.77
  0
LINE
  8
RAILS
 10
75.51
 20
86.77
 11
81.51
 21
86.58
  0
LINE
  8
RAILS
 10
81.51
 20
86.58
 11
87.51
 21
86.40
  0
LINE
  8
RAILS
 10
87.51
 20
86.40
 11
88.16
 21
86.37
  0
LINE
  8
RAILS
 10
88.16
 20
86.37
 11
88.16
 21
86.37
  0
LINE
  8
RAILS
 10
88.16
 20
86.37
 11
94.16
 21
86.18
  0
LINE
  8
RAILS
 10
94.16
 20
86.18
 11
100.16
 21
85.97
  0
LINE
  8
RAILS
 10
100.16
 20
85.97
 11
106.16
 21
85.74
  0
LINE
  8
RAILS
 10
106.16
 20
85.74
 11
112.16
 21
85.50
  0
LINE
  8
RAILS
 10
112.16
 20
85.50
 11
118.16
 21
85.25
  0
LINE
  8
RAILS
 10
118.16
 20
85.25
 11
124.16
 21
84.98
  0
LINE
  8
RAILS
 10
124.16
 20
84.98
 11
130.16
 21
84.69
  0
LINE
  8
RAILS
 10
130.16
 20
84.69
 11
136.16
 21
84.39
  0
LINE
  8
RAILS
 10
136.16
 20
84.39
 11
142.16
 21
84.07
  0
LINE
  8
RAILS
 10
142.16
 20
84.07
 11
148.16
 21
83.74
  0
LINE
  8
RAILS
 10
148.16
 20
83.74
 11
154.16
 21
83.39
  0
LINE
  8
RAILS
 10
154.16
 20
83.39
 11
160.16
 21
83.03
  0
LINE
  8
RAILS
 10
160.16
 20
83.03
 11
166.16
 21
82.65
  0
LINE
  8
RAILS
 10
166.16
 20
82.65
 11
172.16
 21
82.26
  0
LINE
  8
RAILS
 10
172.16
 20
82.26
 11
178.16
 21
81.85
  0
LINE
  8
RAILS
 10
178.16
 20
81.85
 11
184.16
 21
81.43
  0
LINE
  8
RAILS
 10
184.16
 20
81.43
 11
190.16
 21
80.99
  0
LINE
  8
RAILS
 10
190.16
 20
80.99
 11
196.16
 21
80.54
  0
LINE
  8
RAILS
 10
196.16
 20
80.54
 11
202.16
 21
80.07
  0
LINE
  8
RAILS
 10
202.16
 20
80.07
 11
208.16
 21
79.58
  0
LINE
  8
RAILS
 10
208.16
 20
79.58
 11
214.16
 21
79.08
  0
LINE
  8
RAILS
 10
214.16
 20
79.08
 11
220.16
 21
78.57
  0
LINE
  8
RAILS
 10
220.16
 20
78.57
 11
226.16
 21
78.04
  0
LINE
  8
RAILS
 10
226.16
 20
78.04
 11
232.16
 21
77.49
  0
LINE
  8
RAILS
 10
232.16
 20
77.49
 11
238.16
 21
76.93
  0
LINE
  8
RAILS
 10
238.16
 20
76.93
 11
244.16
 21
76.35
  0
LINE
  8
RAILS
 10
244.16
 20
76.35
 11
250.16
 21
75.76
  0
LINE
  8
RAILS
 10
250.16
 20
75.76
 11
256.16
 21
75.16
  0
LINE
  8
RAILS
 10
256.16
 20
75.16
 11
262.16
 21
74.53
  0
LINE
  8
RAILS
 10
262.16
 20
74.53
 11
268.16
 21
73.90
  0
LINE
  8
RAILS
 10
268.16
 20
73.90
 11
274.16
 21
73.24
  0
LINE
  8
RAILS
 10
274.16
 20
73.24
 11
280.16
 21
72.57
  0
LINE
  8
RAILS
 10
280.16
 20
72.57
 11
286.16
 21
71.89
  0
LINE
  8
RAILS
 10
286.16
 20
71.89
 11
292.16
 21
71.19
  0
LINE
  8
RAILS
 10
292.16
 20
71.19
 11
298.16
 21
70.47
  0
LINE
  8
RAILS
 10
298.16
 20
70.47
 11
304.16
 21
69.74
  0
LINE
  8
RAILS
 10
304.16
 20
69.74
 11
304.39
 21
69.71
  0
LINE
  8
RAILS
 10
304.39
 20
69.71
 11
304.39
 21
69.71
  0
LINE
  8
RAILS
 10
304.39
 20
69.71
 11
310.39
 21
69.71
  0
LINE
  8
RAILS
 10
310.39
 20
69.71
 11
316.39
 21
69.71
  0
LINE
  8
RAILS
 10
316.39
 20
69.71
 11
319.28
 21
69.71
  0
LINE
  8
RAILS
 10
319.28
 20
69.71
 11
319.28
 21
69.71
  0
LINE
  8
RAILS
 10
319.28
 20
69.71
 11
325.28
 21
70.01
  0
LINE
  8
RAILS
 10
325.28
 20
70.01
 11
331.28
 21
70.30
  0
LINE
  8
RAILS
 10
18.16
 20
69.04
 11
24.16
 21
69.04
  0
LINE
  8
RAILS
 10
24.16
 20
69.04
 11
30.16
 21
69.04
  0
LINE
  8
RAILS
 10
30.16
 20
69.04
 11
36.16
 21
69.04
  0
LINE
  8
RAILS
 10
36.16
 20
69.04
 11
39.86
 21
69.04
  0
LINE
  8
RAILS
 10
39.86
 20
69.04
 11
39.86
 21
69.04
  0
LINE
  8
RAILS
 10
39.86
 20
69.04
 11
39.86
 21
69.04
  0
LINE
  8
RAILS
 10
39.86
 20
69.04
 11
45.86
 21
68.86
  0
LINE
  8
RAILS
 10
45.86
 20
68.86
 11
51.86
 21
68.67
  0
LINE
  8
RAILS
 10
51.86
 20
68.67
 11
57.86
 21
68.48
  0
LINE
  8
RAILS
 10
57.86
 20
68.48
 11
63.86
 21
68.29
  0
LINE
  8
RAILS
 10
63.86
 20
68.29
 11
69.86
 21
68.11
  0
LINE
  8
RAILS
 10
69.86
 20
68.11
 11
75.86
 21
67.92
  0
LINE
  8
RAILS
 10
75.86
 20
67.92
 11
81.86
 21
67.73
  0
LINE
  8
RAILS
 10
81.86
 20
67.73
 11
87.57
 21
67.55
  0
LINE
  8
RAILS
 10
87.57
 20
67.55
 11
87.57
 21
67.55
  0
LINE
  8
RAILS
 10
87.57
 20
67.55
 11
93.57
 21
67.36
  0
LINE
  8
RAILS
 10
93.57
 20
67.36
 11
99.57
 21
67.15
  0
LINE
  8
RAILS
 10
99.57
 20
67.15
 11
105.57
 21
66.92
  0
LINE
  8
RAILS
 10
105.57
 20
66.92
 11
111.57
 21
66.68
  0
LINE
  8
RAILS
 10
111.57
 20
66.68
 11
117.57
 21
66.43
  0
LINE
  8
RAILS
 10
117.57
 20
66.43
 11
123.57
 21
66.15
  0
LINE
  8
RAILS
 10
123.57
 20
66.15
 11
129.57
 21
65.87
  0
LINE
  8
RAILS
 10
129.57
 20
65.87
 11
135.57
 21
65.56
  0
LINE
  8
RAILS
 10
135.57
 20
65.56
 11
141.57
 21
65.25
  0
LINE
  8
RAILS
 10
141.57
 20
65.25
 11
147.57
 21
64.91
  0
LINE
  8
RAILS
 10
147.57
 20
64.91
 11
153.57
 21
64.57
  0
LINE
  8
RAILS
 10
153.57
 20
64.57
 11
159.57
 21
64.20
  0
LINE
  8
RAILS
 10
159.57
 20
64.20
 11
165.57
 21
63.82
  0
LINE
  8
RAILS
 10
165.57
 20
63.82
 11
171.57
 21
63.43
  0
LINE
  8
RAILS
 10
171.57
 20
63.43
 11
177.57
 21
63.02
  0
LINE
  8
RAILS
 10
177.57
 20
63.02
 11
183.57
 21
62.59
  0
LINE
  8
RAILS
 10
183.57
 20
62.59
 11
189.57
 21
62.15
  0
LINE
  8
RAILS
 10
189.57
 20
62.15
 11
195.57
 21
61.70
  0
LINE
  8
RAILS
 10
195.57
 20
61.70
 11
201.57
 21
61.22
  0
LINE
  8
RAILS
 10
201.57
 20
61.22
 11
207.57
 21
60.74
  0
LINE
  8
RAILS
 10
207.57
 20
60.74
 11
213.57
 21
60.24
  0
LINE
  8
RAILS
 10
213.57
 20
60.24
 11
219.57
 21
59.72
  0
LINE
  8
RAILS
 10
219.57
 20
59.72
 11
225.57
 21
59.18
  0
LINE
  8
RAILS
 10
225.57
 20
59.18
 11
231.57
 21
58.64
  0
LINE
  8
RAILS
 10
231.57
 20
58.64
 11
237.57
 21
58.07
  0
LINE
  8
RAILS
 10
237.57
 20
58.07
 11
243.57
 21
57.49
  0
LINE
  8
RAILS
 10
243.57
 20
57.49
 11
249.57
 21
56.90
  0
LINE
  8
RAILS
 10
249.57
 20
56.90
 11
255.57
 21
56.29
  0
LINE
  8
RAILS
 10
255.57
 20
56.29
 11
261.57
 21
55.66
  0
LINE
  8
RAILS
 10
261.57
 20
55.66
 11
267.57
 21
55.02
  0
LINE
  8
RAILS
 10
267.57
 20
55.02
 11
273.57
 21
54.36
  0
LINE
  8
RAILS
 10
273.57
 20
54.36
 11
279.57
 21
53.69
  0
LINE
  8
RAILS
 10
279.57
 20
53.69
 11
285.57
 21
53.00
  0
LINE
  8
RAILS
 10
285.57
 20
53.00
 11
291.57
 21
52.30
  0
LINE
  8
RAILS
 10
291.57
 20
52.30
 11
297.57
 21
51.58
  0
LINE
  8
RAILS
 10
297.57
 20
51.58
 11
303.57
 21
50.84
  0
LINE
  8
RAILS
 10
303.57
 20
50.84
 11
307.43
 21
50.36
  0
LINE
  8
RAILS
 10
307.43
 20
50.36
 11
307.43
 21
50.36
  0
LINE
  8
RAILS
 10
307.43
 20
50.36
 11
313.43
 21
49.61
  0
LINE
  8
RAILS
 10
313.43
 20
49.61
 11
319.43
 21
48.86
  0
LINE
  8
RAILS
 10
319.43
 20
48.86
 11
325.43
 21
48.10
  0
LINE
  8
RAILS
 10
325.43
 20
48.10
 11
331.43
 21
47.35
  0
LINE
  8
RAILS
 10
331.43
 20
47.35
 11
337.43
 21
46.60
  0
LINE
  8
RAILS
 10
337.43
 20
46.60
 11
343.43
 21
45.84
  0
LINE
  8
RAILS
 10
343.43
 20
45.84
 11
349.43
 21
45.09
  0
LINE
  8
RAILS
 10
349.43
 20
45.09
 11
355.09
 21
44.38
  0
LINE
  8
RAILS
 10
311.78
 20
69.04
 11
317.78
 21
69.04
  0
LINE
  8
RAILS
 10
317.78
 20
69.04
 11
323.78
 21
69.04
  0
LINE
  8
RAILS
 10
323.78
 20
69.04
 11
329.78
 21
69.04
  0
LINE
  8
RAILS
 10
329.78
 20
69.04
 11
335.78
 21
69.04
  0
LINE
  8
RAILS
 10
335.78
 20
69.04
 11
341.78
 21
69.04
  0
LINE
  8
RAILS
 10
341.78
 20
69.04
 11
347.78
 21
69.04
  0
LINE
  8
RAILS
 10
347.78
 20
69.04
 11
353.78
 21
69.04
  0
LINE
  8
RAILS
 10
353.78
 20
69.04
 11
359.78
 21
69.04
  0
LINE
  8
RAILS
 10
359.78
 20
69.04
 11
365.78
 21
69.04
  0
LINE
  8
RAILS
 10
365.78
 20
69.04
 11
371.78
 21
69.04
  0
LINE
  8
RAILS
 10
371.78
 20
69.04
 11
373.99
 21
69.04
  0
LINE
  8
RAILS
 10
311.77
 20
68.79
 11
317.77
 21
68.04
  0
LINE
  8
RAILS
 10
317.77
 20
68.04
 11
323.77
 21
67.29
  0
LINE
  8
RAILS
 10
323.77
 20
67.29
 11
329.77
 21
66.53
  0
LINE
  8
RAILS
 10
329.77
 20
66.53
 11
335.77
 21
65.78
  0
LINE
  8
RAILS
 10
335.77
 20
65.78
 11
341.77
 21
65.03
  0
LINE
  8
RAILS
 10
341.77
 20
65.03
 11
347.77
 21
64.28
  0
LINE
  8
RAILS
 10
347.77
 20
64.28
 11
353.77
 21
63.52
  0
LINE
  8
RAILS
 10
353.77
 20
63.52
 11
357.44
 21
63.06
  0
LINE
  8
RAILS
 10
277.11
 20
86.62
 11
283.11
 21
86.91
  0
LINE
  8
RAILS
 10
283.11
 20
86.91
 11
289.11
 21
87.20
  0
LINE
  8
RAILS
 10
289.11
 20
87.20
 11
289.11
 21
87.20
  0
LINE
  8
RAILS
 10
289.11
 20
87.20
 11
295.11
 21
87.20
  0
LINE
  8
RAILS
 10
295.11
 20
87.20
 11
301.11
 21
87.20
  0
LINE
  8
RAILS
 10
301.11
 20
87.20
 11
307.11
 21
87.20
  0
LINE
  8
RAILS
 10
307.11
 20
87.20
 11
313.11
 21
87.20
  0
LINE
  8
RAILS
 10
313.11
 20
87.20
 11
319.11
 21
87.20
  0
LINE
  8
RAILS
 10
319.11
 20
87.20
 11
319.11
 21
87.20
  0
LINE
  8
RAILS
 10
319.11
 20
87.20
 11
325.11
 21
86.91
  0
LINE
  8
RAILS
 10
325.11
 20
86.91
 11
331.11
 21
86.62
  0
LINE
  8
RAILS
 10
277.44
 20
55.19
 11
283.44
 21
54.21
  0
LINE
  8
RAILS
 10
283.44
 20
54.21
 11
289.29
 21
53.24
  0
LINE
  8
RAILS
 10
289.29
 20
53.24
 11
289.29
 21
53.24
  0
LINE
  8
RAILS
 10
289.29
 20
53.24
 11
295.29
 21
52.53
  0
LINE
  8
RAILS
 10
295.29
 20
52.53
 11
301.29
 21
51.80
  0
LINE
  8
RAILS
 10
301.29
 20
51.80
 11
307.29
 21
51.05
  0
LINE
  8
RAILS
 10
307.29
 20
51.05
 11
307.52
 21
51.03
  0
LINE
  8
RAILS
 10
307.52
 20
51.03
 11
307.52
 21
51.03
  0
LINE
  8
RAILS
 10
307.52
 20
51.03
 11
313.52
 21
50.27
  0
LINE
  8
RAILS
 10
313.52
 20
50.27
 11
319.07
 21
49.58
  0
LINE
  8
RAILS
 10
319.07
 20
49.58
 11
319.07
 21
49.58
  0
LINE
  8
RAILS
 10
319.07
 20
49.58
 11
325.07
 21
49.12
  0
LINE
  8
RAILS
 10
325.07
 20
49.12
 11
331.05
 21
48.66
  0
LINE
  8
RAILS
 10
18.16
 20
88.79
 11
24.16
 21
88.79
  0
LINE
  8
RAILS
 10
24.16
 20
88.79
 11
30.16
 21
88.79
  0
LINE
  8
RAILS
 10
30.16
 20
88.79
 11
36.16
 21
88.79
  0
LINE
  8
RAILS
 10
36.16
 20
88.79
 11
42.16
 21
88.79
  0
LINE
  8
RAILS
 10
42.16
 20
88.79
 11
48.16
 21
88.79
  0
LINE
  8
RAILS
 10
48.16
 20
88.79
 11
54.16
 21
88.79
  0
LINE
  8
RAILS
 10
54.16
 20
88.79
 11
60.16
 21
88.79
  0
LINE
  8
RAILS
 10
60.16
 20
88.79
 11
66.16
 21
88.79
  0
LINE
  8
RAILS
 10
66.16
 20
88.79
 11
72.16
 21
88.79
  0
LINE
  8
RAILS
 10
72.16
 20
88.79
 11
78.16
 21
88.79
  0
LINE
  8
RAILS
 10
78.16
 20
88.79
 11
84.16
 21
88.79
  0
LINE
  8
RAILS
 10
84.16
 20
88.79
 11
90.16
 21
88.79
  0
LINE
  8
RAILS
 10
90.16
 20
88.79
 11
96.16
 21
88.79
  0
LINE
  8
RAILS
 10
96.16
 20
88.79
 11
102.16
 21
88.79
  0
LINE
  8
RAILS
 10
102.16
 20
88.79
 11
108.16
 21
88.79
  0
LINE
  8
RAILS
 10
108.16
 20
88.79
 11
114.16
 21
88.79
  0
LINE
  8
RAILS
 10
114.16
 20
88.79
 11
120.16
 21
88.79
  0
LINE
  8
RAILS
 10
120.16
 20
88.79
 11
126.16
 21
88.79
  0
LINE
  8
RAILS
 10
126.16
 20
88.79
 11
132.16
 21
88.79
  0
LINE
  8
RAILS
 10
132.16
 20
88.79
 11
138.16
 21
88.79
  0
LINE
  8
RAILS
 10
138.16
 20
88.79
 11
144.16
 21
88.79
  0
LINE
  8
RAILS
 10
144.16
 20
88.79
 11
150.16
 21
88.79
  0
LINE
  8
RAILS
 10
150.16
 20
88.79
 11
156.16
 21
88.79
  0
LINE
  8
RAILS
 10
156.16
 20
88.79
 11
162.16
 21
88.79
  0
LINE
  8
RAILS
 10
162.16
 20
88.79
 11
168.16
 21
88.79
  0
LINE
  8
RAILS
 10
168.16
 20
88.79
 11
174.16
 21
88.79
  0
LINE
  8
RAILS
 10
174.16
 20
88.79
 11
180.16
 21
88.79
  0
LINE
  8
RAILS
 10
180.16
 20
88.79
 11
186.16
 21
88.79
  0
LINE
  8
RAILS
 10
186.16
 20
88.79
 11
192.16
 21
88.79
  0
LINE
  8
RAILS
 10
192.16
 20
88.79
 11
198.16
 21
88.79
  0
LINE
  8
RAILS
 10
198.16
 20
88.79
 11
204.16
 21
88.79
  0
LINE
  8
RAILS
 10
204.16
 20
88.79
 11
210.16
 21
88.79
  0
LINE
  8
RAILS
 10
210.16
 20
88.79
 11
216.16
 21
88.79
  0
LINE
  8
RAILS
 10
216.16
 20
88.79
 11
222.16
 21
88.79
  0
LINE
  8
RAILS
 10
222.16
 20
88.79
 11
228.16
 21
88.79
  0
LINE
  8
RAILS
 10
228.16
 20
88.79
 11
234.16
 21
88.79
  0
LINE
  8
RAILS
 10
234.16
 20
88.79
 11
240.16
 21
88.79
  0
LINE
  8
RAILS
 10
240.16
 20
88.79
 11
246.16
 21
88.79
  0
LINE
  8
RAILS
 10
246.16
 20
88.79
 11
252.16
 21
88.79
  0
LINE
  8
RAILS
 10
252.16
 20
88.79
 11
258.16
 21
88.79
  0
LINE
  8
RAILS
 10
258.16
 20
88.79
 11
264.16
 21
88.79
  0
LINE
  8
RAILS
 10
264.16
 20
88.79
 11
270.16
 21
88.79
  0
LINE
  8
RAILS
 10
270.16
 20
88.79
 11
276.16
 21
88.79
  0
LINE
  8
RAILS
 10
276.16
 20
88.79
 11
282.16
 21
88.79
  0
LINE
  8
RAILS
 10
282.16
 20
88.79
 11
288.16
 21
88.79
  0
LINE
  8
RAILS
 10
288.16
 20
88.79
 11
294.16
 21
88.79
  0
LINE
  8
RAILS
 10
294.16
 20
88.79
 11
300.16
 21
88.79
  0
LINE
  8
RAILS
 10
300.16
 20
88.79
 11
306.16
 21
88.79
  0
LINE
  8
RAILS
 10
306.16
 20
88.79
 11
312.16
 21
88.79
  0
LINE
  8
RAILS
 10
312.16
 20
88.79
 11
318.16
 21
88.79
  0
LINE
  8
RAILS
 10
318.16
 20
88.79
 11
324.16
 21
88.79
  0
LINE
  8
RAILS
 10
324.16
 20
88.79
 11
330.16
 21
88.79
  0
LINE
  8
RAILS
 10
330.16
 20
88.79
 11
336.16
 21
88.79
  0
LINE
  8
RAILS
 10
336.16
 20
88.79
 11
342.16
 21
88.79
  0
LINE
  8
RAILS
 10
342.16
 20
88.79
 11
348.16
 21
88.79
  0
LINE
  8
RAILS
 10
348.16
 20
88.79
 11
354.16
 21
88.79
  0
LINE
  8
RAILS
 10
354.16
 20
88.79
 11
360.16
 21
88.79
  0
LINE
  8
RAILS
 10
360.16
 20
88.79
 11
366.16
 21
88.79
  0
LINE
  8
RAILS
 10
366.16
 20
88.79
 11
372.16
 21
88.79
  0
LINE
  8
RAILS
 10
372.16
 20
88.79
 11
373.99
 21
88.79
  0
LINE
  8
RAILS
 10
69.20
 20
68.13
 11
75.20
 21
68.13
  0
LINE
  8
RAILS
 10
75.20
 20
68.13
 11
81.20
 21
68.13
  0
LINE
  8
RAILS
 10
81.20
 20
68.13
 11
87.20
 21
68.13
  0
LINE
  8
RAILS
 10
87.20
 20
68.13
 11
93.20
 21
68.13
  0
LINE
  8
RAILS
 10
93.20
 20
68.13
 11
99.20
 21
68.13
  0
LINE
  8
RAILS
 10
99.20
 20
68.13
 11
105.20
 21
68.13
  0
LINE
  8
RAILS
 10
105.20
 20
68.13
 11
111.20
 21
68.13
  0
LINE
  8
RAILS
 10
111.20
 20
68.13
 11
117.20
 21
68.13
  0
LINE
  8
RAILS
 10
117.20
 20
68.13
 11
123.20
 21
68.13
  0
LINE
  8
RAILS
 10
123.20
 20
68.13
 11
129.20
 21
68.13
  0
LINE
  8
RAILS
 10
129.20
 20
68.13
 11
135.20
 21
68.13
  0
LINE
  8
RAILS
 10
135.20
 20
68.13
 11
141.20
 21
68.13
  0
LINE
  8
RAILS
 10
141.20
 20
68.13
 11
147.20
 21
68.13
  0
LINE
  8
RAILS
 10
147.20
 20
68.13
 11
153.20
 21
68.13
  0
LINE
  8
RAILS
 10
153.20
 20
68.13
 11
159.20
 21
68.13
  0
LINE
  8
RAILS
 10
159.20
 20
68.13
 11
165.20
 21
68.13
  0
LINE
  8
RAILS
 10
165.20
 20
68.13
 11
171.20
 21
68.13
  0
LINE
  8
RAILS
 10
171.20
 20
68.13
 11
177.20
 21
68.13
  0
LINE
  8
RAILS
 10
177.20
 20
68.13
 11
183.20
 21
68.13
  0
LINE
  8
RAILS
 10
183.20
 20
68.13
 11
189.20
 21
68.13
  0
LINE
  8
RAILS
 10
189.20
 20
68.13
 11
195.20
 21
68.13
  0
LINE
  8
RAILS
 10
195.20
 20
68.13
 11
201.20
 21
68.13
  0
LINE
  8
RAILS
 10
201.20
 20
68.13
 11
207.20
 21
68.13
  0
LINE
  8
RAILS
 10
207.20
 20
68.13
 11
213.20
 21
68.13
  0
LINE
  8
RAILS
 10
213.20
 20
68.13
 11
219.20
 21
68.13
  0
LINE
  8
RAILS
 10
219.20
 20
68.13
 11
225.20
 21
68.13
  0
LINE
  8
RAILS
 10
225.20
 20
68.13
 11
231.20
 21
68.13
  0
LINE
  8
RAILS
 10
231.20
 20
68.13
 11
237.20
 21
68.13
  0
LINE
  8
RAILS
 10
237.20
 20
68.13
 11
243.20
 21
68.13
  0
LINE
  8
RAILS
 10
243.20
 20
68.13
 11
249.20
 21
68.13
  0
LINE
  8
RAILS
 10
249.20
 20
68.13
 11
255.20
 21
68.13
  0
LINE
  8
RAILS
 10
255.20
 20
68.13
 11
261.20
 21
68.13
  0
LINE
  8
RAILS
 10
261.20
 20
68.13
 11
267.20
 21
68.13
  0
LINE
  8
RAILS
 10
267.20
 20
68.13
 11
273.20
 21
68.13
  0
LINE
  8
RAILS
 10
273.20
 20
68.13
 11
279.20
 21
68.13
  0
LINE
  8
RAILS
 10
279.20
 20
68.13
 11
285.20
 21
68.13
  0
LINE
  8
RAILS
 10
285.20
 20
68.13
 11
291.20
 21
68.13
  0
LINE
  8
RAILS
 10
291.20
 20
68.13
 11
297.20
 21
68.13
  0
LINE
  8
RAILS
 10
297.20
 20
68.13
 11
303.20
 21
68.13
  0
LINE
  8
RAILS
 10
303.20
 20
68.13
 11
304.29
 21
68.13
  0
LINE
  8
RAILS
 10
304.29
 20
68.13
 11
304.29
 21
68.13
  0
LINE
  8
RAILS
 10
304.29
 20
68.13
 11
309.58
 21
67.47
  0
LINE
  8
RAILS
 10
309.58
 20
67.47
 11
309.58
 21
67.47
  0
LINE
  8
RAILS
 10
309.58
 20
67.47
 11
315.58
 21
66.72
  0
LINE
  8
RAILS
 10
315.58
 20
66.72
 11
318.99
 21
66.29
  0
LINE
  8
RAILS
 10
318.99
 20
66.29
 11
318.99
 21
66.29
  0
LINE
  8
RAILS
 10
318.99
 20
66.29
 11
324.99
 21
65.24
  0
LINE
  8
RAILS
 10
324.99
 20
65.24
 11
330.79
 21
64.22
  0
LINE
  8
RAILS
 10
69.51
 20
87.87
 11
75.51
 21
87.69
  0
LINE
  8
RAILS
 10
75.51
 20
87.69
 11
81.51
 21
87.50
  0
LINE
  8
RAILS
 10
81.51
 20
87.50
 11
87.51
 21
87.31
  0
LINE
  8
RAILS
 10
87.51
 20
87.31
 11
88.19
 21
87.29
  0
LINE
  8
RAILS
 10
88.19
 20
87.29
 11
88.19
 21
87.29
  0
LINE
  8
RAILS
 10
88.19
 20
87.29
 11
94.19
 21
87.10
  0
LINE
  8
RAILS
 10
94.19
 20
87.10
 11
100.19
 21
86.89
  0
LINE
  8
RAILS
 10
100.19
 20
86.89
 11
106.19
 21
86.66
  0
LINE
  8
RAILS
 10
106.19
 20
86.66
 11
112.19
 21
86.42
  0
LINE
  8
RAILS
 10
112.19
 20
86.42
 11
118.19
 21
86.16
  0
LINE
  8
RAILS
 10
118.19
 20
86.16
 11
124.19
 21
85.89
  0
LINE
  8
RAILS
 10
124.19
 20
85.89
 11
130.19
 21
85.61
  0
LINE
  8
RAILS
 10
130.19
 20
85.61
 11
136.19
 21
85.31
  0
LINE
  8
RAILS
 10
136.19
 20
85.31
 11
142.19
 21
84.99
  0
LINE
  8
RAILS
 10
142.19
 20
84.99
 11
148.19
 21
84.66
  0
LINE
  8
RAILS
 10
148.19
 20
84.66
 11
154.19
 21
84.31
  0
LINE
  8
RAILS
 10
154.19
 20
84.31
 11
160.19
 21
83.95
  0
LINE
  8
RAILS
 10
160.19
 20
83.95
 11
166.19
 21
83.57
  0
LINE
  8
RAILS
 10
166.19
 20
83.57
 11
172.19
 21
83.18
  0
LINE
  8
RAILS
 10
172.19
 20
83.18
 11
178.19
 21
82.77
  0
LINE
  8
RAILS
 10
178.19
 20
82.77
 11
184.19
 21
82.35
  0
LINE
  8
RAILS
 10
184.19
 20
82.35
 11
190.19
 21
81.91
  0
LINE
  8
RAILS
 10
190.19
 20
81.91
 11
196.19
 21
81.45
  0
LINE
  8
RAILS
 10
196.19
 20
81.45
 11
202.19
 21
80.98
  0
LINE
  8
RAILS
 10
202.19
 20
80.98
 11
208.19
 21
80.50
  0
LINE
  8
RAILS
 10
208.19
 20
80.50
 11
214.19
 21
80.00
  0
LINE
  8
RAILS
 10
214.19
 20
80.00
 11
220.19
 21
79.49
  0
LINE
  8
RAILS
 10
220.19
 20
79.49
 11
226.19
 21
78.96
  0
LINE
  8
RAILS
 10
226.19
 20
78.96
 11
232.19
 21
78.41
  0
LINE
  8
RAILS
 10
232.19
 20
78.41
 11
238.19
 21
77.85
  0
LINE
  8
RAILS
 10
238.19
 20
77.85
 11
244.19
 21
77.27
  0
LINE
  8
RAILS
 10
244.19
 20
77.27
 11
250.19
 21
76.68
  0
LINE
  8
RAILS
 10
250.19
 20
76.68
 11
256.19
 21
76.07
  0
LINE
  8
RAILS
 10
256.19
 20
76.07
 11
262.19
 21
75.45
  0
LINE
  8
RAILS
 10
262.19
 20
75.45
 11
268.19
 21
74.81
  0
LINE
  8
RAILS
 10
268.19
 20
74.81
 11
274.19
 21
74.16
  0
LINE
  8
RAILS
 10
274.19
 20
74.16
 11
280.19
 21
73.49
  0
LINE
  8
RAILS
 10
280.19
 20
73.49
 11
286.19
 21
72.81
  0
LINE
  8
RAILS
 10
286.19
 20
72.81
 11
292.19
 21
72.11
  0
LINE
  8
RAILS
 10
292.19
 20
72.11
 11
298.19
 21
71.39
  0
LINE
  8
RAILS
 10
298.19
 20
71.39
 11
304.19
 21
70.66
  0
LINE
  8
RAILS
 10
304.19
 20
70.66
 11
304.45
 21
70.63
  0
LINE
  8
RAILS
 10
304.45
 20
70.63
 11
304.45
 21
70.63
  0
LINE
  8
RAILS
 10
304.45
 20
70.63
 11
310.45
 21
70.63
  0
LINE
  8
RAILS
 10
310.45
 20
70.63
 11
316.45
 21
70.63
  0
LINE
  8
RAILS
 10
316.45
 20
70.63
 11
319.26
 21
70.63
  0
LINE
  8
RAILS
 10
319.26
 20
70.63
 11
319.26
 21
70.63
  0
LINE
  8
RAILS
 10
319.26
 20
70.63
 11
325.26
 21
70.92
  0
LINE
  8
RAILS
 10
325.26
 20
70.92
 11
331.24
 21
71.21
  0
LINE
  8
RAILS
 10
18.16
 20
68.13
 11
24.16
 21
68.13
  0
LINE
  8
RAILS
 10
24.16
 20
68.13
 11
30.16
 21
68.13
  0
LINE
  8
RAILS
 10
30.16
 20
68.13
 11
36.16
 21
68.13
  0
LINE
  8
RAILS
 10
36.16
 20
68.13
 11
39.85
 21
68.13
  0
LINE
  8
RAILS
 10
39.85
 20
68.13
 11
39.85
 21
68.13
  0
LINE
  8
RAILS
 10
39.85
 20
68.13
 11
39.85
 21
68.13
  0
LINE
  8
RAILS
 10
39.85
 20
68.13
 11
45.85
 21
67.94
  0
LINE
  8
RAILS
 10
45.85
 20
67.94
 11
51.85
 21
67.75
  0
LINE
  8
RAILS
 10
51.85
 20
67.75
 11
57.85
 21
67.57
  0
LINE
  8
RAILS
 10
57.85
 20
67.57
 11
63.85
 21
67.38
  0
LINE
  8
RAILS
 10
63.85
 20
67.38
 11
69.85
 21
67.19
  0
LINE
  8
RAILS
 10
69.85
 20
67.19
 11
75.85
 21
67.00
  0
LINE
  8
RAILS
 10
75.85
 20
67.00
 11
81.85
 21
66.82
  0
LINE
  8
RAILS
 10
81.85
 20
66.82
 11
87.54
 21
66.64
  0
LINE
  8
RAILS
 10
87.54
 20
66.64
 11
87.54
 21
66.64
  0
LINE
  8
RAILS
 10
87.54
 20
66.64
 11
93.54
 21
66.44
  0
LINE
  8
RAILS
 10
93.54
 20
66.44
 11
99.54
 21
66.23
  0
LINE
  8
RAILS
 10
99.54
 20
66.23
 11
105.54
 21
66.01
  0
LINE
  8
RAILS
 10
105.54
 20
66.01
 11
111.54
 21
65.77
  0
LINE
  8
RAILS
 10
111.54
 20
65.77
 11
117.54
 21
65.51
  0
LINE
  8
RAILS
 10
117.54
 20
65.51
 11
123.54
 21
65.24
  0
LINE
  8
RAILS
 10
123.54
 20
65.24
 11
129.54
 21
64.95
  0
LINE
  8
RAILS
 10
129.54
 20
64.95
 11
135.54
 21
64.65
  0
LINE
  8
RAILS
 10
135.54
 20
64.65
 11
141.54
 21
64.33
  0
LINE
  8
RAILS
 10
141.54
 20
64.33
 11
147.54
 21
64.00
  0
LINE
  8
RAILS
 10
147.54
 20
64.00
 11
153.54
 21
63.65
  0
LINE
  8
RAILS
 10
153.54
 20
63.65
 11
159.54
 21
63.28
  0
LINE
  8
RAILS
 10
159.54
 20
63.28
 11
165.54
 21
62.91
  0
LINE
  8
RAILS
 10
165.54
 20
62.91
 11
171.54
 21
62.51
  0
LINE
  8
RAILS
 10
171.54
 20
62.51
 11
177.54
 21
62.10
  0
LINE
  8
RAILS
 10
177.54
 20
62.10
 11
183.54
 21
61.68
  0
LINE
  8
RAILS
 10
183.54
 20
61.68
 11
189.54
 21
61.24
  0
LINE
  8
RAILS
 10
189.54
 20
61.24
 11
195.54
 21
60.78
  0
LINE
  8
RAILS
 10
195.54
 20
60.78
 11
201.54
 21
60.31
  0
LINE
  8
RAILS
 10
201.54
 20
60.31
 11
207.54
 21
59.82
  0
LINE
  8
RAILS
 10
207.54
 20
59.82
 11
213.54
 21
59.32
  0
LINE
  8
RAILS
 10
213.54
 20
59.32
 11
219.54
 21
58.80
  0
LINE
  8
RAILS
 10
219.54
 20
58.80
 11
225.54
 21
58.27
  0
LINE
  8
RAILS
 10
225.54
 20
58.27
 11
231.54
 21
57.72
  0
LINE
  8
RAILS
 10
231.54
 20
57.72
 11
237.54
 21
57.15
  0
LINE
  8
RAILS
 10
237.54
 20
57.15
 11
243.54
 21
56.57
  0
LINE
  8
RAILS
 10
243.54
 20
56.57
 11
249.54
 21
55.98
  0
LINE
  8
RAILS
 10
249.54
 20
55.98
 11
255.54
 21
55.37
  0
LINE
  8
RAILS
 10
255.54
 20
55.37
 11
261.54
 21
54.74
  0
LINE
  8
RAILS
 10
261.54
 20
54.74
 11
267.54
 21
54.10
  0
LINE
  8
RAILS
 10
267.54
 20
54.10
 11
273.54
 21
53.44
  0
LINE
  8
RAILS
 10
273.54
 20
53.44
 11
279.54
 21
52.77
  0
LINE
  8
RAILS
 10
279.54
 20
52.77
 11
285.54
 21
52.08
  0
LINE
  8
RAILS
 10
285.54
 20
52.08
 11
291.54
 21
51.38
  0
LINE
  8
RAILS
 10
291.54
 20
51.38
 11
297.54
 21
50.66
  0
LINE
  8
RAILS
 10
297.54
 20
50.66
 11
303.54
 21
49.92
  0
LINE
  8
RAILS
 10
303.54
 20
49.92
 11
307.32
 21
49.45
  0
LINE
  8
RAILS
 10
307.32
 20
49.45
 11
307.32
 21
49.45
  0
LINE
  8
RAILS
 10
307.32
 20
49.45
 11
313.32
 21
48.70
  0
LINE
  8
RAILS
 10
313.32
 20
48.70
 11
319.32
 21
47.95
  0
LINE
  8
RAILS
 10
319.32
 20
47.95
 11
325.32
 21
47.19
  0
LINE
  8
RAILS
 10
325.32
 20
47.19
 11
331.32
 21
46.44
  0
LINE
  8
RAILS
 10
331.32
 20
46.44
 11
337.32
 21
45.69
  0
LINE
  8
RAILS
 10
337.32
 20
45.69
 11
343.32
 21
44.93
  0
LINE
  8
RAILS
 10
343.32
 20
44.93
 11
349.32
 21
44.18
  0
LINE
  8
RAILS
 10
349.32
 20
44.18
 11
354.98
 21
43.47
  0
LINE
  8
RAILS
 10
324.44
 20
68.13
 11
330.44
 21
68.13
  0
LINE
  8
RAILS
 10
330.44
 20
68.13
 11
336.44
 21
68.13
  0
LINE
  8
RAILS
 10
336.44
 20
68.13
 11
342.44
 21
68.13
  0
LINE
  8
RAILS
 10
342.44
 20
68.13
 11
348.44
 21
68.13
  0
LINE
  8
RAILS
 10
348.44
 20
68.13
 11
354.44
 21
68.13
  0
LINE
  8
RAILS
 10
354.44
 20
68.13
 11
360.44
 21
68.13
  0
LINE
  8
RAILS
 10
360.44
 20
68.13
 11
366.44
 21
68.13
  0
LINE
  8
RAILS
 10
366.44
 20
68.13
 11
372.44
 21
68.13
  0
LINE
  8
RAILS
 10
372.44
 20
68.13
 11
373.99
 21
68.13
  0
LINE
  8
RAILS
 10
324.44
 20
68.13
 11
330.44
 21
67.38
  0
LINE
  8
RAILS
 10
330.44
 20
67.38
 11
336.44
 21
66.62
  0
LINE
  8
RAILS
 10
336.44
 20
66.62
 11
342.44
 21
65.87
  0
LINE
  8
RAILS
 10
342.44
 20
65.87
 11
348.44
 21
65.12
  0
LINE
  8
RAILS
 10
348.44
 20
65.12
 11
354.44
 21
64.36
  0
LINE
  8
RAILS
 10
354.44
 20
64.36
 11
357.55
 21
63.97
  0
LINE
  8
RAILS
 10
277.16
 20
85.70
 11
283.16
 21
86.00
  0
LINE
  8
RAILS
 10
283.16
 20
86.00
 11
289.14
 21
86.29
  0
LINE
  8
RAILS
 10
289.14
 20
86.29
 11
289.14
 21
86.29
  0
LINE
  8
RAILS
 10
289.14
 20
86.29
 11
295.14
 21
86.29
  0
LINE
  8
RAILS
 10
295.14
 20
86.29
 11
301.14
 21
86.29
  0
LINE
  8
RAILS
 10
301.14
 20
86.29
 11
307.14
 21
86.29
  0
LINE
  8
RAILS
 10
307.14
 20
86.29
 11
313.14
 21
86.29
  0
LINE
  8
RAILS
 10
313.14
 20
86.29
 11
319.09
 21
86.29
  0
LINE
  8
RAILS
 10
319.09
 20
86.29
 11
319.09
 21
86.29
  0
LINE
  8
RAILS
 10
319.09
 20
86.29
 11
325.09
 21
86.00
  0
LINE
  8
RAILS
 10
325.09
 20
86.00
 11
331.07
 21
85.70
  0
LINE
  8
RAILS
 10
277.58
 20
56.08
 11
283.58
 21
55.11
  0
LINE
  8
RAILS
 10
283.58
 20
55.11
 11
289.42
 21
54.14
  0
LINE
  8
RAILS
 10
289.42
 20
54.14
 11
289.42
 21
54.14
  0
LINE
  8
RAILS
 10
289.42
 20
54.14
 11
295.42
 21
53.42
  0
LINE
  8
RAILS
 10
295.42
 20
53.42
 11
301.42
 21
52.69
  0
LINE
  8
RAILS
 10
301.42
 20
52.69
 11
307.42
 21
51.95
  0
LINE
  8
RAILS
 10
307.42
 20
51.95
 11
307.63
 21
51.92
  0
LINE
  8
RAILS
 10
307.63
 20
51.92
 11
307.63
 21
51.92
  0
LINE
  8
RAILS
 10
307.63
 20
51.92
 11
313.63
 21
51.17
  0
LINE
  8
RAILS
 10
313.63
 20
51.17
 11
319.16
 21
50.48
  0
LINE
  8
RAILS
 10
319.16
 20
50.48
 11
319.16
 21
50.48
  0
LINE
  8
RAILS
 10
319.16
 20
50.48
 11
325.16
 21
50.02
  0
LINE
  8
RAILS
 10
325.16
 20
50.02
 11
331.12
 21
49.56
  0
LINE
  8
RAILS
 10
330.94
 20
65.13
 11
330.79
 21
64.22
  0
LINE
  8
RAILS
 10
331.28
 20
70.30
 11
331.24
 21
71.21
  0
LINE
  8
RAILS
 10
277.11
 20
86.62
 11
277.16
 21
85.70
  0
LINE
  8
RAILS
 10
331.11
 20
86.62
 11
331.07
 21
85.70
  0
LINE
  8
RAILS
 10
277.44
 20
55.19
 11
277.58
 21
56.08
  0
LINE
  8
RAILS
 10
331.05
 20
48.66
 11
331.12
 21
49.56
  0
LINE
  8
RAILS
 10
311.78
 20
69.04
 11
311.77
 21
68.79
  0
ENDSEC
  0
EOF
