  0
SECTION
  2
HEADER
  0
ENDSEC
  0
SECTION
  2
TABLES
  0
TABLE
  2
LTYPE
 70
10
  0
LTYPE
  2
CONTINUOUS
 70
64
  3
solid line
 72
65
 73
0
 40
0.0
  0
LTYPE
  2
DASHED
 70
0
  3
__ __ __ __ __ __ __ __ __ __ __ __ __ __ __
 72
65
 73
2
 40
0.75
 49
0.5
 49
-0.25
  0
LTYPE
  2
HIDDEN
 70
0
  3
_ _ _ _ _ _ _ _ _ _ _ _ _ _ _ _ _ _ _ _ _ _
 72
65
 73
2
 40
0.375
 49
0.25
 49
-0.125
  0
LTYPE
  2
CENTER
 70
0
  3
____ _ ____ _ ____ _ ____ _ ____ _ ____ _ __
 72
65
 73
4
 40
2.0
 49
1.25
 49
-0.25
 49
0.25
 49
-0.25
  0
LTYPE
  2
PHANTOM
 70
0
  3
_____ _ _ _____ _ _ _____ _ _ _____ _ _ ____
 72
65
 73
6
 40
2.5
 49
1.25
 49
-0.25
 49
0.25
 49
-0.25
 49
0.25
 49
-0.25
  0
LTYPE
  2
DOT
 70
0
  3
............................................
 72
65
 73
2
 40
0.25
 49
0.0
 49
-0.25
  0
LTYPE
  2
DASHDOT
 70
0
  3
__ . __ . __ . __ . __ . __ . __ . __ . __ .
 72
65
 73
4
 40
1.0
 49
0.5
 49
-0.25
 49
0.0
 49
-0.25
  0
LTYPE
  2
BORDER
 70
0
  3
__ __ . __ __ . __ __ . __ __ . __ __ . __ _
 72
65
 73
6
 40
1.75
 49
0.5
 49
-0.25
 49
0.5
 49
-0.25
 49
0.0
 49
-0.25
  0
LTYPE
  2
DIVIDE
 70
0
  3
__ . . __ . . __ . . __ . . __ . . __ . . __
 72
65
 73
6
 40
1.25
 49
0.5
 49
-0.25
 49
0.0
 49
-0.25
 49
0.0
 49
-0.25
  0
LTYPE
  2
DIVIDE2
 70
0
  3
__..__..__..__..__..__..__..__..__..__..__..__.
 72
65
 73
8
 40
0.9
 49
0.25
 49
-0.1
 49
0.25
 49
-0.1
 49
0.0
 49
-0.1
 49
0.0
 49
-0.1
  0
ENDTAB
  0
TABLE
  2
LAYER
 70
18
  0
LAYER
  2
RAILS
 70
0
  6
CONTINUOUS
 62
7
  0
LAYER
  2
TIMBOUTL
 70
0
  6
CONTINUOUS
 62
5
  0
LAYER
  2
SLEEPEND
 70
0
  6
CONTINUOUS
 62
1
  0
LAYER
  2
RLSIDE3D
 70
0
  6
CONTINUOUS
 62
33
  0
LAYER
  2
RLTOP3D
 70
0
  6
CONTINUOUS
 62
252
  0
LAYER
  2
CHAIR3D
 70
0
  6
CONTINUOUS
 62
54
  0
LAYER
  2
TIMBER3D
 70
0
  6
CONTINUOUS
 62
8
  0
ENDTAB
  0
ENDSEC
  0
SECTION
  2
ENTITIES
  0
LINE
  8
TIMBOUTL
 10
3849,41
 20
453,61
 11
3850,84
 21
453,61
  0
LINE
  8
TIMBOUTL
 10
3849,40
 20
469,80
 11
3850,83
 21
469,80
  0
LINE
  8
TIMBOUTL
 10
3849,41
 20
453,61
 11
3849,40
 21
469,80
  0
LINE
  8
TIMBOUTL
 10
3850,84
 20
453,61
 11
3850,83
 21
469,80
  0
LINE
  8
TIMBOUTL
 10
3846,24
 20
453,61
 11
3847,66
 21
453,61
  0
LINE
  8
TIMBOUTL
 10
3846,22
 20
469,80
 11
3847,65
 21
469,80
  0
LINE
  8
TIMBOUTL
 10
3846,24
 20
453,61
 11
3846,22
 21
469,80
  0
LINE
  8
TIMBOUTL
 10
3847,66
 20
453,61
 11
3847,65
 21
469,80
  0
LINE
  8
TIMBOUTL
 10
3843,06
 20
453,60
 11
3844,49
 21
453,61
  0
LINE
  8
TIMBOUTL
 10
3843,05
 20
469,80
 11
3844,48
 21
469,80
  0
LINE
  8
TIMBOUTL
 10
3843,06
 20
453,60
 11
3843,05
 21
469,80
  0
LINE
  8
TIMBOUTL
 10
3844,49
 20
453,61
 11
3844,48
 21
469,80
  0
LINE
  8
TIMBOUTL
 10
3852,59
 20
453,61
 11
3854,01
 21
453,61
  0
LINE
  8
TIMBOUTL
 10
3852,57
 20
469,80
 11
3854,00
 21
469,81
  0
LINE
  8
TIMBOUTL
 10
3852,59
 20
453,61
 11
3852,57
 21
469,80
  0
LINE
  8
TIMBOUTL
 10
3854,01
 20
453,61
 11
3854,00
 21
469,81
  0
LINE
  8
TIMBOUTL
 10
3971,24
 20
453,70
 11
3972,67
 21
453,70
  0
LINE
  8
TIMBOUTL
 10
3971,22
 20
478,47
 11
3972,65
 21
478,47
  0
LINE
  8
TIMBOUTL
 10
3971,24
 20
453,70
 11
3971,22
 21
478,47
  0
LINE
  8
TIMBOUTL
 10
3972,67
 20
453,70
 11
3972,65
 21
478,47
  0
LINE
  8
TIMBOUTL
 10
3974,42
 20
453,71
 11
3975,85
 21
453,71
  0
LINE
  8
TIMBOUTL
 10
3974,40
 20
478,47
 11
3975,83
 21
478,47
  0
LINE
  8
TIMBOUTL
 10
3974,42
 20
453,71
 11
3974,40
 21
478,47
  0
LINE
  8
TIMBOUTL
 10
3975,85
 20
453,71
 11
3975,83
 21
478,47
  0
LINE
  8
TIMBOUTL
 10
3977,59
 20
453,71
 11
3979,02
 21
453,71
  0
LINE
  8
TIMBOUTL
 10
3977,57
 20
478,47
 11
3979,00
 21
478,47
  0
LINE
  8
TIMBOUTL
 10
3977,59
 20
453,71
 11
3977,57
 21
478,47
  0
LINE
  8
TIMBOUTL
 10
3979,02
 20
453,71
 11
3979,00
 21
478,47
  0
LINE
  8
TIMBOUTL
 10
3980,77
 20
453,71
 11
3982,20
 21
453,71
  0
LINE
  8
TIMBOUTL
 10
3980,75
 20
479,43
 11
3982,18
 21
479,43
  0
LINE
  8
TIMBOUTL
 10
3980,77
 20
453,71
 11
3980,75
 21
479,43
  0
LINE
  8
TIMBOUTL
 10
3982,20
 20
453,71
 11
3982,18
 21
479,43
  0
LINE
  8
TIMBOUTL
 10
3983,94
 20
453,71
 11
3985,37
 21
453,71
  0
LINE
  8
TIMBOUTL
 10
3983,92
 20
479,43
 11
3985,35
 21
479,43
  0
LINE
  8
TIMBOUTL
 10
3983,94
 20
453,71
 11
3983,92
 21
479,43
  0
LINE
  8
TIMBOUTL
 10
3985,37
 20
453,71
 11
3985,35
 21
479,43
  0
LINE
  8
TIMBOUTL
 10
3987,12
 20
453,72
 11
3988,55
 21
453,72
  0
LINE
  8
TIMBOUTL
 10
3987,10
 20
480,39
 11
3988,53
 21
480,39
  0
LINE
  8
TIMBOUTL
 10
3987,12
 20
453,72
 11
3987,10
 21
480,39
  0
LINE
  8
TIMBOUTL
 10
3988,55
 20
453,72
 11
3988,53
 21
480,39
  0
LINE
  8
TIMBOUTL
 10
3990,29
 20
453,72
 11
3991,72
 21
453,72
  0
LINE
  8
TIMBOUTL
 10
3990,27
 20
480,39
 11
3991,70
 21
480,39
  0
LINE
  8
TIMBOUTL
 10
3990,29
 20
453,72
 11
3990,27
 21
480,39
  0
LINE
  8
TIMBOUTL
 10
3991,72
 20
453,72
 11
3991,70
 21
480,39
  0
LINE
  8
TIMBOUTL
 10
3993,47
 20
453,72
 11
3994,90
 21
453,72
  0
LINE
  8
TIMBOUTL
 10
3993,45
 20
481,34
 11
3994,87
 21
481,34
  0
LINE
  8
TIMBOUTL
 10
3993,47
 20
453,72
 11
3993,45
 21
481,34
  0
LINE
  8
TIMBOUTL
 10
3994,90
 20
453,72
 11
3994,87
 21
481,34
  0
LINE
  8
TIMBOUTL
 10
3996,64
 20
453,72
 11
3998,07
 21
453,72
  0
LINE
  8
TIMBOUTL
 10
3996,62
 20
481,35
 11
3998,05
 21
481,35
  0
LINE
  8
TIMBOUTL
 10
3996,64
 20
453,72
 11
3996,62
 21
481,35
  0
LINE
  8
TIMBOUTL
 10
3998,07
 20
453,72
 11
3998,05
 21
481,35
  0
LINE
  8
TIMBOUTL
 10
3855,71
 20
453,61
 11
3857,14
 21
453,62
  0
LINE
  8
TIMBOUTL
 10
3855,69
 20
469,81
 11
3857,12
 21
469,81
  0
LINE
  8
TIMBOUTL
 10
3855,71
 20
453,61
 11
3855,69
 21
469,81
  0
LINE
  8
TIMBOUTL
 10
3857,14
 20
453,62
 11
3857,12
 21
469,81
  0
LINE
  8
TIMBOUTL
 10
3858,83
 20
453,62
 11
3860,26
 21
453,62
  0
LINE
  8
TIMBOUTL
 10
3858,82
 20
469,81
 11
3860,24
 21
469,81
  0
LINE
  8
TIMBOUTL
 10
3858,83
 20
453,62
 11
3858,82
 21
469,81
  0
LINE
  8
TIMBOUTL
 10
3860,26
 20
453,62
 11
3860,24
 21
469,81
  0
LINE
  8
TIMBOUTL
 10
3861,95
 20
453,62
 11
3863,38
 21
453,62
  0
LINE
  8
TIMBOUTL
 10
3861,94
 20
469,81
 11
3863,37
 21
469,81
  0
LINE
  8
TIMBOUTL
 10
3861,95
 20
453,62
 11
3861,94
 21
469,81
  0
LINE
  8
TIMBOUTL
 10
3863,38
 20
453,62
 11
3863,37
 21
469,81
  0
LINE
  8
TIMBOUTL
 10
3865,07
 20
453,62
 11
3866,50
 21
453,62
  0
LINE
  8
TIMBOUTL
 10
3865,06
 20
470,77
 11
3866,49
 21
470,77
  0
LINE
  8
TIMBOUTL
 10
3865,07
 20
453,62
 11
3865,06
 21
470,77
  0
LINE
  8
TIMBOUTL
 10
3866,50
 20
453,62
 11
3866,49
 21
470,77
  0
LINE
  8
TIMBOUTL
 10
3868,19
 20
453,62
 11
3869,62
 21
453,62
  0
LINE
  8
TIMBOUTL
 10
3868,18
 20
470,77
 11
3869,61
 21
470,77
  0
LINE
  8
TIMBOUTL
 10
3868,19
 20
453,62
 11
3868,18
 21
470,77
  0
LINE
  8
TIMBOUTL
 10
3869,62
 20
453,62
 11
3869,61
 21
470,77
  0
LINE
  8
TIMBOUTL
 10
3871,31
 20
453,63
 11
3872,74
 21
453,63
  0
LINE
  8
TIMBOUTL
 10
3871,30
 20
470,77
 11
3872,73
 21
470,77
  0
LINE
  8
TIMBOUTL
 10
3871,31
 20
453,63
 11
3871,30
 21
470,77
  0
LINE
  8
TIMBOUTL
 10
3872,74
 20
453,63
 11
3872,73
 21
470,77
  0
LINE
  8
TIMBOUTL
 10
3874,43
 20
453,63
 11
3875,86
 21
453,63
  0
LINE
  8
TIMBOUTL
 10
3874,42
 20
470,77
 11
3875,85
 21
470,77
  0
LINE
  8
TIMBOUTL
 10
3874,43
 20
453,63
 11
3874,42
 21
470,77
  0
LINE
  8
TIMBOUTL
 10
3875,86
 20
453,63
 11
3875,85
 21
470,77
  0
LINE
  8
TIMBOUTL
 10
3877,55
 20
453,63
 11
3878,98
 21
453,63
  0
LINE
  8
TIMBOUTL
 10
3877,54
 20
470,78
 11
3878,97
 21
470,78
  0
LINE
  8
TIMBOUTL
 10
3877,55
 20
453,63
 11
3877,54
 21
470,78
  0
LINE
  8
TIMBOUTL
 10
3878,98
 20
453,63
 11
3878,97
 21
470,78
  0
LINE
  8
TIMBOUTL
 10
3880,68
 20
453,63
 11
3882,10
 21
453,63
  0
LINE
  8
TIMBOUTL
 10
3880,66
 20
470,78
 11
3882,09
 21
470,78
  0
LINE
  8
TIMBOUTL
 10
3880,68
 20
453,63
 11
3880,66
 21
470,78
  0
LINE
  8
TIMBOUTL
 10
3882,10
 20
453,63
 11
3882,09
 21
470,78
  0
LINE
  8
TIMBOUTL
 10
3883,80
 20
453,64
 11
3885,23
 21
453,64
  0
LINE
  8
TIMBOUTL
 10
3883,78
 20
470,78
 11
3885,21
 21
470,78
  0
LINE
  8
TIMBOUTL
 10
3883,80
 20
453,64
 11
3883,78
 21
470,78
  0
LINE
  8
TIMBOUTL
 10
3885,23
 20
453,64
 11
3885,21
 21
470,78
  0
LINE
  8
TIMBOUTL
 10
3886,92
 20
453,64
 11
3888,35
 21
453,64
  0
LINE
  8
TIMBOUTL
 10
3886,90
 20
470,78
 11
3888,33
 21
470,78
  0
LINE
  8
TIMBOUTL
 10
3886,92
 20
453,64
 11
3886,90
 21
470,78
  0
LINE
  8
TIMBOUTL
 10
3888,35
 20
453,64
 11
3888,33
 21
470,78
  0
LINE
  8
TIMBOUTL
 10
3890,04
 20
453,64
 11
3891,47
 21
453,64
  0
LINE
  8
TIMBOUTL
 10
3890,03
 20
470,79
 11
3891,45
 21
470,79
  0
LINE
  8
TIMBOUTL
 10
3890,04
 20
453,64
 11
3890,03
 21
470,79
  0
LINE
  8
TIMBOUTL
 10
3891,47
 20
453,64
 11
3891,45
 21
470,79
  0
LINE
  8
TIMBOUTL
 10
3893,16
 20
453,64
 11
3894,59
 21
453,64
  0
LINE
  8
TIMBOUTL
 10
3893,15
 20
471,74
 11
3894,58
 21
471,74
  0
LINE
  8
TIMBOUTL
 10
3893,16
 20
453,64
 11
3893,15
 21
471,74
  0
LINE
  8
TIMBOUTL
 10
3894,59
 20
453,64
 11
3894,58
 21
471,74
  0
LINE
  8
TIMBOUTL
 10
3896,28
 20
453,65
 11
3897,71
 21
453,65
  0
LINE
  8
TIMBOUTL
 10
3896,27
 20
471,74
 11
3897,70
 21
471,74
  0
LINE
  8
TIMBOUTL
 10
3896,28
 20
453,65
 11
3896,27
 21
471,74
  0
LINE
  8
TIMBOUTL
 10
3897,71
 20
453,65
 11
3897,70
 21
471,74
  0
LINE
  8
TIMBOUTL
 10
3899,40
 20
453,65
 11
3900,83
 21
453,65
  0
LINE
  8
TIMBOUTL
 10
3899,39
 20
471,75
 11
3900,82
 21
471,75
  0
LINE
  8
TIMBOUTL
 10
3899,40
 20
453,65
 11
3899,39
 21
471,75
  0
LINE
  8
TIMBOUTL
 10
3900,83
 20
453,65
 11
3900,82
 21
471,75
  0
LINE
  8
TIMBOUTL
 10
3902,52
 20
453,65
 11
3903,95
 21
453,65
  0
LINE
  8
TIMBOUTL
 10
3902,51
 20
471,75
 11
3903,94
 21
471,75
  0
LINE
  8
TIMBOUTL
 10
3902,52
 20
453,65
 11
3902,51
 21
471,75
  0
LINE
  8
TIMBOUTL
 10
3903,95
 20
453,65
 11
3903,94
 21
471,75
  0
LINE
  8
TIMBOUTL
 10
3905,64
 20
453,65
 11
3907,07
 21
453,65
  0
LINE
  8
TIMBOUTL
 10
3905,63
 20
471,75
 11
3907,06
 21
471,75
  0
LINE
  8
TIMBOUTL
 10
3905,64
 20
453,65
 11
3905,63
 21
471,75
  0
LINE
  8
TIMBOUTL
 10
3907,07
 20
453,65
 11
3907,06
 21
471,75
  0
LINE
  8
TIMBOUTL
 10
3908,77
 20
453,66
 11
3910,19
 21
453,66
  0
LINE
  8
TIMBOUTL
 10
3908,75
 20
471,75
 11
3910,18
 21
471,75
  0
LINE
  8
TIMBOUTL
 10
3908,77
 20
453,66
 11
3908,75
 21
471,75
  0
LINE
  8
TIMBOUTL
 10
3910,19
 20
453,66
 11
3910,18
 21
471,75
  0
LINE
  8
TIMBOUTL
 10
3911,89
 20
453,66
 11
3913,32
 21
453,66
  0
LINE
  8
TIMBOUTL
 10
3911,87
 20
472,71
 11
3913,30
 21
472,71
  0
LINE
  8
TIMBOUTL
 10
3911,89
 20
453,66
 11
3911,87
 21
472,71
  0
LINE
  8
TIMBOUTL
 10
3913,32
 20
453,66
 11
3913,30
 21
472,71
  0
LINE
  8
TIMBOUTL
 10
3915,01
 20
453,66
 11
3916,44
 21
453,66
  0
LINE
  8
TIMBOUTL
 10
3914,99
 20
472,71
 11
3916,42
 21
472,71
  0
LINE
  8
TIMBOUTL
 10
3915,01
 20
453,66
 11
3914,99
 21
472,71
  0
LINE
  8
TIMBOUTL
 10
3916,44
 20
453,66
 11
3916,42
 21
472,71
  0
LINE
  8
TIMBOUTL
 10
3918,13
 20
453,66
 11
3919,56
 21
453,66
  0
LINE
  8
TIMBOUTL
 10
3918,11
 20
472,71
 11
3919,54
 21
472,71
  0
LINE
  8
TIMBOUTL
 10
3918,13
 20
453,66
 11
3918,11
 21
472,71
  0
LINE
  8
TIMBOUTL
 10
3919,56
 20
453,66
 11
3919,54
 21
472,71
  0
LINE
  8
TIMBOUTL
 10
3921,25
 20
453,66
 11
3922,68
 21
453,67
  0
LINE
  8
TIMBOUTL
 10
3921,24
 20
472,71
 11
3922,66
 21
472,72
  0
LINE
  8
TIMBOUTL
 10
3921,25
 20
453,66
 11
3921,24
 21
472,71
  0
LINE
  8
TIMBOUTL
 10
3922,68
 20
453,67
 11
3922,66
 21
472,72
  0
LINE
  8
TIMBOUTL
 10
3924,37
 20
453,67
 11
3925,80
 21
453,67
  0
LINE
  8
TIMBOUTL
 10
3924,36
 20
473,67
 11
3925,78
 21
473,67
  0
LINE
  8
TIMBOUTL
 10
3924,37
 20
453,67
 11
3924,36
 21
473,67
  0
LINE
  8
TIMBOUTL
 10
3925,80
 20
453,67
 11
3925,78
 21
473,67
  0
LINE
  8
TIMBOUTL
 10
3927,49
 20
453,67
 11
3928,92
 21
453,67
  0
LINE
  8
TIMBOUTL
 10
3927,48
 20
473,67
 11
3928,91
 21
473,67
  0
LINE
  8
TIMBOUTL
 10
3927,49
 20
453,67
 11
3927,48
 21
473,67
  0
LINE
  8
TIMBOUTL
 10
3928,92
 20
453,67
 11
3928,91
 21
473,67
  0
LINE
  8
TIMBOUTL
 10
3930,61
 20
453,67
 11
3932,04
 21
453,67
  0
LINE
  8
TIMBOUTL
 10
3930,60
 20
473,67
 11
3932,03
 21
473,68
  0
LINE
  8
TIMBOUTL
 10
3930,61
 20
453,67
 11
3930,60
 21
473,67
  0
LINE
  8
TIMBOUTL
 10
3932,04
 20
453,67
 11
3932,03
 21
473,68
  0
LINE
  8
TIMBOUTL
 10
3933,73
 20
453,67
 11
3935,16
 21
453,68
  0
LINE
  8
TIMBOUTL
 10
3933,72
 20
473,68
 11
3935,15
 21
473,68
  0
LINE
  8
TIMBOUTL
 10
3933,73
 20
453,67
 11
3933,72
 21
473,68
  0
LINE
  8
TIMBOUTL
 10
3935,16
 20
453,68
 11
3935,15
 21
473,68
  0
LINE
  8
TIMBOUTL
 10
3936,86
 20
453,68
 11
3938,28
 21
453,68
  0
LINE
  8
TIMBOUTL
 10
3936,84
 20
474,63
 11
3938,27
 21
474,63
  0
LINE
  8
TIMBOUTL
 10
3936,86
 20
453,68
 11
3936,84
 21
474,63
  0
LINE
  8
TIMBOUTL
 10
3938,28
 20
453,68
 11
3938,27
 21
474,63
  0
LINE
  8
TIMBOUTL
 10
3939,98
 20
453,68
 11
3941,41
 21
453,68
  0
LINE
  8
TIMBOUTL
 10
3939,96
 20
474,63
 11
3941,39
 21
474,64
  0
LINE
  8
TIMBOUTL
 10
3939,98
 20
453,68
 11
3939,96
 21
474,63
  0
LINE
  8
TIMBOUTL
 10
3941,41
 20
453,68
 11
3941,39
 21
474,64
  0
LINE
  8
TIMBOUTL
 10
3943,10
 20
453,68
 11
3944,53
 21
453,68
  0
LINE
  8
TIMBOUTL
 10
3943,08
 20
474,64
 11
3944,51
 21
474,64
  0
LINE
  8
TIMBOUTL
 10
3943,10
 20
453,68
 11
3943,08
 21
474,64
  0
LINE
  8
TIMBOUTL
 10
3944,53
 20
453,68
 11
3944,51
 21
474,64
  0
LINE
  8
TIMBOUTL
 10
3946,22
 20
453,68
 11
3947,65
 21
453,69
  0
LINE
  8
TIMBOUTL
 10
3946,20
 20
475,59
 11
3947,63
 21
475,59
  0
LINE
  8
TIMBOUTL
 10
3946,22
 20
453,68
 11
3946,20
 21
475,59
  0
LINE
  8
TIMBOUTL
 10
3947,65
 20
453,69
 11
3947,63
 21
475,59
  0
LINE
  8
TIMBOUTL
 10
3949,34
 20
453,69
 11
3950,77
 21
453,69
  0
LINE
  8
TIMBOUTL
 10
3949,32
 20
475,59
 11
3950,75
 21
475,60
  0
LINE
  8
TIMBOUTL
 10
3949,34
 20
453,69
 11
3949,32
 21
475,59
  0
LINE
  8
TIMBOUTL
 10
3950,77
 20
453,69
 11
3950,75
 21
475,60
  0
LINE
  8
TIMBOUTL
 10
3952,46
 20
453,69
 11
3953,89
 21
453,69
  0
LINE
  8
TIMBOUTL
 10
3952,44
 20
475,60
 11
3953,87
 21
475,60
  0
LINE
  8
TIMBOUTL
 10
3952,46
 20
453,69
 11
3952,44
 21
475,60
  0
LINE
  8
TIMBOUTL
 10
3953,89
 20
453,69
 11
3953,87
 21
475,60
  0
LINE
  8
TIMBOUTL
 10
3955,58
 20
453,69
 11
3957,01
 21
453,69
  0
LINE
  8
TIMBOUTL
 10
3955,57
 20
476,55
 11
3956,99
 21
476,55
  0
LINE
  8
TIMBOUTL
 10
3955,58
 20
453,69
 11
3955,57
 21
476,55
  0
LINE
  8
TIMBOUTL
 10
3957,01
 20
453,69
 11
3956,99
 21
476,55
  0
LINE
  8
TIMBOUTL
 10
3958,70
 20
453,69
 11
3960,13
 21
453,70
  0
LINE
  8
TIMBOUTL
 10
3958,69
 20
476,55
 11
3960,11
 21
476,56
  0
LINE
  8
TIMBOUTL
 10
3958,70
 20
453,69
 11
3958,69
 21
476,55
  0
LINE
  8
TIMBOUTL
 10
3960,13
 20
453,70
 11
3960,11
 21
476,56
  0
LINE
  8
TIMBOUTL
 10
3961,83
 20
453,70
 11
3963,25
 21
453,70
  0
LINE
  8
TIMBOUTL
 10
3961,81
 20
476,56
 11
3963,24
 21
476,56
  0
LINE
  8
TIMBOUTL
 10
3961,83
 20
453,70
 11
3961,81
 21
476,56
  0
LINE
  8
TIMBOUTL
 10
3963,25
 20
453,70
 11
3963,24
 21
476,56
  0
LINE
  8
TIMBOUTL
 10
3964,95
 20
453,70
 11
3966,37
 21
453,70
  0
LINE
  8
TIMBOUTL
 10
3964,93
 20
477,51
 11
3966,36
 21
477,51
  0
LINE
  8
TIMBOUTL
 10
3964,95
 20
453,70
 11
3964,93
 21
477,51
  0
LINE
  8
TIMBOUTL
 10
3966,37
 20
453,70
 11
3966,36
 21
477,51
  0
LINE
  8
TIMBOUTL
 10
3968,07
 20
453,70
 11
3969,50
 21
453,70
  0
LINE
  8
TIMBOUTL
 10
3968,05
 20
477,51
 11
3969,48
 21
477,51
  0
LINE
  8
TIMBOUTL
 10
3968,07
 20
453,70
 11
3968,05
 21
477,51
  0
LINE
  8
TIMBOUTL
 10
3969,50
 20
453,70
 11
3969,48
 21
477,51
  0
LINE
  8
RAILS
 10
3842,19
 20
457,20
 11
3846,33
 21
457,20
  0
LINE
  8
RAILS
 10
3846,33
 20
457,20
 11
3850,47
 21
457,21
  0
LINE
  8
RAILS
 10
3850,47
 20
457,21
 11
3854,61
 21
457,21
  0
LINE
  8
RAILS
 10
3854,61
 20
457,21
 11
3858,75
 21
457,21
  0
LINE
  8
RAILS
 10
3858,75
 20
457,21
 11
3862,89
 21
457,22
  0
LINE
  8
RAILS
 10
3862,89
 20
457,22
 11
3867,03
 21
457,22
  0
LINE
  8
RAILS
 10
3867,03
 20
457,22
 11
3871,17
 21
457,22
  0
LINE
  8
RAILS
 10
3871,17
 20
457,22
 11
3875,31
 21
457,23
  0
LINE
  8
RAILS
 10
3875,31
 20
457,23
 11
3879,45
 21
457,23
  0
LINE
  8
RAILS
 10
3879,45
 20
457,23
 11
3883,59
 21
457,23
  0
LINE
  8
RAILS
 10
3883,59
 20
457,23
 11
3887,73
 21
457,24
  0
LINE
  8
RAILS
 10
3887,73
 20
457,24
 11
3891,87
 21
457,24
  0
LINE
  8
RAILS
 10
3891,87
 20
457,24
 11
3896,01
 21
457,24
  0
LINE
  8
RAILS
 10
3896,01
 20
457,24
 11
3900,15
 21
457,24
  0
LINE
  8
RAILS
 10
3900,15
 20
457,24
 11
3904,29
 21
457,25
  0
LINE
  8
RAILS
 10
3904,29
 20
457,25
 11
3908,44
 21
457,25
  0
LINE
  8
RAILS
 10
3908,44
 20
457,25
 11
3912,58
 21
457,25
  0
LINE
  8
RAILS
 10
3912,58
 20
457,25
 11
3916,72
 21
457,26
  0
LINE
  8
RAILS
 10
3916,72
 20
457,26
 11
3920,86
 21
457,26
  0
LINE
  8
RAILS
 10
3920,86
 20
457,26
 11
3925,00
 21
457,26
  0
LINE
  8
RAILS
 10
3925,00
 20
457,26
 11
3929,14
 21
457,27
  0
LINE
  8
RAILS
 10
3929,14
 20
457,27
 11
3933,28
 21
457,27
  0
LINE
  8
RAILS
 10
3933,28
 20
457,27
 11
3937,42
 21
457,27
  0
LINE
  8
RAILS
 10
3937,42
 20
457,27
 11
3941,56
 21
457,28
  0
LINE
  8
RAILS
 10
3941,56
 20
457,28
 11
3945,70
 21
457,28
  0
LINE
  8
RAILS
 10
3945,70
 20
457,28
 11
3949,84
 21
457,28
  0
LINE
  8
RAILS
 10
3949,84
 20
457,28
 11
3953,98
 21
457,29
  0
LINE
  8
RAILS
 10
3953,98
 20
457,29
 11
3958,12
 21
457,29
  0
LINE
  8
RAILS
 10
3958,12
 20
457,29
 11
3962,26
 21
457,29
  0
LINE
  8
RAILS
 10
3962,26
 20
457,29
 11
3966,40
 21
457,30
  0
LINE
  8
RAILS
 10
3966,40
 20
457,30
 11
3970,55
 21
457,30
  0
LINE
  8
RAILS
 10
3970,55
 20
457,30
 11
3974,69
 21
457,30
  0
LINE
  8
RAILS
 10
3974,69
 20
457,30
 11
3978,83
 21
457,31
  0
LINE
  8
RAILS
 10
3978,83
 20
457,31
 11
3982,97
 21
457,31
  0
LINE
  8
RAILS
 10
3982,97
 20
457,31
 11
3987,11
 21
457,31
  0
LINE
  8
RAILS
 10
3987,11
 20
457,31
 11
3991,25
 21
457,32
  0
LINE
  8
RAILS
 10
3991,25
 20
457,32
 11
3995,39
 21
457,32
  0
LINE
  8
RAILS
 10
3995,39
 20
457,32
 11
3998,65
 21
457,32
  0
LINE
  8
RAILS
 10
3852,83
 20
466,21
 11
3856,97
 21
466,21
  0
LINE
  8
RAILS
 10
3856,97
 20
466,21
 11
3861,11
 21
466,21
  0
LINE
  8
RAILS
 10
3861,11
 20
466,21
 11
3865,25
 21
466,22
  0
LINE
  8
RAILS
 10
3865,25
 20
466,22
 11
3866,66
 21
466,22
  0
LINE
  8
RAILS
 10
3866,66
 20
466,22
 11
3866,66
 21
466,22
  0
LINE
  8
RAILS
 10
3866,66
 20
466,22
 11
3870,80
 21
466,22
  0
LINE
  8
RAILS
 10
3870,80
 20
466,22
 11
3874,94
 21
466,23
  0
LINE
  8
RAILS
 10
3874,94
 20
466,23
 11
3879,08
 21
466,23
  0
LINE
  8
RAILS
 10
3879,08
 20
466,23
 11
3883,22
 21
466,23
  0
LINE
  8
RAILS
 10
3883,22
 20
466,23
 11
3887,36
 21
466,23
  0
LINE
  8
RAILS
 10
3887,36
 20
466,23
 11
3891,51
 21
466,24
  0
LINE
  8
RAILS
 10
3891,51
 20
466,24
 11
3895,65
 21
466,24
  0
LINE
  8
RAILS
 10
3895,65
 20
466,24
 11
3899,79
 21
466,24
  0
LINE
  8
RAILS
 10
3899,79
 20
466,24
 11
3903,93
 21
466,25
  0
LINE
  8
RAILS
 10
3903,93
 20
466,25
 11
3908,07
 21
466,25
  0
LINE
  8
RAILS
 10
3908,07
 20
466,25
 11
3912,21
 21
466,25
  0
LINE
  8
RAILS
 10
3912,21
 20
466,25
 11
3916,35
 21
466,26
  0
LINE
  8
RAILS
 10
3916,35
 20
466,26
 11
3920,49
 21
466,26
  0
LINE
  8
RAILS
 10
3920,49
 20
466,26
 11
3924,63
 21
466,26
  0
LINE
  8
RAILS
 10
3924,63
 20
466,26
 11
3928,77
 21
466,27
  0
LINE
  8
RAILS
 10
3928,77
 20
466,27
 11
3932,91
 21
466,27
  0
LINE
  8
RAILS
 10
3932,91
 20
466,27
 11
3937,05
 21
466,27
  0
LINE
  8
RAILS
 10
3937,05
 20
466,27
 11
3941,19
 21
466,28
  0
LINE
  8
RAILS
 10
3941,19
 20
466,28
 11
3945,33
 21
466,28
  0
LINE
  8
RAILS
 10
3945,33
 20
466,28
 11
3949,47
 21
466,28
  0
LINE
  8
RAILS
 10
3949,47
 20
466,28
 11
3953,61
 21
466,29
  0
LINE
  8
RAILS
 10
3953,61
 20
466,29
 11
3957,76
 21
466,29
  0
LINE
  8
RAILS
 10
3957,76
 20
466,29
 11
3961,90
 21
466,29
  0
LINE
  8
RAILS
 10
3961,90
 20
466,29
 11
3966,04
 21
466,30
  0
LINE
  8
RAILS
 10
3966,04
 20
466,30
 11
3970,18
 21
466,30
  0
LINE
  8
RAILS
 10
3970,18
 20
466,30
 11
3974,32
 21
466,30
  0
LINE
  8
RAILS
 10
3974,32
 20
466,30
 11
3974,55
 21
466,30
  0
LINE
  8
RAILS
 10
3974,55
 20
466,30
 11
3974,55
 21
466,30
  0
LINE
  8
RAILS
 10
3974,55
 20
466,30
 11
3978,69
 21
466,82
  0
LINE
  8
RAILS
 10
3978,69
 20
466,82
 11
3982,84
 21
467,34
  0
LINE
  8
RAILS
 10
3982,84
 20
467,34
 11
3983,26
 21
467,40
  0
LINE
  8
RAILS
 10
3983,26
 20
467,40
 11
3983,26
 21
467,40
  0
LINE
  8
RAILS
 10
3983,26
 20
467,40
 11
3987,40
 21
468,18
  0
LINE
  8
RAILS
 10
3987,40
 20
468,18
 11
3988,89
 21
468,46
  0
LINE
  8
RAILS
 10
3852,98
 20
457,21
 11
3852,98
 21
457,21
  0
LINE
  8
RAILS
 10
3852,98
 20
457,21
 11
3857,12
 21
457,34
  0
LINE
  8
RAILS
 10
3857,12
 20
457,34
 11
3861,26
 21
457,48
  0
LINE
  8
RAILS
 10
3861,26
 20
457,48
 11
3865,40
 21
457,61
  0
LINE
  8
RAILS
 10
3865,40
 20
457,61
 11
3866,82
 21
457,66
  0
LINE
  8
RAILS
 10
3866,82
 20
457,66
 11
3870,96
 21
457,79
  0
LINE
  8
RAILS
 10
3870,96
 20
457,79
 11
3875,10
 21
457,92
  0
LINE
  8
RAILS
 10
3875,10
 20
457,92
 11
3879,24
 21
458,06
  0
LINE
  8
RAILS
 10
3879,24
 20
458,06
 11
3883,38
 21
458,19
  0
LINE
  8
RAILS
 10
3883,38
 20
458,19
 11
3884,41
 21
458,22
  0
LINE
  8
RAILS
 10
3884,41
 20
458,22
 11
3884,41
 21
458,22
  0
LINE
  8
RAILS
 10
3884,41
 20
458,22
 11
3888,55
 21
458,37
  0
LINE
  8
RAILS
 10
3888,55
 20
458,37
 11
3892,69
 21
458,53
  0
LINE
  8
RAILS
 10
3892,69
 20
458,53
 11
3896,83
 21
458,71
  0
LINE
  8
RAILS
 10
3896,83
 20
458,71
 11
3900,97
 21
458,91
  0
LINE
  8
RAILS
 10
3900,97
 20
458,91
 11
3905,11
 21
459,13
  0
LINE
  8
RAILS
 10
3905,11
 20
459,13
 11
3909,25
 21
459,37
  0
LINE
  8
RAILS
 10
3909,25
 20
459,37
 11
3913,40
 21
459,62
  0
LINE
  8
RAILS
 10
3913,40
 20
459,62
 11
3917,54
 21
459,90
  0
LINE
  8
RAILS
 10
3917,54
 20
459,90
 11
3921,68
 21
460,19
  0
LINE
  8
RAILS
 10
3921,68
 20
460,19
 11
3925,82
 21
460,50
  0
LINE
  8
RAILS
 10
3925,82
 20
460,50
 11
3929,96
 21
460,84
  0
LINE
  8
RAILS
 10
3929,96
 20
460,84
 11
3934,10
 21
461,19
  0
LINE
  8
RAILS
 10
3934,10
 20
461,19
 11
3938,24
 21
461,56
  0
LINE
  8
RAILS
 10
3938,24
 20
461,56
 11
3942,38
 21
461,94
  0
LINE
  8
RAILS
 10
3942,38
 20
461,94
 11
3946,52
 21
462,35
  0
LINE
  8
RAILS
 10
3946,52
 20
462,35
 11
3950,66
 21
462,78
  0
LINE
  8
RAILS
 10
3950,66
 20
462,78
 11
3954,80
 21
463,22
  0
LINE
  8
RAILS
 10
3954,80
 20
463,22
 11
3958,94
 21
463,69
  0
LINE
  8
RAILS
 10
3958,94
 20
463,69
 11
3963,08
 21
464,17
  0
LINE
  8
RAILS
 10
3963,08
 20
464,17
 11
3967,22
 21
464,68
  0
LINE
  8
RAILS
 10
3967,22
 20
464,68
 11
3969,00
 21
464,90
  0
LINE
  8
RAILS
 10
3969,00
 20
464,90
 11
3969,00
 21
464,90
  0
LINE
  8
RAILS
 10
3969,00
 20
464,90
 11
3973,14
 21
465,42
  0
LINE
  8
RAILS
 10
3973,14
 20
465,42
 11
3974,60
 21
465,60
  0
LINE
  8
RAILS
 10
3974,60
 20
465,60
 11
3974,60
 21
465,60
  0
LINE
  8
RAILS
 10
3974,60
 20
465,60
 11
3978,74
 21
465,61
  0
LINE
  8
RAILS
 10
3978,74
 20
465,61
 11
3982,88
 21
465,61
  0
LINE
  8
RAILS
 10
3982,88
 20
465,61
 11
3983,38
 21
465,61
  0
LINE
  8
RAILS
 10
3983,38
 20
465,61
 11
3983,38
 21
465,61
  0
LINE
  8
RAILS
 10
3983,38
 20
465,61
 11
3987,52
 21
465,36
  0
LINE
  8
RAILS
 10
3987,52
 20
465,36
 11
3989,09
 21
465,26
  0
LINE
  8
RAILS
 10
3842,18
 20
466,20
 11
3846,32
 21
466,20
  0
LINE
  8
RAILS
 10
3846,32
 20
466,20
 11
3850,46
 21
466,21
  0
LINE
  8
RAILS
 10
3850,46
 20
466,21
 11
3852,83
 21
466,21
  0
LINE
  8
RAILS
 10
3852,83
 20
466,21
 11
3852,83
 21
466,21
  0
LINE
  8
RAILS
 10
3852,83
 20
466,21
 11
3852,83
 21
466,21
  0
LINE
  8
RAILS
 10
3852,83
 20
466,21
 11
3856,97
 21
466,34
  0
LINE
  8
RAILS
 10
3856,97
 20
466,34
 11
3861,11
 21
466,48
  0
LINE
  8
RAILS
 10
3861,11
 20
466,48
 11
3865,25
 21
466,61
  0
LINE
  8
RAILS
 10
3865,25
 20
466,61
 11
3869,39
 21
466,74
  0
LINE
  8
RAILS
 10
3869,39
 20
466,74
 11
3873,53
 21
466,88
  0
LINE
  8
RAILS
 10
3873,53
 20
466,88
 11
3877,67
 21
467,01
  0
LINE
  8
RAILS
 10
3877,67
 20
467,01
 11
3881,81
 21
467,15
  0
LINE
  8
RAILS
 10
3881,81
 20
467,15
 11
3884,12
 21
467,22
  0
LINE
  8
RAILS
 10
3884,12
 20
467,22
 11
3884,12
 21
467,22
  0
LINE
  8
RAILS
 10
3884,12
 20
467,22
 11
3888,26
 21
467,36
  0
LINE
  8
RAILS
 10
3888,26
 20
467,36
 11
3892,40
 21
467,53
  0
LINE
  8
RAILS
 10
3892,40
 20
467,53
 11
3896,54
 21
467,71
  0
LINE
  8
RAILS
 10
3896,54
 20
467,71
 11
3900,68
 21
467,91
  0
LINE
  8
RAILS
 10
3900,68
 20
467,91
 11
3904,82
 21
468,13
  0
LINE
  8
RAILS
 10
3904,82
 20
468,13
 11
3908,96
 21
468,37
  0
LINE
  8
RAILS
 10
3908,96
 20
468,37
 11
3913,10
 21
468,62
  0
LINE
  8
RAILS
 10
3913,10
 20
468,62
 11
3917,24
 21
468,90
  0
LINE
  8
RAILS
 10
3917,24
 20
468,90
 11
3921,39
 21
469,19
  0
LINE
  8
RAILS
 10
3921,39
 20
469,19
 11
3925,53
 21
469,51
  0
LINE
  8
RAILS
 10
3925,53
 20
469,51
 11
3929,67
 21
469,84
  0
LINE
  8
RAILS
 10
3929,67
 20
469,84
 11
3933,81
 21
470,20
  0
LINE
  8
RAILS
 10
3933,81
 20
470,20
 11
3937,95
 21
470,57
  0
LINE
  8
RAILS
 10
3937,95
 20
470,57
 11
3942,09
 21
470,96
  0
LINE
  8
RAILS
 10
3942,09
 20
470,96
 11
3946,23
 21
471,37
  0
LINE
  8
RAILS
 10
3946,23
 20
471,37
 11
3950,37
 21
471,80
  0
LINE
  8
RAILS
 10
3950,37
 20
471,80
 11
3954,51
 21
472,25
  0
LINE
  8
RAILS
 10
3954,51
 20
472,25
 11
3958,65
 21
472,72
  0
LINE
  8
RAILS
 10
3958,65
 20
472,72
 11
3962,79
 21
473,20
  0
LINE
  8
RAILS
 10
3962,79
 20
473,20
 11
3966,93
 21
473,71
  0
LINE
  8
RAILS
 10
3966,93
 20
473,71
 11
3967,88
 21
473,83
  0
LINE
  8
RAILS
 10
3967,88
 20
473,83
 11
3967,88
 21
473,83
  0
LINE
  8
RAILS
 10
3967,88
 20
473,83
 11
3972,02
 21
474,35
  0
LINE
  8
RAILS
 10
3972,02
 20
474,35
 11
3976,16
 21
474,87
  0
LINE
  8
RAILS
 10
3976,16
 20
474,87
 11
3980,30
 21
475,39
  0
LINE
  8
RAILS
 10
3980,30
 20
475,39
 11
3984,44
 21
475,91
  0
LINE
  8
RAILS
 10
3984,44
 20
475,91
 11
3988,58
 21
476,43
  0
LINE
  8
RAILS
 10
3988,58
 20
476,43
 11
3992,72
 21
476,95
  0
LINE
  8
RAILS
 10
3992,72
 20
476,95
 11
3996,86
 21
477,47
  0
LINE
  8
RAILS
 10
3996,86
 20
477,47
 11
3998,63
 21
477,70
  0
LINE
  8
RAILS
 10
3980,84
 20
466,31
 11
3984,98
 21
466,31
  0
LINE
  8
RAILS
 10
3984,98
 20
466,31
 11
3989,12
 21
466,31
  0
LINE
  8
RAILS
 10
3989,12
 20
466,31
 11
3993,26
 21
466,32
  0
LINE
  8
RAILS
 10
3993,26
 20
466,32
 11
3997,40
 21
466,32
  0
LINE
  8
RAILS
 10
3997,40
 20
466,32
 11
3998,64
 21
466,32
  0
LINE
  8
RAILS
 10
3980,83
 20
466,39
 11
3984,97
 21
466,91
  0
LINE
  8
RAILS
 10
3984,97
 20
466,91
 11
3989,11
 21
467,43
  0
LINE
  8
RAILS
 10
3989,11
 20
467,43
 11
3993,25
 21
467,95
  0
LINE
  8
RAILS
 10
3993,25
 20
467,95
 11
3997,39
 21
468,47
  0
LINE
  8
RAILS
 10
3997,39
 20
468,47
 11
3998,64
 21
468,63
  0
LINE
  8
RAILS
 10
3964,33
 20
458,34
 11
3968,47
 21
458,09
  0
LINE
  8
RAILS
 10
3968,47
 20
458,09
 11
3970,05
 21
458,00
  0
LINE
  8
RAILS
 10
3970,05
 20
458,00
 11
3970,05
 21
458,00
  0
LINE
  8
RAILS
 10
3970,05
 20
458,00
 11
3974,19
 21
458,00
  0
LINE
  8
RAILS
 10
3974,19
 20
458,00
 11
3978,33
 21
458,01
  0
LINE
  8
RAILS
 10
3978,33
 20
458,01
 11
3982,47
 21
458,01
  0
LINE
  8
RAILS
 10
3982,47
 20
458,01
 11
3983,38
 21
458,01
  0
LINE
  8
RAILS
 10
3983,38
 20
458,01
 11
3983,38
 21
458,01
  0
LINE
  8
RAILS
 10
3983,38
 20
458,01
 11
3987,52
 21
458,27
  0
LINE
  8
RAILS
 10
3987,52
 20
458,27
 11
3989,10
 21
458,36
  0
LINE
  8
RAILS
 10
3964,50
 20
472,35
 11
3968,64
 21
473,13
  0
LINE
  8
RAILS
 10
3968,64
 20
473,13
 11
3970,12
 21
473,41
  0
LINE
  8
RAILS
 10
3970,12
 20
473,41
 11
3970,12
 21
473,41
  0
LINE
  8
RAILS
 10
3970,12
 20
473,41
 11
3974,26
 21
473,93
  0
LINE
  8
RAILS
 10
3974,26
 20
473,93
 11
3978,41
 21
474,45
  0
LINE
  8
RAILS
 10
3978,41
 20
474,45
 11
3979,16
 21
474,54
  0
LINE
  8
RAILS
 10
3979,16
 20
474,54
 11
3979,16
 21
474,54
  0
LINE
  8
RAILS
 10
3979,16
 20
474,54
 11
3983,30
 21
475,06
  0
LINE
  8
RAILS
 10
3983,30
 20
475,06
 11
3983,36
 21
475,07
  0
LINE
  8
RAILS
 10
3983,36
 20
475,07
 11
3983,36
 21
475,07
  0
LINE
  8
RAILS
 10
3983,36
 20
475,07
 11
3987,50
 21
475,33
  0
LINE
  8
RAILS
 10
3987,50
 20
475,33
 11
3989,07
 21
475,44
  0
LINE
  8
RAILS
 10
3842,19
 20
456,76
 11
3846,33
 21
456,77
  0
LINE
  8
RAILS
 10
3846,33
 20
456,77
 11
3850,47
 21
456,77
  0
LINE
  8
RAILS
 10
3850,47
 20
456,77
 11
3854,61
 21
456,77
  0
LINE
  8
RAILS
 10
3854,61
 20
456,77
 11
3858,75
 21
456,78
  0
LINE
  8
RAILS
 10
3858,75
 20
456,78
 11
3862,89
 21
456,78
  0
LINE
  8
RAILS
 10
3862,89
 20
456,78
 11
3867,03
 21
456,78
  0
LINE
  8
RAILS
 10
3867,03
 20
456,78
 11
3871,17
 21
456,79
  0
LINE
  8
RAILS
 10
3871,17
 20
456,79
 11
3875,31
 21
456,79
  0
LINE
  8
RAILS
 10
3875,31
 20
456,79
 11
3879,45
 21
456,79
  0
LINE
  8
RAILS
 10
3879,45
 20
456,79
 11
3883,59
 21
456,80
  0
LINE
  8
RAILS
 10
3883,59
 20
456,80
 11
3887,73
 21
456,80
  0
LINE
  8
RAILS
 10
3887,73
 20
456,80
 11
3891,87
 21
456,80
  0
LINE
  8
RAILS
 10
3891,87
 20
456,80
 11
3896,01
 21
456,81
  0
LINE
  8
RAILS
 10
3896,01
 20
456,81
 11
3900,15
 21
456,81
  0
LINE
  8
RAILS
 10
3900,15
 20
456,81
 11
3904,30
 21
456,81
  0
LINE
  8
RAILS
 10
3904,30
 20
456,81
 11
3908,44
 21
456,81
  0
LINE
  8
RAILS
 10
3908,44
 20
456,81
 11
3912,58
 21
456,82
  0
LINE
  8
RAILS
 10
3912,58
 20
456,82
 11
3916,72
 21
456,82
  0
LINE
  8
RAILS
 10
3916,72
 20
456,82
 11
3920,86
 21
456,82
  0
LINE
  8
RAILS
 10
3920,86
 20
456,82
 11
3925,00
 21
456,83
  0
LINE
  8
RAILS
 10
3925,00
 20
456,83
 11
3929,14
 21
456,83
  0
LINE
  8
RAILS
 10
3929,14
 20
456,83
 11
3933,28
 21
456,83
  0
LINE
  8
RAILS
 10
3933,28
 20
456,83
 11
3937,42
 21
456,84
  0
LINE
  8
RAILS
 10
3937,42
 20
456,84
 11
3941,56
 21
456,84
  0
LINE
  8
RAILS
 10
3941,56
 20
456,84
 11
3945,70
 21
456,84
  0
LINE
  8
RAILS
 10
3945,70
 20
456,84
 11
3949,84
 21
456,85
  0
LINE
  8
RAILS
 10
3949,84
 20
456,85
 11
3953,98
 21
456,85
  0
LINE
  8
RAILS
 10
3953,98
 20
456,85
 11
3958,12
 21
456,85
  0
LINE
  8
RAILS
 10
3958,12
 20
456,85
 11
3962,26
 21
456,86
  0
LINE
  8
RAILS
 10
3962,26
 20
456,86
 11
3966,40
 21
456,86
  0
LINE
  8
RAILS
 10
3966,40
 20
456,86
 11
3970,55
 21
456,86
  0
LINE
  8
RAILS
 10
3970,55
 20
456,86
 11
3974,69
 21
456,87
  0
LINE
  8
RAILS
 10
3974,69
 20
456,87
 11
3978,83
 21
456,87
  0
LINE
  8
RAILS
 10
3978,83
 20
456,87
 11
3982,97
 21
456,87
  0
LINE
  8
RAILS
 10
3982,97
 20
456,87
 11
3987,11
 21
456,88
  0
LINE
  8
RAILS
 10
3987,11
 20
456,88
 11
3991,25
 21
456,88
  0
LINE
  8
RAILS
 10
3991,25
 20
456,88
 11
3995,39
 21
456,88
  0
LINE
  8
RAILS
 10
3995,39
 20
456,88
 11
3998,65
 21
456,88
  0
LINE
  8
RAILS
 10
3866,66
 20
466,66
 11
3870,80
 21
466,66
  0
LINE
  8
RAILS
 10
3870,80
 20
466,66
 11
3874,94
 21
466,66
  0
LINE
  8
RAILS
 10
3874,94
 20
466,66
 11
3879,08
 21
466,67
  0
LINE
  8
RAILS
 10
3879,08
 20
466,67
 11
3883,22
 21
466,67
  0
LINE
  8
RAILS
 10
3883,22
 20
466,67
 11
3887,36
 21
466,67
  0
LINE
  8
RAILS
 10
3887,36
 20
466,67
 11
3891,50
 21
466,67
  0
LINE
  8
RAILS
 10
3891,50
 20
466,67
 11
3895,65
 21
466,68
  0
LINE
  8
RAILS
 10
3895,65
 20
466,68
 11
3899,79
 21
466,68
  0
LINE
  8
RAILS
 10
3899,79
 20
466,68
 11
3903,93
 21
466,68
  0
LINE
  8
RAILS
 10
3903,93
 20
466,68
 11
3908,07
 21
466,69
  0
LINE
  8
RAILS
 10
3908,07
 20
466,69
 11
3912,21
 21
466,69
  0
LINE
  8
RAILS
 10
3912,21
 20
466,69
 11
3916,35
 21
466,69
  0
LINE
  8
RAILS
 10
3916,35
 20
466,69
 11
3920,49
 21
466,70
  0
LINE
  8
RAILS
 10
3920,49
 20
466,70
 11
3924,63
 21
466,70
  0
LINE
  8
RAILS
 10
3924,63
 20
466,70
 11
3928,77
 21
466,70
  0
LINE
  8
RAILS
 10
3928,77
 20
466,70
 11
3932,91
 21
466,71
  0
LINE
  8
RAILS
 10
3932,91
 20
466,71
 11
3937,05
 21
466,71
  0
LINE
  8
RAILS
 10
3937,05
 20
466,71
 11
3941,19
 21
466,71
  0
LINE
  8
RAILS
 10
3941,19
 20
466,71
 11
3945,33
 21
466,72
  0
LINE
  8
RAILS
 10
3945,33
 20
466,72
 11
3949,47
 21
466,72
  0
LINE
  8
RAILS
 10
3949,47
 20
466,72
 11
3953,61
 21
466,72
  0
LINE
  8
RAILS
 10
3953,61
 20
466,72
 11
3957,76
 21
466,73
  0
LINE
  8
RAILS
 10
3957,76
 20
466,73
 11
3961,90
 21
466,73
  0
LINE
  8
RAILS
 10
3961,90
 20
466,73
 11
3966,04
 21
466,73
  0
LINE
  8
RAILS
 10
3966,04
 20
466,73
 11
3970,18
 21
466,74
  0
LINE
  8
RAILS
 10
3970,18
 20
466,74
 11
3974,32
 21
466,74
  0
LINE
  8
RAILS
 10
3974,32
 20
466,74
 11
3974,53
 21
466,74
  0
LINE
  8
RAILS
 10
3974,53
 20
466,74
 11
3974,53
 21
466,74
  0
LINE
  8
RAILS
 10
3974,53
 20
466,74
 11
3978,67
 21
467,26
  0
LINE
  8
RAILS
 10
3978,67
 20
467,26
 11
3982,81
 21
467,78
  0
LINE
  8
RAILS
 10
3982,81
 20
467,78
 11
3983,20
 21
467,83
  0
LINE
  8
RAILS
 10
3983,20
 20
467,83
 11
3983,20
 21
467,83
  0
LINE
  8
RAILS
 10
3983,20
 20
467,83
 11
3987,34
 21
468,35
  0
LINE
  8
RAILS
 10
3987,34
 20
468,35
 11
3988,88
 21
468,54
  0
LINE
  8
RAILS
 10
3866,82
 20
457,22
 11
3870,96
 21
457,35
  0
LINE
  8
RAILS
 10
3870,96
 20
457,35
 11
3875,10
 21
457,49
  0
LINE
  8
RAILS
 10
3875,10
 20
457,49
 11
3879,24
 21
457,62
  0
LINE
  8
RAILS
 10
3879,24
 20
457,62
 11
3883,38
 21
457,75
  0
LINE
  8
RAILS
 10
3883,38
 20
457,75
 11
3884,43
 21
457,79
  0
LINE
  8
RAILS
 10
3884,43
 20
457,79
 11
3884,43
 21
457,79
  0
LINE
  8
RAILS
 10
3884,43
 20
457,79
 11
3888,57
 21
457,93
  0
LINE
  8
RAILS
 10
3888,57
 20
457,93
 11
3892,71
 21
458,09
  0
LINE
  8
RAILS
 10
3892,71
 20
458,09
 11
3896,85
 21
458,27
  0
LINE
  8
RAILS
 10
3896,85
 20
458,27
 11
3900,99
 21
458,47
  0
LINE
  8
RAILS
 10
3900,99
 20
458,47
 11
3905,13
 21
458,69
  0
LINE
  8
RAILS
 10
3905,13
 20
458,69
 11
3909,27
 21
458,93
  0
LINE
  8
RAILS
 10
3909,27
 20
458,93
 11
3913,41
 21
459,19
  0
LINE
  8
RAILS
 10
3913,41
 20
459,19
 11
3917,55
 21
459,46
  0
LINE
  8
RAILS
 10
3917,55
 20
459,46
 11
3921,69
 21
459,75
  0
LINE
  8
RAILS
 10
3921,69
 20
459,75
 11
3925,83
 21
460,07
  0
LINE
  8
RAILS
 10
3925,83
 20
460,07
 11
3929,97
 21
460,40
  0
LINE
  8
RAILS
 10
3929,97
 20
460,40
 11
3934,11
 21
460,75
  0
LINE
  8
RAILS
 10
3934,11
 20
460,75
 11
3938,25
 21
461,12
  0
LINE
  8
RAILS
 10
3938,25
 20
461,12
 11
3942,39
 21
461,51
  0
LINE
  8
RAILS
 10
3942,39
 20
461,51
 11
3946,53
 21
461,92
  0
LINE
  8
RAILS
 10
3946,53
 20
461,92
 11
3950,67
 21
462,34
  0
LINE
  8
RAILS
 10
3950,67
 20
462,34
 11
3954,81
 21
462,79
  0
LINE
  8
RAILS
 10
3954,81
 20
462,79
 11
3958,95
 21
463,25
  0
LINE
  8
RAILS
 10
3958,95
 20
463,25
 11
3963,09
 21
463,74
  0
LINE
  8
RAILS
 10
3963,09
 20
463,74
 11
3967,23
 21
464,24
  0
LINE
  8
RAILS
 10
3967,23
 20
464,24
 11
3969,05
 21
464,47
  0
LINE
  8
RAILS
 10
3969,05
 20
464,47
 11
3969,05
 21
464,47
  0
LINE
  8
RAILS
 10
3969,05
 20
464,47
 11
3973,19
 21
464,99
  0
LINE
  8
RAILS
 10
3973,19
 20
464,99
 11
3974,63
 21
465,17
  0
LINE
  8
RAILS
 10
3974,63
 20
465,17
 11
3974,63
 21
465,17
  0
LINE
  8
RAILS
 10
3974,63
 20
465,17
 11
3978,77
 21
465,17
  0
LINE
  8
RAILS
 10
3978,77
 20
465,17
 11
3982,91
 21
465,17
  0
LINE
  8
RAILS
 10
3982,91
 20
465,17
 11
3983,36
 21
465,17
  0
LINE
  8
RAILS
 10
3983,36
 20
465,17
 11
3983,36
 21
465,17
  0
LINE
  8
RAILS
 10
3983,36
 20
465,17
 11
3987,50
 21
465,18
  0
LINE
  8
RAILS
 10
3987,50
 20
465,18
 11
3989,09
 21
465,18
  0
LINE
  8
RAILS
 10
3842,18
 20
466,64
 11
3846,32
 21
466,64
  0
LINE
  8
RAILS
 10
3846,32
 20
466,64
 11
3850,46
 21
466,64
  0
LINE
  8
RAILS
 10
3850,46
 20
466,64
 11
3852,82
 21
466,64
  0
LINE
  8
RAILS
 10
3852,82
 20
466,64
 11
3852,82
 21
466,64
  0
LINE
  8
RAILS
 10
3852,82
 20
466,64
 11
3852,82
 21
466,64
  0
LINE
  8
RAILS
 10
3852,82
 20
466,64
 11
3856,96
 21
466,78
  0
LINE
  8
RAILS
 10
3856,96
 20
466,78
 11
3861,10
 21
466,91
  0
LINE
  8
RAILS
 10
3861,10
 20
466,91
 11
3865,25
 21
467,05
  0
LINE
  8
RAILS
 10
3865,25
 20
467,05
 11
3869,39
 21
467,18
  0
LINE
  8
RAILS
 10
3869,39
 20
467,18
 11
3873,53
 21
467,31
  0
LINE
  8
RAILS
 10
3873,53
 20
467,31
 11
3877,67
 21
467,45
  0
LINE
  8
RAILS
 10
3877,67
 20
467,45
 11
3881,81
 21
467,58
  0
LINE
  8
RAILS
 10
3881,81
 20
467,58
 11
3884,11
 21
467,66
  0
LINE
  8
RAILS
 10
3884,11
 20
467,66
 11
3884,11
 21
467,66
  0
LINE
  8
RAILS
 10
3884,11
 20
467,66
 11
3888,25
 21
467,80
  0
LINE
  8
RAILS
 10
3888,25
 20
467,80
 11
3892,39
 21
467,96
  0
LINE
  8
RAILS
 10
3892,39
 20
467,96
 11
3896,53
 21
468,14
  0
LINE
  8
RAILS
 10
3896,53
 20
468,14
 11
3900,67
 21
468,34
  0
LINE
  8
RAILS
 10
3900,67
 20
468,34
 11
3904,81
 21
468,56
  0
LINE
  8
RAILS
 10
3904,81
 20
468,56
 11
3908,95
 21
468,80
  0
LINE
  8
RAILS
 10
3908,95
 20
468,80
 11
3913,09
 21
469,06
  0
LINE
  8
RAILS
 10
3913,09
 20
469,06
 11
3917,23
 21
469,34
  0
LINE
  8
RAILS
 10
3917,23
 20
469,34
 11
3921,37
 21
469,63
  0
LINE
  8
RAILS
 10
3921,37
 20
469,63
 11
3925,51
 21
469,95
  0
LINE
  8
RAILS
 10
3925,51
 20
469,95
 11
3929,65
 21
470,28
  0
LINE
  8
RAILS
 10
3929,65
 20
470,28
 11
3933,79
 21
470,63
  0
LINE
  8
RAILS
 10
3933,79
 20
470,63
 11
3937,93
 21
471,00
  0
LINE
  8
RAILS
 10
3937,93
 20
471,00
 11
3942,07
 21
471,40
  0
LINE
  8
RAILS
 10
3942,07
 20
471,40
 11
3946,21
 21
471,81
  0
LINE
  8
RAILS
 10
3946,21
 20
471,81
 11
3950,35
 21
472,24
  0
LINE
  8
RAILS
 10
3950,35
 20
472,24
 11
3954,49
 21
472,68
  0
LINE
  8
RAILS
 10
3954,49
 20
472,68
 11
3958,63
 21
473,15
  0
LINE
  8
RAILS
 10
3958,63
 20
473,15
 11
3962,77
 21
473,64
  0
LINE
  8
RAILS
 10
3962,77
 20
473,64
 11
3966,91
 21
474,15
  0
LINE
  8
RAILS
 10
3966,91
 20
474,15
 11
3967,82
 21
474,26
  0
LINE
  8
RAILS
 10
3967,82
 20
474,26
 11
3967,82
 21
474,26
  0
LINE
  8
RAILS
 10
3967,82
 20
474,26
 11
3971,96
 21
474,78
  0
LINE
  8
RAILS
 10
3971,96
 20
474,78
 11
3976,10
 21
475,30
  0
LINE
  8
RAILS
 10
3976,10
 20
475,30
 11
3980,24
 21
475,82
  0
LINE
  8
RAILS
 10
3980,24
 20
475,82
 11
3984,38
 21
476,34
  0
LINE
  8
RAILS
 10
3984,38
 20
476,34
 11
3988,52
 21
476,87
  0
LINE
  8
RAILS
 10
3988,52
 20
476,87
 11
3992,66
 21
477,39
  0
LINE
  8
RAILS
 10
3992,66
 20
477,39
 11
3996,80
 21
477,91
  0
LINE
  8
RAILS
 10
3996,80
 20
477,91
 11
3998,63
 21
478,14
  0
LINE
  8
RAILS
 10
3987,21
 20
466,75
 11
3991,35
 21
466,75
  0
LINE
  8
RAILS
 10
3991,35
 20
466,75
 11
3995,49
 21
466,76
  0
LINE
  8
RAILS
 10
3995,49
 20
466,76
 11
3998,64
 21
466,76
  0
LINE
  8
RAILS
 10
3987,21
 20
466,75
 11
3991,35
 21
467,27
  0
LINE
  8
RAILS
 10
3991,35
 20
467,27
 11
3995,49
 21
467,79
  0
LINE
  8
RAILS
 10
3995,49
 20
467,79
 11
3998,64
 21
468,19
  0
LINE
  8
RAILS
 10
3964,33
 20
458,43
 11
3968,47
 21
458,43
  0
LINE
  8
RAILS
 10
3968,47
 20
458,43
 11
3970,06
 21
458,44
  0
LINE
  8
RAILS
 10
3970,06
 20
458,44
 11
3970,06
 21
458,44
  0
LINE
  8
RAILS
 10
3970,06
 20
458,44
 11
3974,20
 21
458,44
  0
LINE
  8
RAILS
 10
3974,20
 20
458,44
 11
3978,34
 21
458,44
  0
LINE
  8
RAILS
 10
3978,34
 20
458,44
 11
3982,48
 21
458,45
  0
LINE
  8
RAILS
 10
3982,48
 20
458,45
 11
3983,37
 21
458,45
  0
LINE
  8
RAILS
 10
3983,37
 20
458,45
 11
3983,37
 21
458,45
  0
LINE
  8
RAILS
 10
3983,37
 20
458,45
 11
3987,51
 21
458,45
  0
LINE
  8
RAILS
 10
3987,51
 20
458,45
 11
3989,10
 21
458,45
  0
LINE
  8
RAILS
 10
3964,51
 20
472,27
 11
3968,65
 21
472,79
  0
LINE
  8
RAILS
 10
3968,65
 20
472,79
 11
3970,19
 21
472,98
  0
LINE
  8
RAILS
 10
3970,19
 20
472,98
 11
3970,19
 21
472,98
  0
LINE
  8
RAILS
 10
3970,19
 20
472,98
 11
3974,33
 21
473,50
  0
LINE
  8
RAILS
 10
3974,33
 20
473,50
 11
3978,47
 21
474,02
  0
LINE
  8
RAILS
 10
3978,47
 20
474,02
 11
3979,22
 21
474,12
  0
LINE
  8
RAILS
 10
3979,22
 20
474,12
 11
3979,22
 21
474,12
  0
LINE
  8
RAILS
 10
3979,22
 20
474,12
 11
3983,36
 21
474,64
  0
LINE
  8
RAILS
 10
3983,36
 20
474,64
 11
3983,40
 21
474,64
  0
LINE
  8
RAILS
 10
3983,40
 20
474,64
 11
3983,40
 21
474,64
  0
LINE
  8
RAILS
 10
3983,40
 20
474,64
 11
3987,54
 21
475,16
  0
LINE
  8
RAILS
 10
3987,54
 20
475,16
 11
3989,08
 21
475,36
  0
LINE
  8
RAILS
 10
3988,89
 20
468,46
 11
3988,88
 21
468,54
  0
LINE
  8
RAILS
 10
3989,09
 20
465,26
 11
3989,09
 21
465,18
  0
LINE
  8
RAILS
 10
3964,33
 20
458,34
 11
3964,33
 21
458,43
  0
LINE
  8
RAILS
 10
3989,10
 20
458,36
 11
3989,10
 21
458,45
  0
LINE
  8
RAILS
 10
3964,50
 20
472,35
 11
3964,51
 21
472,27
  0
LINE
  8
RAILS
 10
3989,07
 20
475,44
 11
3989,08
 21
475,36
  0
LINE
  8
RAILS
 10
3980,84
 20
466,31
 11
3980,83
 21
466,39
  0
ENDSEC
  0
EOF
