  0
SECTION
  2
HEADER
  0
ENDSEC
  0
SECTION
  2
TABLES
  0
TABLE
  2
LTYPE
 70
10
  0
LTYPE
  2
CONTINUOUS
 70
64
  3
solid line
 72
65
 73
0
 40
0.0
  0
LTYPE
  2
DASHED
 70
0
  3
__ __ __ __ __ __ __ __ __ __ __ __ __ __ __
 72
65
 73
2
 40
0.75
 49
0.5
 49
-0.25
  0
LTYPE
  2
HIDDEN
 70
0
  3
_ _ _ _ _ _ _ _ _ _ _ _ _ _ _ _ _ _ _ _ _ _
 72
65
 73
2
 40
0.375
 49
0.25
 49
-0.125
  0
LTYPE
  2
CENTER
 70
0
  3
____ _ ____ _ ____ _ ____ _ ____ _ ____ _ __
 72
65
 73
4
 40
2.0
 49
1.25
 49
-0.25
 49
0.25
 49
-0.25
  0
LTYPE
  2
PHANTOM
 70
0
  3
_____ _ _ _____ _ _ _____ _ _ _____ _ _ ____
 72
65
 73
6
 40
2.5
 49
1.25
 49
-0.25
 49
0.25
 49
-0.25
 49
0.25
 49
-0.25
  0
LTYPE
  2
DOT
 70
0
  3
............................................
 72
65
 73
2
 40
0.25
 49
0.0
 49
-0.25
  0
LTYPE
  2
DASHDOT
 70
0
  3
__ . __ . __ . __ . __ . __ . __ . __ . __ .
 72
65
 73
4
 40
1.0
 49
0.5
 49
-0.25
 49
0.0
 49
-0.25
  0
LTYPE
  2
BORDER
 70
0
  3
__ __ . __ __ . __ __ . __ __ . __ __ . __ _
 72
65
 73
6
 40
1.75
 49
0.5
 49
-0.25
 49
0.5
 49
-0.25
 49
0.0
 49
-0.25
  0
LTYPE
  2
DIVIDE
 70
0
  3
__ . . __ . . __ . . __ . . __ . . __ . . __
 72
65
 73
6
 40
1.25
 49
0.5
 49
-0.25
 49
0.0
 49
-0.25
 49
0.0
 49
-0.25
  0
LTYPE
  2
DIVIDE2
 70
0
  3
__..__..__..__..__..__..__..__..__..__..__..__.
 72
65
 73
8
 40
0.9
 49
0.25
 49
-0.1
 49
0.25
 49
-0.1
 49
0.0
 49
-0.1
 49
0.0
 49
-0.1
  0
ENDTAB
  0
TABLE
  2
LAYER
 70
18
  0
LAYER
  2
RAILS
 70
0
  6
CONTINUOUS
 62
7
  0
LAYER
  2
ADJTRACK
 70
0
  6
CONTINUOUS
 62
8
  0
LAYER
  2
CENTLINE
 70
0
  6
CENTER
 62
6
  0
LAYER
  2
TIMBOUTL
 70
0
  6
CONTINUOUS
 62
5
  0
LAYER
  2
SLEEPEND
 70
0
  6
CONTINUOUS
 62
1
  0
LAYER
  2
TIMBCENT
 70
0
  6
CENTER
 62
4
  0
LAYER
  2
GDMARKS
 70
0
  6
CONTINUOUS
 62
1
  0
LAYER
  2
RADMARKS
 70
0
  6
CONTINUOUS
 62
3
  0
LAYER
  2
JOINTS
 70
0
  6
CONTINUOUS
 62
7
  0
LAYER
  2
SBGSHAPE
 70
0
  6
CONTINUOUS
 62
1
  0
LAYER
  2
DBGSHAPE
 70
0
  6
HIDDEN
 62
1
  0
LAYER
  2
INFOTEXT
 70
0
  6
CONTINUOUS
 62
5
  0
LAYER
  2
TIMBNUMB
 70
0
  6
CONTINUOUS
 62
3
  0
LAYER
  2
RLSIDE3D
 70
0
  6
CONTINUOUS
 62
33
  0
LAYER
  2
RLTOP3D
 70
0
  6
CONTINUOUS
 62
252
  0
LAYER
  2
CHAIR3D
 70
0
  6
CONTINUOUS
 62
54
  0
LAYER
  2
TIMBER3D
 70
0
  6
CONTINUOUS
 62
8
  0
ENDTAB
  0
ENDSEC
  0
SECTION
  2
ENTITIES
  0
LINE
  8
TIMBOUTL
 10
13,87
 20
22,35
 11
23,49
 21
22,40
  0
LINE
  8
TIMBOUTL
 10
13,63
 20
69,10
 11
23,26
 21
69,15
  0
LINE
  8
TIMBOUTL
 10
15,94
 20
20,30
 11
15,68
 21
71,17
  0
LINE
  8
TIMBOUTL
 10
21,44
 20
20,32
 11
21,18
 21
71,20
  0
LINE
  8
TIMBCENT
 10
18,41
 20
74,62
 11
18,71
 21
16,87
  0
TEXT
  8
TIMBNUMB
 10
16,72
 20
12,05
 40
2,82
  1
1.J1
  0
LINE
  8
TIMBOUTL
 10
0,95
 20
22,32
 11
10,58
 21
22,34
  0
LINE
  8
TIMBOUTL
 10
0,88
 20
69,07
 11
10,50
 21
69,09
  0
LINE
  8
TIMBOUTL
 10
3,02
 20
20,26
 11
2,94
 21
71,14
  0
LINE
  8
TIMBOUTL
 10
8,52
 20
20,27
 11
8,44
 21
71,15
  0
LINE
  8
TIMBCENT
 10
5,68
 20
74,58
 11
5,77
 21
16,83
  0
TEXT
  8
TIMBNUMB
 10
3,78
 20
12,01
 40
2,82
  1
1.J2
  0
LINE
  8
TIMBOUTL
 10
26,79
 20
22,42
 11
36,41
 21
22,50
  0
LINE
  8
TIMBOUTL
 10
26,38
 20
69,17
 11
36,01
 21
69,25
  0
LINE
  8
TIMBOUTL
 10
28,87
 20
20,38
 11
28,43
 21
71,25
  0
LINE
  8
TIMBOUTL
 10
34,37
 20
20,42
 11
33,93
 21
71,30
  0
LINE
  8
TIMBCENT
 10
31,15
 20
74,71
 11
31,65
 21
16,96
  0
TEXT
  8
TIMBNUMB
 10
29,66
 20
12,14
 40
2,82
  1
1.S1
  0
LINE
  8
TIMBOUTL
 10
39,70
 20
22,54
 11
49,33
 21
22,65
  0
LINE
  8
TIMBOUTL
 10
39,13
 20
69,28
 11
48,76
 21
69,40
  0
LINE
  8
TIMBOUTL
 10
41,79
 20
20,50
 11
41,17
 21
71,37
  0
LINE
  8
TIMBOUTL
 10
47,29
 20
20,57
 11
46,67
 21
71,44
  0
LINE
  8
TIMBCENT
 10
43,88
 20
74,84
 11
44,58
 21
17,10
  0
TEXT
  8
TIMBNUMB
 10
42,60
 20
12,28
 40
2,82
  1
1.S2
  0
LINE
  8
TIMBOUTL
 10
52,62
 20
22,70
 11
62,24
 21
22,85
  0
LINE
  8
TIMBOUTL
 10
51,88
 20
69,44
 11
61,50
 21
69,60
  0
LINE
  8
TIMBOUTL
 10
54,71
 20
20,67
 11
53,91
 21
71,54
  0
LINE
  8
TIMBOUTL
 10
60,21
 20
20,76
 11
59,41
 21
71,63
  0
LINE
  8
TIMBCENT
 10
56,61
 20
75,02
 11
57,51
 21
17,28
  0
TEXT
  8
TIMBNUMB
 10
55,55
 20
12,46
 40
2,82
  1
1.S3
  0
LINE
  8
TIMBOUTL
 10
65,53
 20
22,91
 11
75,15
 21
23,09
  0
LINE
  8
TIMBOUTL
 10
64,58
 20
72,40
 11
74,20
 21
72,59
  0
LINE
  8
TIMBOUTL
 10
67,63
 20
20,89
 11
66,60
 21
74,50
  0
LINE
  8
TIMBOUTL
 10
73,13
 20
20,99
 11
72,10
 21
74,61
  0
LINE
  8
TIMBCENT
 10
69,28
 20
77,99
 11
70,45
 21
17,50
  0
TEXT
  8
TIMBNUMB
 10
68,49
 20
12,68
 40
2,82
  1
1.S4
  0
LINE
  8
TIMBOUTL
 10
78,44
 20
23,16
 11
88,07
 21
23,38
  0
LINE
  8
TIMBOUTL
 10
77,32
 20
72,65
 11
86,94
 21
72,87
  0
LINE
  8
TIMBOUTL
 10
80,55
 20
21,15
 11
79,33
 21
74,76
  0
LINE
  8
TIMBOUTL
 10
86,05
 20
21,27
 11
84,83
 21
74,89
  0
LINE
  8
TIMBCENT
 10
82,00
 20
78,26
 11
83,38
 21
17,78
  0
TEXT
  8
TIMBNUMB
 10
81,43
 20
12,96
 40
2,82
  1
1.S5
  0
LINE
  8
TIMBOUTL
 10
91,36
 20
23,46
 11
100,98
 21
23,72
  0
LINE
  8
TIMBOUTL
 10
90,05
 20
72,95
 11
99,67
 21
73,20
  0
LINE
  8
TIMBOUTL
 10
93,47
 20
21,46
 11
92,06
 21
75,06
  0
LINE
  8
TIMBOUTL
 10
98,97
 20
21,60
 11
97,56
 21
75,21
  0
LINE
  8
TIMBCENT
 10
94,72
 20
78,57
 11
96,31
 21
18,09
  0
TEXT
  8
TIMBNUMB
 10
94,36
 20
13,27
 40
2,82
  1
1.S6
  0
LINE
  8
TIMBOUTL
 10
104,27
 20
23,81
 11
113,89
 21
24,10
  0
LINE
  8
TIMBOUTL
 10
102,79
 20
73,29
 11
112,41
 21
73,58
  0
LINE
  8
TIMBOUTL
 10
106,39
 20
21,81
 11
104,79
 21
75,41
  0
LINE
  8
TIMBOUTL
 10
111,89
 20
21,97
 11
110,29
 21
75,58
  0
LINE
  8
TIMBCENT
 10
107,44
 20
78,93
 11
109,24
 21
18,46
  0
TEXT
  8
TIMBNUMB
 10
107,30
 20
13,64
 40
2,82
  1
1.S7
  0
LINE
  8
TIMBOUTL
 10
117,41
 20
24,21
 11
127,03
 21
24,53
  0
LINE
  8
TIMBOUTL
 10
115,75
 20
73,68
 11
125,37
 21
74,00
  0
LINE
  8
TIMBOUTL
 10
119,54
 20
22,22
 11
117,74
 21
75,81
  0
LINE
  8
TIMBOUTL
 10
125,04
 20
22,40
 11
123,24
 21
76,00
  0
LINE
  8
TIMBCENT
 10
120,38
 20
79,34
 11
122,40
 21
18,87
  0
TEXT
  8
TIMBNUMB
 10
120,47
 20
14,05
 40
2,82
  1
1.S8
  0
LINE
  8
TIMBOUTL
 10
130,55
 20
24,66
 11
140,17
 21
25,01
  0
LINE
  8
TIMBOUTL
 10
128,61
 20
76,87
 11
138,23
 21
77,23
  0
LINE
  8
TIMBOUTL
 10
132,68
 20
22,67
 11
130,60
 21
79,01
  0
LINE
  8
TIMBOUTL
 10
138,18
 20
22,87
 11
136,09
 21
79,21
  0
LINE
  8
TIMBCENT
 10
133,22
 20
82,54
 11
135,56
 21
19,34
  0
TEXT
  8
TIMBNUMB
 10
133,63
 20
14,52
 40
2,82
  1
1.S9
  0
LINE
  8
TIMBOUTL
 10
143,68
 20
25,15
 11
153,30
 21
25,54
  0
LINE
  8
TIMBOUTL
 10
141,56
 20
77,36
 11
151,18
 21
77,75
  0
LINE
  8
TIMBOUTL
 10
145,83
 20
23,17
 11
143,54
 21
79,50
  0
LINE
  8
TIMBOUTL
 10
151,32
 20
23,39
 11
149,03
 21
79,72
  0
LINE
  8
TIMBCENT
 10
146,15
 20
83,05
 11
148,72
 21
19,85
  0
TEXT
  8
TIMBNUMB
 10
146,80
 20
15,03
 40
2,82
  1
1.S10
  0
LINE
  8
TIMBOUTL
 10
155,67
 20
25,64
 11
165,28
 21
26,06
  0
LINE
  8
TIMBOUTL
 10
153,37
 20
77,84
 11
162,99
 21
78,26
  0
LINE
  8
TIMBOUTL
 10
157,82
 20
23,67
 11
155,34
 21
79,99
  0
LINE
  8
TIMBOUTL
 10
163,31
 20
23,91
 11
160,84
 21
80,23
  0
LINE
  8
TIMBCENT
 10
157,94
 20
83,55
 11
160,72
 21
20,36
  0
TEXT
  8
TIMBNUMB
 10
158,80
 20
15,54
 40
2,82
  1
1.S11
  0
LINE
  8
TIMBOUTL
 10
166,73
 20
26,13
 11
176,34
 21
26,58
  0
LINE
  8
TIMBOUTL
 10
164,27
 20
78,32
 11
173,89
 21
78,77
  0
LINE
  8
TIMBOUTL
 10
168,88
 20
24,16
 11
166,24
 21
80,48
  0
LINE
  8
TIMBOUTL
 10
174,38
 20
24,42
 11
171,73
 21
80,74
  0
LINE
  8
TIMBCENT
 10
168,82
 20
84,04
 11
171,79
 21
20,86
  0
TEXT
  8
TIMBNUMB
 10
169,89
 20
16,04
 40
2,82
  1
1.T1
  0
LINE
  8
TIMBOUTL
 10
289,96
 20
33,85
 11
299,55
 21
34,62
  0
LINE
  8
TIMBOUTL
 10
284,63
 20
99,63
 11
294,23
 21
100,41
  0
LINE
  8
TIMBOUTL
 10
292,18
 20
31,96
 11
286,52
 21
101,85
  0
LINE
  8
TIMBOUTL
 10
297,66
 20
32,40
 11
292,01
 21
102,30
  0
LINE
  8
TIMBCENT
 10
288,99
 20
105,50
 11
295,20
 21
28,75
  0
TEXT
  8
TIMBNUMB
 10
293,36
 20
23,94
 40
2,82
  1
1.X1 - Z
  0
LINE
  8
TIMBOUTL
 10
303,75
 20
34,97
 11
313,34
 21
35,78
  0
LINE
  8
TIMBOUTL
 10
297,95
 20
103,48
 11
307,54
 21
104,29
  0
LINE
  8
TIMBOUTL
 10
305,98
 20
33,09
 11
299,83
 21
105,70
  0
LINE
  8
TIMBOUTL
 10
311,46
 20
33,55
 11
305,31
 21
106,17
  0
LINE
  8
TIMBCENT
 10
302,28
 20
109,36
 11
309,01
 21
29,90
  0
TEXT
  8
TIMBNUMB
 10
307,18
 20
25,08
 40
2,82
  1
1.X2 - Y
  0
LINE
  8
TIMBOUTL
 10
317,54
 20
36,15
 11
327,13
 21
37,00
  0
LINE
  8
TIMBOUTL
 10
311,23
 20
107,37
 11
320,82
 21
108,22
  0
LINE
  8
TIMBOUTL
 10
319,78
 20
34,28
 11
313,10
 21
109,61
  0
LINE
  8
TIMBOUTL
 10
325,26
 20
34,76
 11
318,58
 21
110,09
  0
LINE
  8
TIMBCENT
 10
315,54
 20
113,27
 11
322,82
 21
31,09
  0
TEXT
  8
TIMBNUMB
 10
321,00
 20
26,28
 40
2,82
  1
1.X3 - X
  0
LINE
  8
TIMBOUTL
 10
331,32
 20
37,38
 11
340,91
 21
38,26
  0
LINE
  8
TIMBOUTL
 10
324,49
 20
111,31
 11
334,08
 21
112,20
  0
LINE
  8
TIMBOUTL
 10
333,57
 20
35,51
 11
326,36
 21
113,56
  0
LINE
  8
TIMBOUTL
 10
339,04
 20
36,02
 11
331,83
 21
114,06
  0
LINE
  8
TIMBCENT
 10
328,78
 20
117,23
 11
336,62
 21
32,34
  0
TEXT
  8
TIMBNUMB
 10
334,81
 20
27,53
 40
2,82
  1
1.X4 - A
  0
LINE
  8
TIMBOUTL
 10
345,10
 20
38,66
 11
354,68
 21
39,58
  0
LINE
  8
TIMBOUTL
 10
337,73
 20
115,30
 11
347,31
 21
116,23
  0
LINE
  8
TIMBOUTL
 10
347,35
 20
36,80
 11
339,58
 21
117,55
  0
LINE
  8
TIMBOUTL
 10
352,83
 20
37,33
 11
345,06
 21
118,08
  0
LINE
  8
TIMBCENT
 10
341,99
 20
121,24
 11
350,42
 21
33,64
  0
TEXT
  8
TIMBNUMB
 10
348,61
 20
28,83
 40
2,82
  1
1.X5 - B
  0
LINE
  8
TIMBOUTL
 10
358,88
 20
39,99
 11
368,46
 21
40,95
  0
LINE
  8
TIMBOUTL
 10
351,21
 20
116,61
 11
360,79
 21
117,57
  0
LINE
  8
TIMBOUTL
 10
361,14
 20
38,14
 11
353,06
 21
118,87
  0
LINE
  8
TIMBOUTL
 10
366,61
 20
38,69
 11
358,53
 21
119,41
  0
LINE
  8
TIMBCENT
 10
355,45
 20
122,56
 11
364,21
 21
35,00
  0
TEXT
  8
TIMBNUMB
 10
362,41
 20
30,19
 40
2,82
  1
1.X6 - C
  0
LINE
  8
TIMBOUTL
 10
372,65
 20
41,38
 11
382,22
 21
42,37
  0
LINE
  8
TIMBOUTL
 10
364,41
 20
120,70
 11
373,98
 21
121,69
  0
LINE
  8
TIMBOUTL
 10
374,91
 20
39,54
 11
366,25
 21
122,96
  0
LINE
  8
TIMBOUTL
 10
380,38
 20
40,11
 11
371,72
 21
123,53
  0
LINE
  8
TIMBCENT
 10
368,63
 20
126,67
 11
378,00
 21
36,40
  0
TEXT
  8
TIMBNUMB
 10
376,21
 20
31,59
 40
2,82
  1
1.X7 - D
  0
LINE
  8
TIMBOUTL
 10
386,41
 20
42,81
 11
395,98
 21
43,84
  0
LINE
  8
TIMBOUTL
 10
377,58
 20
124,84
 11
387,15
 21
125,87
  0
LINE
  8
TIMBOUTL
 10
388,68
 20
40,98
 11
379,41
 21
127,11
  0
LINE
  8
TIMBOUTL
 10
394,15
 20
41,57
 11
384,87
 21
127,70
  0
LINE
  8
TIMBCENT
 10
381,77
 20
130,82
 11
391,78
 21
37,86
  0
TEXT
  8
TIMBNUMB
 10
390,00
 20
33,05
 40
2,82
  1
1.X8
  0
LINE
  8
TIMBOUTL
 10
179,15
 20
26,72
 11
188,77
 21
27,20
  0
LINE
  8
TIMBOUTL
 10
176,38
 20
81,65
 11
186,00
 21
82,13
  0
LINE
  8
TIMBOUTL
 10
181,32
 20
24,76
 11
178,34
 21
83,81
  0
LINE
  8
TIMBOUTL
 10
186,81
 20
25,04
 11
183,83
 21
84,09
  0
LINE
  8
TIMBCENT
 10
180,91
 20
87,38
 11
184,24
 21
21,47
  0
TEXT
  8
TIMBNUMB
 10
182,34
 20
16,65
 40
2,82
  1
1.T2
  0
LINE
  8
TIMBOUTL
 10
191,57
 20
27,35
 11
201,19
 21
27,87
  0
LINE
  8
TIMBOUTL
 10
188,62
 20
82,27
 11
198,23
 21
82,79
  0
LINE
  8
TIMBOUTL
 10
193,75
 20
25,40
 11
190,57
 21
84,44
  0
LINE
  8
TIMBOUTL
 10
199,24
 20
25,70
 11
196,06
 21
84,73
  0
LINE
  8
TIMBCENT
 10
193,13
 20
88,02
 11
196,68
 21
22,11
  0
TEXT
  8
TIMBNUMB
 10
194,78
 20
17,30
 40
2,82
  1
1.T3
  0
LINE
  8
TIMBOUTL
 10
204,00
 20
28,02
 11
213,60
 21
28,57
  0
LINE
  8
TIMBOUTL
 10
200,85
 20
82,93
 11
210,46
 21
83,48
  0
LINE
  8
TIMBOUTL
 10
206,17
 20
26,08
 11
202,79
 21
85,11
  0
LINE
  8
TIMBOUTL
 10
211,66
 20
26,39
 11
208,28
 21
85,42
  0
LINE
  8
TIMBCENT
 10
205,34
 20
88,70
 11
209,11
 21
22,81
  0
TEXT
  8
TIMBNUMB
 10
207,23
 20
17,99
 40
2,82
  1
1.T4
  0
LINE
  8
TIMBOUTL
 10
216,41
 20
28,74
 11
226,02
 21
29,32
  0
LINE
  8
TIMBOUTL
 10
212,92
 20
86,38
 11
222,52
 21
86,96
  0
LINE
  8
TIMBOUTL
 10
218,60
 20
26,80
 11
214,85
 21
88,56
  0
LINE
  8
TIMBOUTL
 10
224,09
 20
27,14
 11
220,34
 21
88,90
  0
LINE
  8
TIMBCENT
 10
217,39
 20
92,16
 11
221,55
 21
23,54
  0
TEXT
  8
TIMBNUMB
 10
219,67
 20
18,72
 40
2,82
  1
1.T5
  0
LINE
  8
TIMBOUTL
 10
228,83
 20
29,50
 11
238,43
 21
30,11
  0
LINE
  8
TIMBOUTL
 10
225,14
 20
87,13
 11
234,74
 21
87,74
  0
LINE
  8
TIMBOUTL
 10
231,02
 20
27,57
 11
227,06
 21
89,32
  0
LINE
  8
TIMBOUTL
 10
236,51
 20
27,92
 11
232,55
 21
89,67
  0
LINE
  8
TIMBCENT
 10
229,59
 20
92,92
 11
233,98
 21
24,31
  0
TEXT
  8
TIMBNUMB
 10
232,11
 20
19,50
 40
2,82
  1
1.T6
  0
LINE
  8
TIMBOUTL
 10
241,24
 20
30,30
 11
250,84
 21
30,94
  0
LINE
  8
TIMBOUTL
 10
237,17
 20
90,66
 11
246,77
 21
91,31
  0
LINE
  8
TIMBOUTL
 10
243,44
 20
28,38
 11
239,09
 21
92,85
  0
LINE
  8
TIMBOUTL
 10
248,93
 20
28,75
 11
244,57
 21
93,23
  0
LINE
  8
TIMBCENT
 10
241,60
 20
96,47
 11
246,41
 21
25,13
  0
TEXT
  8
TIMBNUMB
 10
244,55
 20
20,32
 40
2,82
  1
1.T7
  0
LINE
  8
TIMBOUTL
 10
253,65
 20
31,14
 11
263,25
 21
31,82
  0
LINE
  8
TIMBOUTL
 10
249,37
 20
91,49
 11
258,97
 21
92,17
  0
LINE
  8
TIMBOUTL
 10
255,85
 20
29,23
 11
251,28
 21
93,69
  0
LINE
  8
TIMBOUTL
 10
261,34
 20
29,62
 11
256,77
 21
94,08
  0
LINE
  8
TIMBCENT
 10
253,78
 20
97,31
 11
258,84
 21
25,99
  0
TEXT
  8
TIMBNUMB
 10
256,98
 20
21,18
 40
2,82
  1
1.T8
  0
LINE
  8
TIMBOUTL
 10
266,06
 20
32,02
 11
275,66
 21
32,74
  0
LINE
  8
TIMBOUTL
 10
261,37
 20
95,10
 11
270,97
 21
95,81
  0
LINE
  8
TIMBOUTL
 10
268,27
 20
30,12
 11
263,27
 21
97,31
  0
LINE
  8
TIMBOUTL
 10
273,75
 20
30,53
 11
268,76
 21
97,72
  0
LINE
  8
TIMBCENT
 10
265,76
 20
100,94
 11
271,27
 21
26,89
  0
TEXT
  8
TIMBNUMB
 10
269,41
 20
22,08
 40
2,82
  1
1.T9
  0
LINE
  8
TIMBOUTL
 10
278,46
 20
32,95
 11
288,06
 21
33,70
  0
LINE
  8
TIMBOUTL
 10
273,35
 20
98,75
 11
282,94
 21
99,50
  0
LINE
  8
TIMBOUTL
 10
280,68
 20
31,05
 11
275,24
 21
100,97
  0
LINE
  8
TIMBOUTL
 10
286,16
 20
31,48
 11
280,72
 21
101,39
  0
LINE
  8
TIMBCENT
 10
277,72
 20
104,61
 11
283,69
 21
27,84
  0
TEXT
  8
TIMBNUMB
 10
281,84
 20
23,03
 40
2,82
  1
1.T10
  0
LINE
  8
TIMBOUTL
 10
398,10
 20
44,08
 11
406,76
 21
45,04
  0
LINE
  8
TIMBOUTL
 10
392,95
 20
90,54
 11
401,61
 21
91,50
  0
LINE
  8
TIMBOUTL
 10
400,38
 20
42,25
 11
394,78
 21
92,82
  0
LINE
  8
TIMBOUTL
 10
404,93
 20
42,76
 11
399,33
 21
93,32
  0
LINE
  8
TIMBCENT
 10
396,67
 20
96,49
 11
403,04
 21
39,09
  0
TEXT
  8
TIMBNUMB
 10
401,26
 20
34,28
 40
2,82
  1
1.E1
  0
LINE
  8
TIMBOUTL
 10
410,25
 20
45,43
 11
418,90
 21
46,42
  0
LINE
  8
TIMBOUTL
 10
404,95
 20
91,88
 11
413,60
 21
92,87
  0
LINE
  8
TIMBOUTL
 10
412,53
 20
43,61
 11
406,76
 21
94,16
  0
LINE
  8
TIMBOUTL
 10
417,09
 20
44,13
 11
411,32
 21
94,68
  0
LINE
  8
TIMBCENT
 10
408,65
 20
97,84
 11
415,20
 21
40,46
  0
TEXT
  8
TIMBNUMB
 10
413,43
 20
35,65
 40
2,82
  1
1.E2
  0
TEXT
  8
INFOTEXT
 10
126,21
 20
39,67
 40
4,59
  1
no-name
  0
LINE
  8
GDMARKS
 10
0,00
 20
43,87
 11
0,00
 21
47,53
  0
LINE
  8
GDMARKS
 10
0,00
 20
43,87
 11
0,00
 21
47,53
  0
LINE
  8
GDMARKS
 10
29,84
 20
35,41
 11
29,98
 21
29,57
  0
LINE
  8
GDMARKS
 10
29,35
 20
56,23
 11
29,21
 21
62,07
  0
LINE
  8
GDMARKS
 10
70,21
 20
37,23
 11
70,57
 21
30,13
  0
LINE
  8
GDMARKS
 10
69,39
 20
63,88
 11
69,52
 21
56,78
  0
LINE
  8
GDMARKS
 10
328,23
 20
73,32
 11
329,59
 21
73,45
  0
LINE
  8
GDMARKS
 10
328,95
 20
72,93
 11
328,87
 21
73,84
  0
LINE
  8
GDMARKS
 10
29,61
 20
43,99
 11
29,58
 21
47,65
  0
LINE
  8
GDMARKS
 10
177,09
 20
48,19
 11
176,91
 21
51,85
  0
LINE
  8
GDMARKS
 10
357,86
 20
92,40
 11
357,49
 21
96,05
  0
LINE
  8
GDMARKS
 10
363,44
 20
62,10
 11
363,07
 21
65,75
  0
LINE
  8
GDMARKS
 10
387,80
 20
100,70
 11
387,40
 21
104,34
  0
LINE
  8
GDMARKS
 10
394,59
 20
65,37
 11
394,19
 21
69,01
  0
LINE
  8
GDMARKS
 10
36,94
 20
64,09
 11
38,76
 21
64,11
  0
LINE
  8
GDMARKS
 10
37,31
 20
27,69
 11
39,15
 21
27,71
  0
LINE
  8
GDMARKS
 10
36,94
 20
64,09
 11
37,31
 21
27,69
  0
LINE
  8
GDMARKS
 10
38,76
 20
64,11
 11
39,15
 21
27,71
  0
LINE
  8
JOINTS
 10
0,00
 20
56,11
 11
0,00
 21
61,95
  0
LINE
  8
JOINTS
 10
0,00
 20
35,29
 11
0,00
 21
29,45
  0
LINE
  8
JOINTS
 10
154,06
 20
38,88
 11
153,59
 21
43,44
  0
LINE
  8
JOINTS
 10
152,86
 20
63,93
 11
153,06
 21
59,35
  0
LINE
  8
JOINTS
 10
163,71
 20
71,33
 11
164,22
 21
66,78
  0
LINE
  8
JOINTS
 10
165,47
 20
37,79
 11
165,68
 21
33,21
  0
LINE
  8
JOINTS
 10
285,87
 20
73,28
 11
286,34
 21
67,45
  0
LINE
  8
JOINTS
 10
286,76
 20
65,27
 11
288,06
 21
59,57
  0
LINE
  8
JOINTS
 10
390,40
 20
92,50
 11
391,97
 21
86,87
  0
LINE
  8
JOINTS
 10
393,26
 20
77,53
 11
392,62
 21
83,34
  0
LINE
  8
RADMARKS
 10
69,45
 20
60,33
 11
70,36
 21
34,94
  0
LINE
  8
RADMARKS
 10
145,47
 20
65,87
 11
147,87
 21
40,58
  0
LINE
  8
RADMARKS
 10
310,86
 20
94,92
 11
317,18
 21
70,32
  0
LINE
  8
CENTLINE
 10
0,00
 20
45,70
 11
7,04
 21
45,71
  0
LINE
  8
CENTLINE
 10
7,04
 20
45,71
 11
14,07
 21
45,73
  0
LINE
  8
CENTLINE
 10
14,07
 20
45,73
 11
21,11
 21
45,76
  0
LINE
  8
CENTLINE
 10
21,11
 20
45,76
 11
28,14
 21
45,81
  0
LINE
  8
CENTLINE
 10
28,14
 20
45,81
 11
35,18
 21
45,87
  0
LINE
  8
CENTLINE
 10
35,18
 20
45,87
 11
42,21
 21
45,95
  0
LINE
  8
CENTLINE
 10
42,21
 20
45,95
 11
49,25
 21
46,03
  0
LINE
  8
CENTLINE
 10
49,25
 20
46,03
 11
56,28
 21
46,14
  0
LINE
  8
CENTLINE
 10
56,28
 20
46,14
 11
63,32
 21
46,25
  0
LINE
  8
CENTLINE
 10
63,32
 20
46,25
 11
70,35
 21
46,38
  0
LINE
  8
CENTLINE
 10
70,35
 20
46,38
 11
77,39
 21
46,52
  0
LINE
  8
CENTLINE
 10
77,39
 20
46,52
 11
84,42
 21
46,68
  0
LINE
  8
CENTLINE
 10
84,42
 20
46,68
 11
91,45
 21
46,85
  0
LINE
  8
CENTLINE
 10
91,45
 20
46,85
 11
98,49
 21
47,04
  0
LINE
  8
CENTLINE
 10
98,49
 20
47,04
 11
105,52
 21
47,23
  0
LINE
  8
CENTLINE
 10
105,52
 20
47,23
 11
112,55
 21
47,45
  0
LINE
  8
CENTLINE
 10
112,55
 20
47,45
 11
119,58
 21
47,67
  0
LINE
  8
CENTLINE
 10
119,58
 20
47,67
 11
126,62
 21
47,91
  0
LINE
  8
CENTLINE
 10
126,62
 20
47,91
 11
133,65
 21
48,16
  0
LINE
  8
CENTLINE
 10
133,65
 20
48,16
 11
140,68
 21
48,43
  0
LINE
  8
CENTLINE
 10
140,68
 20
48,43
 11
147,71
 21
48,71
  0
LINE
  8
CENTLINE
 10
147,71
 20
48,71
 11
154,74
 21
49,00
  0
LINE
  8
CENTLINE
 10
154,74
 20
49,00
 11
161,77
 21
49,31
  0
LINE
  8
CENTLINE
 10
161,77
 20
49,31
 11
168,79
 21
49,63
  0
LINE
  8
CENTLINE
 10
168,79
 20
49,63
 11
175,82
 21
49,96
  0
LINE
  8
CENTLINE
 10
175,82
 20
49,96
 11
182,85
 21
50,31
  0
LINE
  8
CENTLINE
 10
182,85
 20
50,31
 11
189,88
 21
50,67
  0
LINE
  8
CENTLINE
 10
189,88
 20
50,67
 11
196,90
 21
51,04
  0
LINE
  8
CENTLINE
 10
196,90
 20
51,04
 11
203,93
 21
51,43
  0
LINE
  8
CENTLINE
 10
203,93
 20
51,43
 11
210,95
 21
51,83
  0
LINE
  8
CENTLINE
 10
210,95
 20
51,83
 11
217,97
 21
52,25
  0
LINE
  8
CENTLINE
 10
217,97
 20
52,25
 11
225,00
 21
52,68
  0
LINE
  8
CENTLINE
 10
225,00
 20
52,68
 11
232,02
 21
53,12
  0
LINE
  8
CENTLINE
 10
232,02
 20
53,12
 11
239,04
 21
53,58
  0
LINE
  8
CENTLINE
 10
239,04
 20
53,58
 11
246,06
 21
54,05
  0
LINE
  8
CENTLINE
 10
246,06
 20
54,05
 11
253,08
 21
54,53
  0
LINE
  8
CENTLINE
 10
253,08
 20
54,53
 11
260,10
 21
55,03
  0
LINE
  8
CENTLINE
 10
260,10
 20
55,03
 11
267,11
 21
55,54
  0
LINE
  8
CENTLINE
 10
267,11
 20
55,54
 11
274,13
 21
56,07
  0
LINE
  8
CENTLINE
 10
274,13
 20
56,07
 11
281,14
 21
56,60
  0
LINE
  8
CENTLINE
 10
281,14
 20
56,60
 11
288,16
 21
57,16
  0
LINE
  8
CENTLINE
 10
288,16
 20
57,16
 11
295,17
 21
57,72
  0
LINE
  8
CENTLINE
 10
295,17
 20
57,72
 11
302,18
 21
58,30
  0
LINE
  8
CENTLINE
 10
302,18
 20
58,30
 11
309,19
 21
58,89
  0
LINE
  8
CENTLINE
 10
309,19
 20
58,89
 11
316,20
 21
59,50
  0
LINE
  8
CENTLINE
 10
316,20
 20
59,50
 11
323,21
 21
60,12
  0
LINE
  8
CENTLINE
 10
323,21
 20
60,12
 11
330,22
 21
60,75
  0
LINE
  8
CENTLINE
 10
330,22
 20
60,75
 11
337,22
 21
61,40
  0
LINE
  8
CENTLINE
 10
337,22
 20
61,40
 11
344,23
 21
62,06
  0
LINE
  8
CENTLINE
 10
344,23
 20
62,06
 11
351,23
 21
62,73
  0
LINE
  8
CENTLINE
 10
351,23
 20
62,73
 11
358,23
 21
63,42
  0
LINE
  8
CENTLINE
 10
358,23
 20
63,42
 11
365,23
 21
64,12
  0
LINE
  8
CENTLINE
 10
365,23
 20
64,12
 11
372,23
 21
64,84
  0
LINE
  8
CENTLINE
 10
372,23
 20
64,84
 11
379,23
 21
65,56
  0
LINE
  8
CENTLINE
 10
379,23
 20
65,56
 11
386,23
 21
66,31
  0
LINE
  8
CENTLINE
 10
386,23
 20
66,31
 11
393,22
 21
67,06
  0
LINE
  8
CENTLINE
 10
393,22
 20
67,06
 11
400,22
 21
67,83
  0
LINE
  8
CENTLINE
 10
400,22
 20
67,83
 11
407,21
 21
68,61
  0
LINE
  8
CENTLINE
 10
407,21
 20
68,61
 11
411,92
 21
69,15
  0
LINE
  8
CENTLINE
 10
177,00
 20
50,02
 11
183,97
 21
51,54
  0
LINE
  8
CENTLINE
 10
183,97
 20
51,54
 11
190,93
 21
53,07
  0
LINE
  8
CENTLINE
 10
190,93
 20
53,07
 11
197,89
 21
54,62
  0
LINE
  8
CENTLINE
 10
197,89
 20
54,62
 11
204,84
 21
56,18
  0
LINE
  8
CENTLINE
 10
204,84
 20
56,18
 11
211,79
 21
57,76
  0
LINE
  8
CENTLINE
 10
211,79
 20
57,76
 11
218,73
 21
59,34
  0
LINE
  8
CENTLINE
 10
218,73
 20
59,34
 11
225,66
 21
60,95
  0
LINE
  8
CENTLINE
 10
225,66
 20
60,95
 11
232,59
 21
62,56
  0
LINE
  8
CENTLINE
 10
232,59
 20
62,56
 11
239,52
 21
64,19
  0
LINE
  8
CENTLINE
 10
239,52
 20
64,19
 11
246,44
 21
65,83
  0
LINE
  8
CENTLINE
 10
246,44
 20
65,83
 11
253,35
 21
67,48
  0
LINE
  8
CENTLINE
 10
253,35
 20
67,48
 11
260,26
 21
69,15
  0
LINE
  8
CENTLINE
 10
260,26
 20
69,15
 11
267,16
 21
70,83
  0
LINE
  8
CENTLINE
 10
267,16
 20
70,83
 11
274,06
 21
72,52
  0
LINE
  8
CENTLINE
 10
274,06
 20
72,52
 11
280,95
 21
74,23
  0
LINE
  8
CENTLINE
 10
280,95
 20
74,23
 11
287,84
 21
75,95
  0
LINE
  8
CENTLINE
 10
287,84
 20
75,95
 11
294,72
 21
77,68
  0
LINE
  8
CENTLINE
 10
294,72
 20
77,68
 11
301,59
 21
79,43
  0
LINE
  8
CENTLINE
 10
301,59
 20
79,43
 11
308,46
 21
81,19
  0
LINE
  8
CENTLINE
 10
308,46
 20
81,19
 11
315,33
 21
82,96
  0
LINE
  8
CENTLINE
 10
315,33
 20
82,96
 11
322,19
 21
84,75
  0
LINE
  8
CENTLINE
 10
322,19
 20
84,75
 11
329,04
 21
86,55
  0
LINE
  8
CENTLINE
 10
329,04
 20
86,55
 11
335,88
 21
88,36
  0
LINE
  8
CENTLINE
 10
335,88
 20
88,36
 11
342,72
 21
90,19
  0
LINE
  8
CENTLINE
 10
342,72
 20
90,19
 11
349,56
 21
92,02
  0
LINE
  8
CENTLINE
 10
349,56
 20
92,02
 11
356,39
 21
93,87
  0
LINE
  8
CENTLINE
 10
356,39
 20
93,87
 11
363,21
 21
95,74
  0
LINE
  8
CENTLINE
 10
363,21
 20
95,74
 11
370,03
 21
97,62
  0
LINE
  8
CENTLINE
 10
370,03
 20
97,62
 11
376,84
 21
99,51
  0
LINE
  8
CENTLINE
 10
376,84
 20
99,51
 11
383,65
 21
101,41
  0
LINE
  8
CENTLINE
 10
383,65
 20
101,41
 11
390,45
 21
103,32
  0
LINE
  8
CENTLINE
 10
390,45
 20
103,32
 11
392,27
 21
103,84
  0
LINE
  8
RAILS
 10
0,00
 20
33,00
 11
7,06
 21
33,01
  0
LINE
  8
RAILS
 10
7,06
 20
33,01
 11
14,12
 21
33,03
  0
LINE
  8
RAILS
 10
14,12
 20
33,03
 11
21,18
 21
33,06
  0
LINE
  8
RAILS
 10
21,18
 20
33,06
 11
28,24
 21
33,11
  0
LINE
  8
RAILS
 10
28,24
 20
33,11
 11
35,30
 21
33,17
  0
LINE
  8
RAILS
 10
35,30
 20
33,17
 11
42,36
 21
33,25
  0
LINE
  8
RAILS
 10
42,36
 20
33,25
 11
49,42
 21
33,34
  0
LINE
  8
RAILS
 10
49,42
 20
33,34
 11
56,48
 21
33,44
  0
LINE
  8
RAILS
 10
56,48
 20
33,44
 11
63,54
 21
33,55
  0
LINE
  8
RAILS
 10
63,54
 20
33,55
 11
70,60
 21
33,68
  0
LINE
  8
RAILS
 10
70,60
 20
33,68
 11
77,66
 21
33,83
  0
LINE
  8
RAILS
 10
77,66
 20
33,83
 11
84,72
 21
33,99
  0
LINE
  8
RAILS
 10
84,72
 20
33,99
 11
91,77
 21
34,16
  0
LINE
  8
RAILS
 10
91,77
 20
34,16
 11
98,83
 21
34,34
  0
LINE
  8
RAILS
 10
98,83
 20
34,34
 11
105,89
 21
34,54
  0
LINE
  8
RAILS
 10
105,89
 20
34,54
 11
112,95
 21
34,75
  0
LINE
  8
RAILS
 10
112,95
 20
34,75
 11
120,00
 21
34,98
  0
LINE
  8
RAILS
 10
120,00
 20
34,98
 11
127,06
 21
35,22
  0
LINE
  8
RAILS
 10
127,06
 20
35,22
 11
134,11
 21
35,47
  0
LINE
  8
RAILS
 10
134,11
 20
35,47
 11
141,17
 21
35,74
  0
LINE
  8
RAILS
 10
141,17
 20
35,74
 11
148,22
 21
36,02
  0
LINE
  8
RAILS
 10
148,22
 20
36,02
 11
155,28
 21
36,31
  0
LINE
  8
RAILS
 10
155,28
 20
36,31
 11
162,33
 21
36,62
  0
LINE
  8
RAILS
 10
162,33
 20
36,62
 11
169,38
 21
36,94
  0
LINE
  8
RAILS
 10
169,38
 20
36,94
 11
176,44
 21
37,28
  0
LINE
  8
RAILS
 10
176,44
 20
37,28
 11
183,49
 21
37,62
  0
LINE
  8
RAILS
 10
183,49
 20
37,62
 11
190,54
 21
37,99
  0
LINE
  8
RAILS
 10
190,54
 20
37,99
 11
197,59
 21
38,36
  0
LINE
  8
RAILS
 10
197,59
 20
38,36
 11
204,64
 21
38,75
  0
LINE
  8
RAILS
 10
204,64
 20
38,75
 11
211,69
 21
39,16
  0
LINE
  8
RAILS
 10
211,69
 20
39,16
 11
218,74
 21
39,57
  0
LINE
  8
RAILS
 10
218,74
 20
39,57
 11
225,78
 21
40,00
  0
LINE
  8
RAILS
 10
225,78
 20
40,00
 11
232,83
 21
40,45
  0
LINE
  8
RAILS
 10
232,83
 20
40,45
 11
239,87
 21
40,91
  0
LINE
  8
RAILS
 10
239,87
 20
40,91
 11
246,92
 21
41,38
  0
LINE
  8
RAILS
 10
246,92
 20
41,38
 11
253,96
 21
41,86
  0
LINE
  8
RAILS
 10
253,96
 20
41,86
 11
261,00
 21
42,36
  0
LINE
  8
RAILS
 10
261,00
 20
42,36
 11
268,05
 21
42,88
  0
LINE
  8
RAILS
 10
268,05
 20
42,88
 11
275,09
 21
43,40
  0
LINE
  8
RAILS
 10
275,09
 20
43,40
 11
282,13
 21
43,94
  0
LINE
  8
RAILS
 10
282,13
 20
43,94
 11
289,17
 21
44,50
  0
LINE
  8
RAILS
 10
289,17
 20
44,50
 11
296,20
 21
45,06
  0
LINE
  8
RAILS
 10
296,20
 20
45,06
 11
303,24
 21
45,64
  0
LINE
  8
RAILS
 10
303,24
 20
45,64
 11
310,27
 21
46,24
  0
LINE
  8
RAILS
 10
310,27
 20
46,24
 11
317,31
 21
46,85
  0
LINE
  8
RAILS
 10
317,31
 20
46,85
 11
324,34
 21
47,47
  0
LINE
  8
RAILS
 10
324,34
 20
47,47
 11
331,37
 21
48,10
  0
LINE
  8
RAILS
 10
331,37
 20
48,10
 11
338,40
 21
48,75
  0
LINE
  8
RAILS
 10
338,40
 20
48,75
 11
345,43
 21
49,42
  0
LINE
  8
RAILS
 10
345,43
 20
49,42
 11
352,46
 21
50,09
  0
LINE
  8
RAILS
 10
352,46
 20
50,09
 11
359,49
 21
50,78
  0
LINE
  8
RAILS
 10
359,49
 20
50,78
 11
366,51
 21
51,49
  0
LINE
  8
RAILS
 10
366,51
 20
51,49
 11
373,53
 21
52,20
  0
LINE
  8
RAILS
 10
373,53
 20
52,20
 11
380,56
 21
52,93
  0
LINE
  8
RAILS
 10
380,56
 20
52,93
 11
387,58
 21
53,68
  0
LINE
  8
RAILS
 10
387,58
 20
53,68
 11
394,60
 21
54,44
  0
LINE
  8
RAILS
 10
394,60
 20
54,44
 11
401,62
 21
55,21
  0
LINE
  8
RAILS
 10
401,62
 20
55,21
 11
408,63
 21
55,99
  0
LINE
  8
RAILS
 10
408,63
 20
55,99
 11
413,37
 21
56,53
  0
LINE
  8
RAILS
 10
29,29
 20
58,52
 11
36,30
 21
58,58
  0
LINE
  8
RAILS
 10
36,30
 20
58,58
 11
43,31
 21
58,66
  0
LINE
  8
RAILS
 10
43,31
 20
58,66
 11
50,32
 21
58,75
  0
LINE
  8
RAILS
 10
50,32
 20
58,75
 11
57,33
 21
58,85
  0
LINE
  8
RAILS
 10
57,33
 20
58,85
 11
64,34
 21
58,97
  0
LINE
  8
RAILS
 10
64,34
 20
58,97
 11
69,48
 21
59,07
  0
LINE
  8
RAILS
 10
69,48
 20
59,07
 11
69,48
 21
59,07
  0
LINE
  8
RAILS
 10
69,48
 20
59,07
 11
76,49
 21
59,21
  0
LINE
  8
RAILS
 10
76,49
 20
59,21
 11
83,50
 21
59,36
  0
LINE
  8
RAILS
 10
83,50
 20
59,36
 11
90,51
 21
59,53
  0
LINE
  8
RAILS
 10
90,51
 20
59,53
 11
97,52
 21
59,71
  0
LINE
  8
RAILS
 10
97,52
 20
59,71
 11
104,52
 21
59,91
  0
LINE
  8
RAILS
 10
104,52
 20
59,91
 11
111,53
 21
60,12
  0
LINE
  8
RAILS
 10
111,53
 20
60,12
 11
118,54
 21
60,34
  0
LINE
  8
RAILS
 10
118,54
 20
60,34
 11
125,55
 21
60,58
  0
LINE
  8
RAILS
 10
125,55
 20
60,58
 11
132,55
 21
60,83
  0
LINE
  8
RAILS
 10
132,55
 20
60,83
 11
139,56
 21
61,09
  0
LINE
  8
RAILS
 10
139,56
 20
61,09
 11
146,56
 21
61,37
  0
LINE
  8
RAILS
 10
146,56
 20
61,37
 11
153,57
 21
61,66
  0
LINE
  8
RAILS
 10
153,57
 20
61,66
 11
160,57
 21
61,97
  0
LINE
  8
RAILS
 10
160,57
 20
61,97
 11
167,58
 21
62,28
  0
LINE
  8
RAILS
 10
167,58
 20
62,28
 11
174,58
 21
62,62
  0
LINE
  8
RAILS
 10
174,58
 20
62,62
 11
181,58
 21
62,96
  0
LINE
  8
RAILS
 10
181,58
 20
62,96
 11
188,59
 21
63,32
  0
LINE
  8
RAILS
 10
188,59
 20
63,32
 11
195,59
 21
63,69
  0
LINE
  8
RAILS
 10
195,59
 20
63,69
 11
202,59
 21
64,08
  0
LINE
  8
RAILS
 10
202,59
 20
64,08
 11
209,59
 21
64,48
  0
LINE
  8
RAILS
 10
209,59
 20
64,48
 11
216,59
 21
64,89
  0
LINE
  8
RAILS
 10
216,59
 20
64,89
 11
223,58
 21
65,32
  0
LINE
  8
RAILS
 10
223,58
 20
65,32
 11
230,58
 21
65,76
  0
LINE
  8
RAILS
 10
230,58
 20
65,76
 11
237,58
 21
66,21
  0
LINE
  8
RAILS
 10
237,58
 20
66,21
 11
244,57
 21
66,68
  0
LINE
  8
RAILS
 10
244,57
 20
66,68
 11
251,57
 21
67,16
  0
LINE
  8
RAILS
 10
251,57
 20
67,16
 11
258,56
 21
67,65
  0
LINE
  8
RAILS
 10
258,56
 20
67,65
 11
265,55
 21
68,16
  0
LINE
  8
RAILS
 10
265,55
 20
68,16
 11
272,54
 21
68,68
  0
LINE
  8
RAILS
 10
272,54
 20
68,68
 11
279,53
 21
69,22
  0
LINE
  8
RAILS
 10
279,53
 20
69,22
 11
286,52
 21
69,77
  0
LINE
  8
RAILS
 10
286,52
 20
69,77
 11
293,51
 21
70,33
  0
LINE
  8
RAILS
 10
293,51
 20
70,33
 11
300,50
 21
70,90
  0
LINE
  8
RAILS
 10
300,50
 20
70,90
 11
307,49
 21
71,49
  0
LINE
  8
RAILS
 10
307,49
 20
71,49
 11
314,47
 21
72,10
  0
LINE
  8
RAILS
 10
314,47
 20
72,10
 11
321,46
 21
72,71
  0
LINE
  8
RAILS
 10
321,46
 20
72,71
 11
322,87
 21
72,84
  0
LINE
  8
RAILS
 10
322,87
 20
72,84
 11
322,87
 21
72,84
  0
LINE
  8
RAILS
 10
322,87
 20
72,84
 11
329,75
 21
74,64
  0
LINE
  8
RAILS
 10
329,75
 20
74,64
 11
336,62
 21
76,45
  0
LINE
  8
RAILS
 10
336,62
 20
76,45
 11
337,73
 21
76,75
  0
LINE
  8
RAILS
 10
337,73
 20
76,75
 11
337,73
 21
76,75
  0
LINE
  8
RAILS
 10
337,73
 20
76,75
 11
344,56
 21
78,93
  0
LINE
  8
RAILS
 10
344,56
 20
78,93
 11
351,38
 21
81,12
  0
LINE
  8
RAILS
 10
351,38
 20
81,12
 11
353,39
 21
81,77
  0
LINE
  8
RAILS
 10
29,90
 20
33,14
 11
36,95
 21
33,42
  0
LINE
  8
RAILS
 10
36,95
 20
33,42
 11
44,01
 21
33,72
  0
LINE
  8
RAILS
 10
44,01
 20
33,72
 11
51,07
 21
34,03
  0
LINE
  8
RAILS
 10
51,07
 20
34,03
 11
58,12
 21
34,36
  0
LINE
  8
RAILS
 10
58,12
 20
34,36
 11
65,17
 21
34,69
  0
LINE
  8
RAILS
 10
65,17
 20
34,69
 11
70,32
 21
34,95
  0
LINE
  8
RAILS
 10
70,32
 20
34,95
 11
70,32
 21
34,94
  0
LINE
  8
RAILS
 10
70,32
 20
34,94
 11
77,37
 21
35,31
  0
LINE
  8
RAILS
 10
77,37
 20
35,31
 11
84,42
 21
35,71
  0
LINE
  8
RAILS
 10
84,42
 20
35,71
 11
91,47
 21
36,13
  0
LINE
  8
RAILS
 10
91,47
 20
36,13
 11
98,52
 21
36,59
  0
LINE
  8
RAILS
 10
98,52
 20
36,59
 11
105,56
 21
37,07
  0
LINE
  8
RAILS
 10
105,56
 20
37,07
 11
112,61
 21
37,59
  0
LINE
  8
RAILS
 10
112,61
 20
37,59
 11
119,65
 21
38,13
  0
LINE
  8
RAILS
 10
119,65
 20
38,13
 11
126,69
 21
38,70
  0
LINE
  8
RAILS
 10
126,69
 20
38,70
 11
133,72
 21
39,29
  0
LINE
  8
RAILS
 10
133,72
 20
39,29
 11
140,76
 21
39,92
  0
LINE
  8
RAILS
 10
140,76
 20
39,92
 11
147,79
 21
40,57
  0
LINE
  8
RAILS
 10
147,79
 20
40,57
 11
147,87
 21
40,58
  0
LINE
  8
RAILS
 10
147,87
 20
40,58
 11
147,87
 21
40,58
  0
LINE
  8
RAILS
 10
147,87
 20
40,58
 11
154,90
 21
41,27
  0
LINE
  8
RAILS
 10
154,90
 20
41,27
 11
161,93
 21
42,01
  0
LINE
  8
RAILS
 10
161,93
 20
42,01
 11
168,95
 21
42,79
  0
LINE
  8
RAILS
 10
168,95
 20
42,79
 11
175,96
 21
43,62
  0
LINE
  8
RAILS
 10
175,96
 20
43,62
 11
182,98
 21
44,49
  0
LINE
  8
RAILS
 10
182,98
 20
44,49
 11
189,99
 21
45,41
  0
LINE
  8
RAILS
 10
189,99
 20
45,41
 11
196,99
 21
46,38
  0
LINE
  8
RAILS
 10
196,99
 20
46,38
 11
203,99
 21
47,39
  0
LINE
  8
RAILS
 10
203,99
 20
47,39
 11
210,98
 21
48,44
  0
LINE
  8
RAILS
 10
210,98
 20
48,44
 11
217,97
 21
49,55
  0
LINE
  8
RAILS
 10
217,97
 20
49,55
 11
224,95
 21
50,69
  0
LINE
  8
RAILS
 10
224,95
 20
50,69
 11
231,93
 21
51,89
  0
LINE
  8
RAILS
 10
231,93
 20
51,89
 11
238,90
 21
53,13
  0
LINE
  8
RAILS
 10
238,90
 20
53,13
 11
245,87
 21
54,41
  0
LINE
  8
RAILS
 10
245,87
 20
54,41
 11
252,83
 21
55,74
  0
LINE
  8
RAILS
 10
252,83
 20
55,74
 11
259,78
 21
57,12
  0
LINE
  8
RAILS
 10
259,78
 20
57,12
 11
266,73
 21
58,55
  0
LINE
  8
RAILS
 10
266,73
 20
58,55
 11
273,66
 21
60,01
  0
LINE
  8
RAILS
 10
273,66
 20
60,01
 11
280,60
 21
61,53
  0
LINE
  8
RAILS
 10
280,60
 20
61,53
 11
287,52
 21
63,09
  0
LINE
  8
RAILS
 10
287,52
 20
63,09
 11
294,44
 21
64,70
  0
LINE
  8
RAILS
 10
294,44
 20
64,70
 11
301,34
 21
66,35
  0
LINE
  8
RAILS
 10
301,34
 20
66,35
 11
308,24
 21
68,05
  0
LINE
  8
RAILS
 10
308,24
 20
68,05
 11
315,14
 21
69,80
  0
LINE
  8
RAILS
 10
315,14
 20
69,80
 11
317,18
 21
70,32
  0
LINE
  8
RAILS
 10
317,18
 20
70,32
 11
317,18
 21
70,32
  0
LINE
  8
RAILS
 10
317,18
 20
70,32
 11
323,05
 21
71,85
  0
LINE
  8
RAILS
 10
323,05
 20
71,85
 11
323,05
 21
71,85
  0
LINE
  8
RAILS
 10
323,05
 20
71,85
 11
330,03
 21
72,48
  0
LINE
  8
RAILS
 10
330,03
 20
72,48
 11
337,01
 21
73,13
  0
LINE
  8
RAILS
 10
337,01
 20
73,13
 11
338,35
 21
73,25
  0
LINE
  8
RAILS
 10
338,35
 20
73,25
 11
338,35
 21
73,25
  0
LINE
  8
RAILS
 10
338,35
 20
73,25
 11
345,36
 21
73,58
  0
LINE
  8
RAILS
 10
345,36
 20
73,58
 11
352,38
 21
73,91
  0
LINE
  8
RAILS
 10
352,38
 20
73,91
 11
354,80
 21
74,03
  0
LINE
  8
RAILS
 10
0,00
 20
58,40
 11
7,01
 21
58,41
  0
LINE
  8
RAILS
 10
7,01
 20
58,41
 11
14,02
 21
58,43
  0
LINE
  8
RAILS
 10
14,02
 20
58,43
 11
21,03
 21
58,46
  0
LINE
  8
RAILS
 10
21,03
 20
58,46
 11
28,04
 21
58,51
  0
LINE
  8
RAILS
 10
28,04
 20
58,51
 11
29,29
 21
58,52
  0
LINE
  8
RAILS
 10
29,29
 20
58,52
 11
29,29
 21
58,52
  0
LINE
  8
RAILS
 10
29,29
 20
58,52
 11
36,30
 21
58,80
  0
LINE
  8
RAILS
 10
36,30
 20
58,80
 11
43,31
 21
59,10
  0
LINE
  8
RAILS
 10
43,31
 20
59,10
 11
50,31
 21
59,41
  0
LINE
  8
RAILS
 10
50,31
 20
59,41
 11
57,32
 21
59,73
  0
LINE
  8
RAILS
 10
57,32
 20
59,73
 11
64,32
 21
60,07
  0
LINE
  8
RAILS
 10
64,32
 20
60,07
 11
69,04
 21
60,31
  0
LINE
  8
RAILS
 10
69,04
 20
60,31
 11
69,04
 21
60,31
  0
LINE
  8
RAILS
 10
69,04
 20
60,31
 11
76,04
 21
60,67
  0
LINE
  8
RAILS
 10
76,04
 20
60,67
 11
83,04
 21
61,07
  0
LINE
  8
RAILS
 10
83,04
 20
61,07
 11
90,04
 21
61,50
  0
LINE
  8
RAILS
 10
90,04
 20
61,50
 11
97,04
 21
61,95
  0
LINE
  8
RAILS
 10
97,04
 20
61,95
 11
104,04
 21
62,43
  0
LINE
  8
RAILS
 10
104,04
 20
62,43
 11
111,03
 21
62,94
  0
LINE
  8
RAILS
 10
111,03
 20
62,94
 11
118,02
 21
63,48
  0
LINE
  8
RAILS
 10
118,02
 20
63,48
 11
125,01
 21
64,04
  0
LINE
  8
RAILS
 10
125,01
 20
64,04
 11
132,00
 21
64,64
  0
LINE
  8
RAILS
 10
132,00
 20
64,64
 11
138,98
 21
65,26
  0
LINE
  8
RAILS
 10
138,98
 20
65,26
 11
145,47
 21
65,87
  0
LINE
  8
RAILS
 10
145,47
 20
65,87
 11
145,47
 21
65,87
  0
LINE
  8
RAILS
 10
145,47
 20
65,87
 11
152,45
 21
66,55
  0
LINE
  8
RAILS
 10
152,45
 20
66,55
 11
159,43
 21
67,29
  0
LINE
  8
RAILS
 10
159,43
 20
67,29
 11
166,40
 21
68,06
  0
LINE
  8
RAILS
 10
166,40
 20
68,06
 11
173,37
 21
68,89
  0
LINE
  8
RAILS
 10
173,37
 20
68,89
 11
180,33
 21
69,76
  0
LINE
  8
RAILS
 10
180,33
 20
69,76
 11
187,29
 21
70,68
  0
LINE
  8
RAILS
 10
187,29
 20
70,68
 11
194,25
 21
71,64
  0
LINE
  8
RAILS
 10
194,25
 20
71,64
 11
201,20
 21
72,65
  0
LINE
  8
RAILS
 10
201,20
 20
72,65
 11
208,14
 21
73,71
  0
LINE
  8
RAILS
 10
208,14
 20
73,71
 11
215,08
 21
74,81
  0
LINE
  8
RAILS
 10
215,08
 20
74,81
 11
222,02
 21
75,96
  0
LINE
  8
RAILS
 10
222,02
 20
75,96
 11
228,94
 21
77,15
  0
LINE
  8
RAILS
 10
228,94
 20
77,15
 11
235,87
 21
78,39
  0
LINE
  8
RAILS
 10
235,87
 20
78,39
 11
242,78
 21
79,68
  0
LINE
  8
RAILS
 10
242,78
 20
79,68
 11
249,69
 21
81,01
  0
LINE
  8
RAILS
 10
249,69
 20
81,01
 11
256,60
 21
82,39
  0
LINE
  8
RAILS
 10
256,60
 20
82,39
 11
263,49
 21
83,82
  0
LINE
  8
RAILS
 10
263,49
 20
83,82
 11
270,38
 21
85,29
  0
LINE
  8
RAILS
 10
270,38
 20
85,29
 11
277,26
 21
86,81
  0
LINE
  8
RAILS
 10
277,26
 20
86,81
 11
284,14
 21
88,37
  0
LINE
  8
RAILS
 10
284,14
 20
88,37
 11
291,00
 21
89,99
  0
LINE
  8
RAILS
 10
291,00
 20
89,99
 11
297,86
 21
91,65
  0
LINE
  8
RAILS
 10
297,86
 20
91,65
 11
304,71
 21
93,35
  0
LINE
  8
RAILS
 10
304,71
 20
93,35
 11
310,86
 21
94,92
  0
LINE
  8
RAILS
 10
310,86
 20
94,92
 11
310,86
 21
94,92
  0
LINE
  8
RAILS
 10
310,86
 20
94,92
 11
317,70
 21
96,70
  0
LINE
  8
RAILS
 10
317,70
 20
96,70
 11
324,53
 21
98,49
  0
LINE
  8
RAILS
 10
324,53
 20
98,49
 11
331,35
 21
100,29
  0
LINE
  8
RAILS
 10
331,35
 20
100,29
 11
338,17
 21
102,11
  0
LINE
  8
RAILS
 10
338,17
 20
102,11
 11
344,98
 21
103,94
  0
LINE
  8
RAILS
 10
344,98
 20
103,94
 11
351,79
 21
105,78
  0
LINE
  8
RAILS
 10
351,79
 20
105,78
 11
358,59
 21
107,64
  0
LINE
  8
RAILS
 10
358,59
 20
107,64
 11
365,39
 21
109,50
  0
LINE
  8
RAILS
 10
365,39
 20
109,50
 11
372,18
 21
111,39
  0
LINE
  8
RAILS
 10
372,18
 20
111,39
 11
378,96
 21
113,28
  0
LINE
  8
RAILS
 10
378,96
 20
113,28
 11
385,74
 21
115,19
  0
LINE
  8
RAILS
 10
385,74
 20
115,19
 11
386,85
 21
115,50
  0
LINE
  8
RAILS
 10
330,98
 20
73,57
 11
337,96
 21
74,22
  0
LINE
  8
RAILS
 10
337,96
 20
74,22
 11
344,94
 21
74,88
  0
LINE
  8
RAILS
 10
344,94
 20
74,88
 11
351,92
 21
75,56
  0
LINE
  8
RAILS
 10
351,92
 20
75,56
 11
358,89
 21
76,25
  0
LINE
  8
RAILS
 10
358,89
 20
76,25
 11
365,87
 21
76,95
  0
LINE
  8
RAILS
 10
365,87
 20
76,95
 11
372,84
 21
77,67
  0
LINE
  8
RAILS
 10
372,84
 20
77,67
 11
379,82
 21
78,40
  0
LINE
  8
RAILS
 10
379,82
 20
78,40
 11
386,79
 21
79,14
  0
LINE
  8
RAILS
 10
386,79
 20
79,14
 11
393,76
 21
79,90
  0
LINE
  8
RAILS
 10
393,76
 20
79,90
 11
400,73
 21
80,67
  0
LINE
  8
RAILS
 10
400,73
 20
80,67
 11
407,70
 21
81,45
  0
LINE
  8
RAILS
 10
407,70
 20
81,45
 11
410,48
 21
81,77
  0
LINE
  8
RAILS
 10
330,92
 20
73,92
 11
337,79
 21
75,73
  0
LINE
  8
RAILS
 10
337,79
 20
75,73
 11
344,65
 21
77,56
  0
LINE
  8
RAILS
 10
344,65
 20
77,56
 11
351,51
 21
79,40
  0
LINE
  8
RAILS
 10
351,51
 20
79,40
 11
358,37
 21
81,26
  0
LINE
  8
RAILS
 10
358,37
 20
81,26
 11
365,21
 21
83,13
  0
LINE
  8
RAILS
 10
365,21
 20
83,13
 11
372,06
 21
85,01
  0
LINE
  8
RAILS
 10
372,06
 20
85,01
 11
378,89
 21
86,90
  0
LINE
  8
RAILS
 10
378,89
 20
86,90
 11
385,72
 21
88,81
  0
LINE
  8
RAILS
 10
385,72
 20
88,81
 11
392,54
 21
90,73
  0
LINE
  8
RAILS
 10
392,54
 20
90,73
 11
393,68
 21
91,05
  0
LINE
  8
RAILS
 10
285,50
 20
46,01
 11
292,56
 21
46,23
  0
LINE
  8
RAILS
 10
292,56
 20
46,23
 11
299,63
 21
46,47
  0
LINE
  8
RAILS
 10
299,63
 20
46,47
 11
302,06
 21
46,55
  0
LINE
  8
RAILS
 10
302,06
 20
46,55
 11
302,06
 21
46,55
  0
LINE
  8
RAILS
 10
302,06
 20
46,55
 11
309,10
 21
47,14
  0
LINE
  8
RAILS
 10
309,10
 20
47,14
 11
316,13
 21
47,75
  0
LINE
  8
RAILS
 10
316,13
 20
47,75
 11
323,16
 21
48,37
  0
LINE
  8
RAILS
 10
323,16
 20
48,37
 11
330,19
 21
49,00
  0
LINE
  8
RAILS
 10
330,19
 20
49,00
 11
337,22
 21
49,65
  0
LINE
  8
RAILS
 10
337,22
 20
49,65
 11
340,54
 21
49,96
  0
LINE
  8
RAILS
 10
340,54
 20
49,96
 11
340,54
 21
49,96
  0
LINE
  8
RAILS
 10
340,54
 20
49,96
 11
347,53
 21
50,96
  0
LINE
  8
RAILS
 10
347,53
 20
50,96
 11
354,52
 21
51,98
  0
LINE
  8
RAILS
 10
354,52
 20
51,98
 11
356,93
 21
52,34
  0
LINE
  8
RAILS
 10
283,08
 20
86,28
 11
289,92
 21
88,23
  0
LINE
  8
RAILS
 10
289,92
 20
88,23
 11
296,75
 21
90,23
  0
LINE
  8
RAILS
 10
296,75
 20
90,23
 11
298,81
 21
90,85
  0
LINE
  8
RAILS
 10
298,81
 20
90,85
 11
298,81
 21
90,85
  0
LINE
  8
RAILS
 10
298,81
 20
90,85
 11
305,67
 21
92,56
  0
LINE
  8
RAILS
 10
305,67
 20
92,56
 11
312,51
 21
94,32
  0
LINE
  8
RAILS
 10
312,51
 20
94,32
 11
319,35
 21
96,10
  0
LINE
  8
RAILS
 10
319,35
 20
96,10
 11
322,77
 21
96,99
  0
LINE
  8
RAILS
 10
322,77
 20
96,99
 11
322,77
 21
96,99
  0
LINE
  8
RAILS
 10
322,77
 20
96,99
 11
329,60
 21
98,79
  0
LINE
  8
RAILS
 10
329,60
 20
98,79
 11
335,72
 21
100,42
  0
LINE
  8
RAILS
 10
335,72
 20
100,42
 11
335,72
 21
100,42
  0
LINE
  8
RAILS
 10
335,72
 20
100,42
 11
342,57
 21
101,90
  0
LINE
  8
RAILS
 10
342,57
 20
101,90
 11
349,42
 21
103,39
  0
LINE
  8
RAILS
 10
349,42
 20
103,39
 11
351,69
 21
103,89
  0
LINE
  8
RAILS
 10
0,00
 20
31,74
 11
7,06
 21
31,75
  0
LINE
  8
RAILS
 10
7,06
 20
31,75
 11
14,13
 21
31,77
  0
LINE
  8
RAILS
 10
14,13
 20
31,77
 11
21,19
 21
31,80
  0
LINE
  8
RAILS
 10
21,19
 20
31,80
 11
28,25
 21
31,85
  0
LINE
  8
RAILS
 10
28,25
 20
31,85
 11
35,31
 21
31,91
  0
LINE
  8
RAILS
 10
35,31
 20
31,91
 11
42,38
 21
31,99
  0
LINE
  8
RAILS
 10
42,38
 20
31,99
 11
49,44
 21
32,07
  0
LINE
  8
RAILS
 10
49,44
 20
32,07
 11
56,50
 21
32,18
  0
LINE
  8
RAILS
 10
56,50
 20
32,18
 11
63,56
 21
32,29
  0
LINE
  8
RAILS
 10
63,56
 20
32,29
 11
70,62
 21
32,42
  0
LINE
  8
RAILS
 10
70,62
 20
32,42
 11
77,68
 21
32,57
  0
LINE
  8
RAILS
 10
77,68
 20
32,57
 11
84,74
 21
32,73
  0
LINE
  8
RAILS
 10
84,74
 20
32,73
 11
91,81
 21
32,90
  0
LINE
  8
RAILS
 10
91,81
 20
32,90
 11
98,87
 21
33,08
  0
LINE
  8
RAILS
 10
98,87
 20
33,08
 11
105,93
 21
33,28
  0
LINE
  8
RAILS
 10
105,93
 20
33,28
 11
112,98
 21
33,49
  0
LINE
  8
RAILS
 10
112,98
 20
33,49
 11
120,04
 21
33,72
  0
LINE
  8
RAILS
 10
120,04
 20
33,72
 11
127,10
 21
33,96
  0
LINE
  8
RAILS
 10
127,10
 20
33,96
 11
134,16
 21
34,21
  0
LINE
  8
RAILS
 10
134,16
 20
34,21
 11
141,22
 21
34,48
  0
LINE
  8
RAILS
 10
141,22
 20
34,48
 11
148,28
 21
34,76
  0
LINE
  8
RAILS
 10
148,28
 20
34,76
 11
155,33
 21
35,05
  0
LINE
  8
RAILS
 10
155,33
 20
35,05
 11
162,39
 21
35,36
  0
LINE
  8
RAILS
 10
162,39
 20
35,36
 11
169,44
 21
35,68
  0
LINE
  8
RAILS
 10
169,44
 20
35,68
 11
176,50
 21
36,02
  0
LINE
  8
RAILS
 10
176,50
 20
36,02
 11
183,55
 21
36,37
  0
LINE
  8
RAILS
 10
183,55
 20
36,37
 11
190,61
 21
36,73
  0
LINE
  8
RAILS
 10
190,61
 20
36,73
 11
197,66
 21
37,10
  0
LINE
  8
RAILS
 10
197,66
 20
37,10
 11
204,71
 21
37,49
  0
LINE
  8
RAILS
 10
204,71
 20
37,49
 11
211,76
 21
37,90
  0
LINE
  8
RAILS
 10
211,76
 20
37,90
 11
218,81
 21
38,32
  0
LINE
  8
RAILS
 10
218,81
 20
38,32
 11
225,86
 21
38,75
  0
LINE
  8
RAILS
 10
225,86
 20
38,75
 11
232,91
 21
39,19
  0
LINE
  8
RAILS
 10
232,91
 20
39,19
 11
239,96
 21
39,65
  0
LINE
  8
RAILS
 10
239,96
 20
39,65
 11
247,00
 21
40,12
  0
LINE
  8
RAILS
 10
247,00
 20
40,12
 11
254,05
 21
40,61
  0
LINE
  8
RAILS
 10
254,05
 20
40,61
 11
261,10
 21
41,11
  0
LINE
  8
RAILS
 10
261,10
 20
41,11
 11
268,14
 21
41,62
  0
LINE
  8
RAILS
 10
268,14
 20
41,62
 11
275,18
 21
42,14
  0
LINE
  8
RAILS
 10
275,18
 20
42,14
 11
282,22
 21
42,69
  0
LINE
  8
RAILS
 10
282,22
 20
42,69
 11
289,27
 21
43,24
  0
LINE
  8
RAILS
 10
289,27
 20
43,24
 11
296,31
 21
43,81
  0
LINE
  8
RAILS
 10
296,31
 20
43,81
 11
303,34
 21
44,39
  0
LINE
  8
RAILS
 10
303,34
 20
44,39
 11
310,38
 21
44,98
  0
LINE
  8
RAILS
 10
310,38
 20
44,98
 11
317,42
 21
45,59
  0
LINE
  8
RAILS
 10
317,42
 20
45,59
 11
324,45
 21
46,21
  0
LINE
  8
RAILS
 10
324,45
 20
46,21
 11
331,49
 21
46,85
  0
LINE
  8
RAILS
 10
331,49
 20
46,85
 11
338,52
 21
47,50
  0
LINE
  8
RAILS
 10
338,52
 20
47,50
 11
345,55
 21
48,16
  0
LINE
  8
RAILS
 10
345,55
 20
48,16
 11
352,58
 21
48,84
  0
LINE
  8
RAILS
 10
352,58
 20
48,84
 11
359,61
 21
49,53
  0
LINE
  8
RAILS
 10
359,61
 20
49,53
 11
366,64
 21
50,23
  0
LINE
  8
RAILS
 10
366,64
 20
50,23
 11
373,66
 21
50,95
  0
LINE
  8
RAILS
 10
373,66
 20
50,95
 11
380,69
 21
51,68
  0
LINE
  8
RAILS
 10
380,69
 20
51,68
 11
387,71
 21
52,42
  0
LINE
  8
RAILS
 10
387,71
 20
52,42
 11
394,73
 21
53,18
  0
LINE
  8
RAILS
 10
394,73
 20
53,18
 11
401,75
 21
53,95
  0
LINE
  8
RAILS
 10
401,75
 20
53,95
 11
408,77
 21
54,74
  0
LINE
  8
RAILS
 10
408,77
 20
54,74
 11
413,51
 21
55,28
  0
LINE
  8
RAILS
 10
69,45
 20
60,33
 11
76,46
 21
60,47
  0
LINE
  8
RAILS
 10
76,46
 20
60,47
 11
83,47
 21
60,62
  0
LINE
  8
RAILS
 10
83,47
 20
60,62
 11
90,48
 21
60,79
  0
LINE
  8
RAILS
 10
90,48
 20
60,79
 11
97,48
 21
60,97
  0
LINE
  8
RAILS
 10
97,48
 20
60,97
 11
104,49
 21
61,17
  0
LINE
  8
RAILS
 10
104,49
 20
61,17
 11
111,49
 21
61,38
  0
LINE
  8
RAILS
 10
111,49
 20
61,38
 11
118,50
 21
61,60
  0
LINE
  8
RAILS
 10
118,50
 20
61,60
 11
125,50
 21
61,84
  0
LINE
  8
RAILS
 10
125,50
 20
61,84
 11
132,51
 21
62,09
  0
LINE
  8
RAILS
 10
132,51
 20
62,09
 11
139,51
 21
62,35
  0
LINE
  8
RAILS
 10
139,51
 20
62,35
 11
146,51
 21
62,63
  0
LINE
  8
RAILS
 10
146,51
 20
62,63
 11
153,52
 21
62,92
  0
LINE
  8
RAILS
 10
153,52
 20
62,92
 11
160,52
 21
63,22
  0
LINE
  8
RAILS
 10
160,52
 20
63,22
 11
167,52
 21
63,54
  0
LINE
  8
RAILS
 10
167,52
 20
63,54
 11
174,52
 21
63,87
  0
LINE
  8
RAILS
 10
174,52
 20
63,87
 11
181,52
 21
64,22
  0
LINE
  8
RAILS
 10
181,52
 20
64,22
 11
188,52
 21
64,58
  0
LINE
  8
RAILS
 10
188,52
 20
64,58
 11
195,52
 21
64,95
  0
LINE
  8
RAILS
 10
195,52
 20
64,95
 11
202,52
 21
65,34
  0
LINE
  8
RAILS
 10
202,52
 20
65,34
 11
209,51
 21
65,74
  0
LINE
  8
RAILS
 10
209,51
 20
65,74
 11
216,51
 21
66,15
  0
LINE
  8
RAILS
 10
216,51
 20
66,15
 11
223,51
 21
66,57
  0
LINE
  8
RAILS
 10
223,51
 20
66,57
 11
230,50
 21
67,01
  0
LINE
  8
RAILS
 10
230,50
 20
67,01
 11
237,49
 21
67,47
  0
LINE
  8
RAILS
 10
237,49
 20
67,47
 11
244,49
 21
67,93
  0
LINE
  8
RAILS
 10
244,49
 20
67,93
 11
251,48
 21
68,42
  0
LINE
  8
RAILS
 10
251,48
 20
68,42
 11
258,47
 21
68,91
  0
LINE
  8
RAILS
 10
258,47
 20
68,91
 11
265,46
 21
69,42
  0
LINE
  8
RAILS
 10
265,46
 20
69,42
 11
272,45
 21
69,94
  0
LINE
  8
RAILS
 10
272,45
 20
69,94
 11
279,44
 21
70,47
  0
LINE
  8
RAILS
 10
279,44
 20
70,47
 11
286,42
 21
71,02
  0
LINE
  8
RAILS
 10
286,42
 20
71,02
 11
293,41
 21
71,58
  0
LINE
  8
RAILS
 10
293,41
 20
71,58
 11
300,40
 21
72,16
  0
LINE
  8
RAILS
 10
300,40
 20
72,16
 11
307,38
 21
72,75
  0
LINE
  8
RAILS
 10
307,38
 20
72,75
 11
314,36
 21
73,35
  0
LINE
  8
RAILS
 10
314,36
 20
73,35
 11
321,34
 21
73,97
  0
LINE
  8
RAILS
 10
321,34
 20
73,97
 11
322,66
 21
74,08
  0
LINE
  8
RAILS
 10
322,66
 20
74,08
 11
322,66
 21
74,08
  0
LINE
  8
RAILS
 10
322,66
 20
74,08
 11
329,53
 21
75,88
  0
LINE
  8
RAILS
 10
329,53
 20
75,88
 11
336,40
 21
77,70
  0
LINE
  8
RAILS
 10
336,40
 20
77,70
 11
337,38
 21
77,96
  0
LINE
  8
RAILS
 10
337,38
 20
77,96
 11
337,38
 21
77,96
  0
LINE
  8
RAILS
 10
337,38
 20
77,96
 11
344,20
 21
80,14
  0
LINE
  8
RAILS
 10
344,20
 20
80,14
 11
351,02
 21
82,33
  0
LINE
  8
RAILS
 10
351,02
 20
82,33
 11
353,00
 21
82,97
  0
LINE
  8
RAILS
 10
70,39
 20
33,68
 11
77,44
 21
34,05
  0
LINE
  8
RAILS
 10
77,44
 20
34,05
 11
84,49
 21
34,45
  0
LINE
  8
RAILS
 10
84,49
 20
34,45
 11
91,54
 21
34,88
  0
LINE
  8
RAILS
 10
91,54
 20
34,88
 11
98,59
 21
35,33
  0
LINE
  8
RAILS
 10
98,59
 20
35,33
 11
105,64
 21
35,82
  0
LINE
  8
RAILS
 10
105,64
 20
35,82
 11
112,68
 21
36,33
  0
LINE
  8
RAILS
 10
112,68
 20
36,33
 11
119,73
 21
36,87
  0
LINE
  8
RAILS
 10
119,73
 20
36,87
 11
126,77
 21
37,44
  0
LINE
  8
RAILS
 10
126,77
 20
37,44
 11
133,81
 21
38,03
  0
LINE
  8
RAILS
 10
133,81
 20
38,03
 11
140,84
 21
38,66
  0
LINE
  8
RAILS
 10
140,84
 20
38,66
 11
147,88
 21
39,31
  0
LINE
  8
RAILS
 10
147,88
 20
39,31
 11
147,99
 21
39,32
  0
LINE
  8
RAILS
 10
147,99
 20
39,32
 11
147,99
 21
39,32
  0
LINE
  8
RAILS
 10
147,99
 20
39,32
 11
155,02
 21
40,02
  0
LINE
  8
RAILS
 10
155,02
 20
40,02
 11
162,05
 21
40,75
  0
LINE
  8
RAILS
 10
162,05
 20
40,75
 11
169,07
 21
41,54
  0
LINE
  8
RAILS
 10
169,07
 20
41,54
 11
176,09
 21
42,36
  0
LINE
  8
RAILS
 10
176,09
 20
42,36
 11
183,11
 21
43,24
  0
LINE
  8
RAILS
 10
183,11
 20
43,24
 11
190,12
 21
44,16
  0
LINE
  8
RAILS
 10
190,12
 20
44,16
 11
197,13
 21
45,12
  0
LINE
  8
RAILS
 10
197,13
 20
45,12
 11
204,13
 21
46,13
  0
LINE
  8
RAILS
 10
204,13
 20
46,13
 11
211,12
 21
47,19
  0
LINE
  8
RAILS
 10
211,12
 20
47,19
 11
218,11
 21
48,29
  0
LINE
  8
RAILS
 10
218,11
 20
48,29
 11
225,10
 21
49,44
  0
LINE
  8
RAILS
 10
225,10
 20
49,44
 11
232,08
 21
50,63
  0
LINE
  8
RAILS
 10
232,08
 20
50,63
 11
239,05
 21
51,87
  0
LINE
  8
RAILS
 10
239,05
 20
51,87
 11
246,02
 21
53,16
  0
LINE
  8
RAILS
 10
246,02
 20
53,16
 11
252,98
 21
54,49
  0
LINE
  8
RAILS
 10
252,98
 20
54,49
 11
259,94
 21
55,87
  0
LINE
  8
RAILS
 10
259,94
 20
55,87
 11
266,89
 21
57,29
  0
LINE
  8
RAILS
 10
266,89
 20
57,29
 11
273,83
 21
58,76
  0
LINE
  8
RAILS
 10
273,83
 20
58,76
 11
280,76
 21
60,28
  0
LINE
  8
RAILS
 10
280,76
 20
60,28
 11
287,69
 21
61,84
  0
LINE
  8
RAILS
 10
287,69
 20
61,84
 11
294,61
 21
63,44
  0
LINE
  8
RAILS
 10
294,61
 20
63,44
 11
301,52
 21
65,10
  0
LINE
  8
RAILS
 10
301,52
 20
65,10
 11
308,42
 21
66,80
  0
LINE
  8
RAILS
 10
308,42
 20
66,80
 11
315,31
 21
68,54
  0
LINE
  8
RAILS
 10
315,31
 20
68,54
 11
317,49
 21
69,10
  0
LINE
  8
RAILS
 10
317,49
 20
69,10
 11
317,49
 21
69,10
  0
LINE
  8
RAILS
 10
317,49
 20
69,10
 11
323,26
 21
70,60
  0
LINE
  8
RAILS
 10
323,26
 20
70,60
 11
323,26
 21
70,60
  0
LINE
  8
RAILS
 10
323,26
 20
70,60
 11
330,25
 21
71,24
  0
LINE
  8
RAILS
 10
330,25
 20
71,24
 11
337,23
 21
71,88
  0
LINE
  8
RAILS
 10
337,23
 20
71,88
 11
338,44
 21
72,00
  0
LINE
  8
RAILS
 10
338,44
 20
72,00
 11
338,44
 21
72,00
  0
LINE
  8
RAILS
 10
338,44
 20
72,00
 11
345,45
 21
72,32
  0
LINE
  8
RAILS
 10
345,45
 20
72,32
 11
352,47
 21
72,65
  0
LINE
  8
RAILS
 10
352,47
 20
72,65
 11
354,86
 21
72,77
  0
LINE
  8
RAILS
 10
0,00
 20
59,66
 11
7,01
 21
59,67
  0
LINE
  8
RAILS
 10
7,01
 20
59,67
 11
14,02
 21
59,69
  0
LINE
  8
RAILS
 10
14,02
 20
59,69
 11
21,03
 21
59,72
  0
LINE
  8
RAILS
 10
21,03
 20
59,72
 11
28,03
 21
59,77
  0
LINE
  8
RAILS
 10
28,03
 20
59,77
 11
29,26
 21
59,78
  0
LINE
  8
RAILS
 10
29,26
 20
59,78
 11
29,26
 21
59,78
  0
LINE
  8
RAILS
 10
29,26
 20
59,78
 11
36,27
 21
60,06
  0
LINE
  8
RAILS
 10
36,27
 20
60,06
 11
43,27
 21
60,36
  0
LINE
  8
RAILS
 10
43,27
 20
60,36
 11
50,28
 21
60,67
  0
LINE
  8
RAILS
 10
50,28
 20
60,67
 11
57,28
 21
60,99
  0
LINE
  8
RAILS
 10
57,28
 20
60,99
 11
64,28
 21
61,33
  0
LINE
  8
RAILS
 10
64,28
 20
61,33
 11
68,98
 21
61,57
  0
LINE
  8
RAILS
 10
68,98
 20
61,57
 11
68,98
 21
61,57
  0
LINE
  8
RAILS
 10
68,98
 20
61,57
 11
75,98
 21
61,93
  0
LINE
  8
RAILS
 10
75,98
 20
61,93
 11
82,98
 21
62,33
  0
LINE
  8
RAILS
 10
82,98
 20
62,33
 11
89,97
 21
62,75
  0
LINE
  8
RAILS
 10
89,97
 20
62,75
 11
96,97
 21
63,21
  0
LINE
  8
RAILS
 10
96,97
 20
63,21
 11
103,96
 21
63,69
  0
LINE
  8
RAILS
 10
103,96
 20
63,69
 11
110,95
 21
64,20
  0
LINE
  8
RAILS
 10
110,95
 20
64,20
 11
117,94
 21
64,74
  0
LINE
  8
RAILS
 10
117,94
 20
64,74
 11
124,93
 21
65,30
  0
LINE
  8
RAILS
 10
124,93
 20
65,30
 11
131,91
 21
65,90
  0
LINE
  8
RAILS
 10
131,91
 20
65,90
 11
138,90
 21
66,52
  0
LINE
  8
RAILS
 10
138,90
 20
66,52
 11
145,35
 21
67,12
  0
LINE
  8
RAILS
 10
145,35
 20
67,12
 11
145,35
 21
67,12
  0
LINE
  8
RAILS
 10
145,35
 20
67,12
 11
152,33
 21
67,81
  0
LINE
  8
RAILS
 10
152,33
 20
67,81
 11
159,30
 21
68,54
  0
LINE
  8
RAILS
 10
159,30
 20
68,54
 11
166,27
 21
69,32
  0
LINE
  8
RAILS
 10
166,27
 20
69,32
 11
173,24
 21
70,14
  0
LINE
  8
RAILS
 10
173,24
 20
70,14
 11
180,20
 21
71,01
  0
LINE
  8
RAILS
 10
180,20
 20
71,01
 11
187,16
 21
71,93
  0
LINE
  8
RAILS
 10
187,16
 20
71,93
 11
194,11
 21
72,89
  0
LINE
  8
RAILS
 10
194,11
 20
72,89
 11
201,06
 21
73,90
  0
LINE
  8
RAILS
 10
201,06
 20
73,90
 11
208,00
 21
74,96
  0
LINE
  8
RAILS
 10
208,00
 20
74,96
 11
214,94
 21
76,06
  0
LINE
  8
RAILS
 10
214,94
 20
76,06
 11
221,87
 21
77,21
  0
LINE
  8
RAILS
 10
221,87
 20
77,21
 11
228,80
 21
78,40
  0
LINE
  8
RAILS
 10
228,80
 20
78,40
 11
235,72
 21
79,64
  0
LINE
  8
RAILS
 10
235,72
 20
79,64
 11
242,63
 21
80,93
  0
LINE
  8
RAILS
 10
242,63
 20
80,93
 11
249,54
 21
82,27
  0
LINE
  8
RAILS
 10
249,54
 20
82,27
 11
256,44
 21
83,64
  0
LINE
  8
RAILS
 10
256,44
 20
83,64
 11
263,33
 21
85,07
  0
LINE
  8
RAILS
 10
263,33
 20
85,07
 11
270,22
 21
86,54
  0
LINE
  8
RAILS
 10
270,22
 20
86,54
 11
277,10
 21
88,06
  0
LINE
  8
RAILS
 10
277,10
 20
88,06
 11
283,97
 21
89,63
  0
LINE
  8
RAILS
 10
283,97
 20
89,63
 11
290,83
 21
91,24
  0
LINE
  8
RAILS
 10
290,83
 20
91,24
 11
297,69
 21
92,90
  0
LINE
  8
RAILS
 10
297,69
 20
92,90
 11
304,54
 21
94,61
  0
LINE
  8
RAILS
 10
304,54
 20
94,61
 11
310,55
 21
96,14
  0
LINE
  8
RAILS
 10
310,55
 20
96,14
 11
310,55
 21
96,14
  0
LINE
  8
RAILS
 10
310,55
 20
96,14
 11
317,38
 21
97,92
  0
LINE
  8
RAILS
 10
317,38
 20
97,92
 11
324,21
 21
99,71
  0
LINE
  8
RAILS
 10
324,21
 20
99,71
 11
331,03
 21
101,51
  0
LINE
  8
RAILS
 10
331,03
 20
101,51
 11
337,85
 21
103,33
  0
LINE
  8
RAILS
 10
337,85
 20
103,33
 11
344,66
 21
105,16
  0
LINE
  8
RAILS
 10
344,66
 20
105,16
 11
351,46
 21
107,00
  0
LINE
  8
RAILS
 10
351,46
 20
107,00
 11
358,26
 21
108,85
  0
LINE
  8
RAILS
 10
358,26
 20
108,85
 11
365,06
 21
110,72
  0
LINE
  8
RAILS
 10
365,06
 20
110,72
 11
371,84
 21
112,60
  0
LINE
  8
RAILS
 10
371,84
 20
112,60
 11
378,63
 21
114,49
  0
LINE
  8
RAILS
 10
378,63
 20
114,49
 11
385,40
 21
116,40
  0
LINE
  8
RAILS
 10
385,40
 20
116,40
 11
386,51
 21
116,71
  0
LINE
  8
RAILS
 10
343,90
 20
76,05
 11
350,88
 21
76,72
  0
LINE
  8
RAILS
 10
350,88
 20
76,72
 11
357,85
 21
77,41
  0
LINE
  8
RAILS
 10
357,85
 20
77,41
 11
364,83
 21
78,11
  0
LINE
  8
RAILS
 10
364,83
 20
78,11
 11
371,80
 21
78,83
  0
LINE
  8
RAILS
 10
371,80
 20
78,83
 11
378,77
 21
79,55
  0
LINE
  8
RAILS
 10
378,77
 20
79,55
 11
385,74
 21
80,29
  0
LINE
  8
RAILS
 10
385,74
 20
80,29
 11
392,71
 21
81,05
  0
LINE
  8
RAILS
 10
392,71
 20
81,05
 11
399,67
 21
81,82
  0
LINE
  8
RAILS
 10
399,67
 20
81,82
 11
406,64
 21
82,60
  0
LINE
  8
RAILS
 10
406,64
 20
82,60
 11
410,34
 21
83,02
  0
LINE
  8
RAILS
 10
343,90
 20
76,05
 11
350,76
 21
77,89
  0
LINE
  8
RAILS
 10
350,76
 20
77,89
 11
357,62
 21
79,74
  0
LINE
  8
RAILS
 10
357,62
 20
79,74
 11
364,47
 21
81,61
  0
LINE
  8
RAILS
 10
364,47
 20
81,61
 11
371,32
 21
83,49
  0
LINE
  8
RAILS
 10
371,32
 20
83,49
 11
378,15
 21
85,38
  0
LINE
  8
RAILS
 10
378,15
 20
85,38
 11
384,99
 21
87,29
  0
LINE
  8
RAILS
 10
384,99
 20
87,29
 11
391,81
 21
89,21
  0
LINE
  8
RAILS
 10
391,81
 20
89,21
 11
394,02
 21
89,83
  0
LINE
  8
RAILS
 10
285,46
 20
47,27
 11
292,52
 21
47,49
  0
LINE
  8
RAILS
 10
292,52
 20
47,49
 11
299,58
 21
47,73
  0
LINE
  8
RAILS
 10
299,58
 20
47,73
 11
301,99
 21
47,81
  0
LINE
  8
RAILS
 10
301,99
 20
47,81
 11
301,99
 21
47,81
  0
LINE
  8
RAILS
 10
301,99
 20
47,81
 11
309,02
 21
48,40
  0
LINE
  8
RAILS
 10
309,02
 20
48,40
 11
316,05
 21
49,01
  0
LINE
  8
RAILS
 10
316,05
 20
49,01
 11
323,08
 21
49,62
  0
LINE
  8
RAILS
 10
323,08
 20
49,62
 11
330,11
 21
50,26
  0
LINE
  8
RAILS
 10
330,11
 20
50,26
 11
337,13
 21
50,90
  0
LINE
  8
RAILS
 10
337,13
 20
50,90
 11
340,39
 21
51,21
  0
LINE
  8
RAILS
 10
340,39
 20
51,21
 11
340,39
 21
51,21
  0
LINE
  8
RAILS
 10
340,39
 20
51,21
 11
347,38
 21
52,22
  0
LINE
  8
RAILS
 10
347,38
 20
52,22
 11
354,37
 21
53,24
  0
LINE
  8
RAILS
 10
354,37
 20
53,24
 11
356,75
 21
53,59
  0
LINE
  8
RAILS
 10
283,41
 20
85,06
 11
290,26
 21
87,01
  0
LINE
  8
RAILS
 10
290,26
 20
87,01
 11
297,10
 21
89,02
  0
LINE
  8
RAILS
 10
297,10
 20
89,02
 11
299,14
 21
89,63
  0
LINE
  8
RAILS
 10
299,14
 20
89,63
 11
299,14
 21
89,63
  0
LINE
  8
RAILS
 10
299,14
 20
89,63
 11
306,00
 21
91,34
  0
LINE
  8
RAILS
 10
306,00
 20
91,34
 11
312,84
 21
93,10
  0
LINE
  8
RAILS
 10
312,84
 20
93,10
 11
319,68
 21
94,88
  0
LINE
  8
RAILS
 10
319,68
 20
94,88
 11
323,08
 21
95,77
  0
LINE
  8
RAILS
 10
323,08
 20
95,77
 11
323,08
 21
95,77
  0
LINE
  8
RAILS
 10
323,08
 20
95,77
 11
329,91
 21
97,57
  0
LINE
  8
RAILS
 10
329,91
 20
97,57
 11
336,01
 21
99,19
  0
LINE
  8
RAILS
 10
336,01
 20
99,19
 11
336,01
 21
99,19
  0
LINE
  8
RAILS
 10
336,01
 20
99,19
 11
342,87
 21
100,67
  0
LINE
  8
RAILS
 10
342,87
 20
100,67
 11
349,71
 21
102,16
  0
LINE
  8
RAILS
 10
349,71
 20
102,16
 11
351,96
 21
102,65
  0
LINE
  8
RAILS
 10
353,39
 20
81,77
 11
353,00
 21
82,97
  0
LINE
  8
RAILS
 10
354,80
 20
74,03
 11
354,86
 21
72,77
  0
LINE
  8
RAILS
 10
285,50
 20
46,01
 11
285,46
 21
47,27
  0
LINE
  8
RAILS
 10
356,93
 20
52,34
 11
356,75
 21
53,59
  0
LINE
  8
RAILS
 10
283,08
 20
86,28
 11
283,41
 21
85,06
  0
LINE
  8
RAILS
 10
351,69
 20
103,89
 11
351,96
 21
102,65
  0
LINE
  8
RAILS
 10
330,98
 20
73,57
 11
330,92
 21
73,92
  0
ENDSEC
  0
EOF
