  0
SECTION
  2
HEADER
  0
ENDSEC
  0
SECTION
  2
TABLES
  0
TABLE
  2
LTYPE
 70
10
  0
LTYPE
  2
CONTINUOUS
 70
64
  3
solid line
 72
65
 73
0
 40
0.0
  0
LTYPE
  2
DASHED
 70
0
  3
__ __ __ __ __ __ __ __ __ __ __ __ __ __ __
 72
65
 73
2
 40
0.75
 49
0.5
 49
-0.25
  0
LTYPE
  2
HIDDEN
 70
0
  3
_ _ _ _ _ _ _ _ _ _ _ _ _ _ _ _ _ _ _ _ _ _
 72
65
 73
2
 40
0.375
 49
0.25
 49
-0.125
  0
LTYPE
  2
CENTER
 70
0
  3
____ _ ____ _ ____ _ ____ _ ____ _ ____ _ __
 72
65
 73
4
 40
2.0
 49
1.25
 49
-0.25
 49
0.25
 49
-0.25
  0
LTYPE
  2
PHANTOM
 70
0
  3
_____ _ _ _____ _ _ _____ _ _ _____ _ _ ____
 72
65
 73
6
 40
2.5
 49
1.25
 49
-0.25
 49
0.25
 49
-0.25
 49
0.25
 49
-0.25
  0
LTYPE
  2
DOT
 70
0
  3
............................................
 72
65
 73
2
 40
0.25
 49
0.0
 49
-0.25
  0
LTYPE
  2
DASHDOT
 70
0
  3
__ . __ . __ . __ . __ . __ . __ . __ . __ .
 72
65
 73
4
 40
1.0
 49
0.5
 49
-0.25
 49
0.0
 49
-0.25
  0
LTYPE
  2
BORDER
 70
0
  3
__ __ . __ __ . __ __ . __ __ . __ __ . __ _
 72
65
 73
6
 40
1.75
 49
0.5
 49
-0.25
 49
0.5
 49
-0.25
 49
0.0
 49
-0.25
  0
LTYPE
  2
DIVIDE
 70
0
  3
__ . . __ . . __ . . __ . . __ . . __ . . __
 72
65
 73
6
 40
1.25
 49
0.5
 49
-0.25
 49
0.0
 49
-0.25
 49
0.0
 49
-0.25
  0
LTYPE
  2
DIVIDE2
 70
0
  3
__..__..__..__..__..__..__..__..__..__..__..__.
 72
65
 73
8
 40
0.9
 49
0.25
 49
-0.1
 49
0.25
 49
-0.1
 49
0.0
 49
-0.1
 49
0.0
 49
-0.1
  0
ENDTAB
  0
TABLE
  2
LAYER
 70
18
  0
LAYER
  2
RAILS
 70
0
  6
CONTINUOUS
 62
2
  0
LAYER
  2
ADJTRACK
 70
0
  6
CONTINUOUS
 62
8
  0
LAYER
  2
CENTLINE
 70
0
  6
CENTER
 62
6
  0
LAYER
  2
TIMBOUTL
 70
0
  6
CONTINUOUS
 62
5
  0
LAYER
  2
SLEEPEND
 70
0
  6
CONTINUOUS
 62
1
  0
LAYER
  2
TIMBCENT
 70
0
  6
CENTER
 62
4
  0
LAYER
  2
GDMARKS
 70
0
  6
CONTINUOUS
 62
1
  0
LAYER
  2
RADMARKS
 70
0
  6
CONTINUOUS
 62
3
  0
LAYER
  2
JOINTS
 70
0
  6
CONTINUOUS
 62
7
  0
LAYER
  2
SBGSHAPE
 70
0
  6
CONTINUOUS
 62
1
  0
LAYER
  2
DBGSHAPE
 70
0
  6
HIDDEN
 62
1
  0
LAYER
  2
INFOTEXT
 70
0
  6
CONTINUOUS
 62
5
  0
LAYER
  2
TIMBNUMB
 70
0
  6
CONTINUOUS
 62
3
  0
LAYER
  2
RLSIDE3D
 70
0
  6
CONTINUOUS
 62
33
  0
LAYER
  2
RLTOP3D
 70
0
  6
CONTINUOUS
 62
252
  0
LAYER
  2
CHAIR3D
 70
0
  6
CONTINUOUS
 62
54
  0
LAYER
  2
TIMBER3D
 70
0
  6
CONTINUOUS
 62
8
  0
ENDTAB
  0
ENDSEC
  0
SECTION
  2
ENTITIES
  0
LINE
  8
TIMBOUTL
 10
17.50
 20
151.75
 11
29.75
 21
151.75
  0
LINE
  8
TIMBOUTL
 10
17.50
 20
92.25
 11
29.75
 21
92.25
  0
LINE
  8
TIMBOUTL
 10
20.12
 20
154.38
 11
20.12
 21
89.62
  0
LINE
  8
TIMBOUTL
 10
27.12
 20
154.38
 11
27.12
 21
89.62
  0
LINE
  8
TIMBCENT
 10
23.62
 20
85.25
 11
23.62
 21
158.75
  0
TEXT
  8
TIMBNUMB
 10
21.62
 20
156.72
 40
3.53
  1
1.J1
  0
LINE
  8
TIMBOUTL
 10
1.17
 20
151.75
 11
13.42
 21
151.75
  0
LINE
  8
TIMBOUTL
 10
1.17
 20
92.25
 11
13.42
 21
92.25
  0
LINE
  8
TIMBOUTL
 10
3.79
 20
154.38
 11
3.79
 21
89.62
  0
LINE
  8
TIMBOUTL
 10
10.79
 20
154.38
 11
10.79
 21
89.62
  0
LINE
  8
TIMBCENT
 10
7.29
 20
85.25
 11
7.29
 21
158.75
  0
TEXT
  8
TIMBNUMB
 10
5.29
 20
156.72
 40
3.53
  1
1.J2
  0
LINE
  8
TIMBOUTL
 10
33.83
 20
151.75
 11
46.08
 21
151.75
  0
LINE
  8
TIMBOUTL
 10
33.83
 20
92.25
 11
46.08
 21
92.25
  0
LINE
  8
TIMBOUTL
 10
36.46
 20
154.37
 11
36.46
 21
89.62
  0
LINE
  8
TIMBOUTL
 10
43.46
 20
154.37
 11
43.46
 21
89.62
  0
LINE
  8
TIMBCENT
 10
39.96
 20
85.25
 11
39.96
 21
158.75
  0
TEXT
  8
TIMBNUMB
 10
37.96
 20
156.72
 40
3.53
  1
1.S1
  0
LINE
  8
TIMBOUTL
 10
50.17
 20
151.75
 11
62.42
 21
151.75
  0
LINE
  8
TIMBOUTL
 10
50.17
 20
92.25
 11
62.42
 21
92.25
  0
LINE
  8
TIMBOUTL
 10
52.79
 20
154.38
 11
52.79
 21
89.62
  0
LINE
  8
TIMBOUTL
 10
59.79
 20
154.38
 11
59.79
 21
89.62
  0
LINE
  8
TIMBCENT
 10
56.29
 20
85.25
 11
56.29
 21
158.75
  0
TEXT
  8
TIMBNUMB
 10
54.29
 20
156.72
 40
3.53
  1
1.S2
  0
LINE
  8
TIMBOUTL
 10
66.50
 20
151.75
 11
78.75
 21
151.75
  0
LINE
  8
TIMBOUTL
 10
66.50
 20
92.25
 11
78.75
 21
92.25
  0
LINE
  8
TIMBOUTL
 10
69.12
 20
154.37
 11
69.12
 21
89.62
  0
LINE
  8
TIMBOUTL
 10
76.12
 20
154.37
 11
76.12
 21
89.62
  0
LINE
  8
TIMBCENT
 10
72.62
 20
85.25
 11
72.62
 21
158.75
  0
TEXT
  8
TIMBNUMB
 10
70.62
 20
156.72
 40
3.53
  1
1.S3
  0
LINE
  8
TIMBOUTL
 10
82.83
 20
151.75
 11
95.08
 21
151.75
  0
LINE
  8
TIMBOUTL
 10
82.83
 20
88.75
 11
95.08
 21
88.75
  0
LINE
  8
TIMBOUTL
 10
85.46
 20
154.38
 11
85.46
 21
86.12
  0
LINE
  8
TIMBOUTL
 10
92.46
 20
154.38
 11
92.46
 21
86.12
  0
LINE
  8
TIMBCENT
 10
88.96
 20
81.75
 11
88.96
 21
158.75
  0
TEXT
  8
TIMBNUMB
 10
86.96
 20
156.72
 40
3.53
  1
1.S4
  0
LINE
  8
TIMBOUTL
 10
99.17
 20
151.75
 11
111.42
 21
151.75
  0
LINE
  8
TIMBOUTL
 10
99.17
 20
88.75
 11
111.42
 21
88.75
  0
LINE
  8
TIMBOUTL
 10
101.79
 20
154.38
 11
101.79
 21
86.12
  0
LINE
  8
TIMBOUTL
 10
108.79
 20
154.38
 11
108.79
 21
86.12
  0
LINE
  8
TIMBCENT
 10
105.29
 20
81.75
 11
105.29
 21
158.75
  0
TEXT
  8
TIMBNUMB
 10
103.29
 20
156.72
 40
3.53
  1
1.S5
  0
LINE
  8
TIMBOUTL
 10
115.50
 20
151.75
 11
127.75
 21
151.75
  0
LINE
  8
TIMBOUTL
 10
115.50
 20
88.75
 11
127.75
 21
88.75
  0
LINE
  8
TIMBOUTL
 10
118.12
 20
154.38
 11
118.12
 21
86.12
  0
LINE
  8
TIMBOUTL
 10
125.12
 20
154.38
 11
125.12
 21
86.12
  0
LINE
  8
TIMBCENT
 10
121.62
 20
81.75
 11
121.62
 21
158.75
  0
TEXT
  8
TIMBNUMB
 10
119.62
 20
156.72
 40
3.53
  1
1.S6
  0
LINE
  8
TIMBOUTL
 10
131.83
 20
151.75
 11
144.08
 21
151.75
  0
LINE
  8
TIMBOUTL
 10
131.83
 20
88.75
 11
144.08
 21
88.75
  0
LINE
  8
TIMBOUTL
 10
134.46
 20
154.38
 11
134.46
 21
86.12
  0
LINE
  8
TIMBOUTL
 10
141.46
 20
154.38
 11
141.46
 21
86.12
  0
LINE
  8
TIMBCENT
 10
137.96
 20
81.75
 11
137.96
 21
158.75
  0
TEXT
  8
TIMBNUMB
 10
135.96
 20
156.72
 40
3.53
  1
1.S7
  0
LINE
  8
TIMBOUTL
 10
148.46
 20
151.75
 11
160.71
 21
151.75
  0
LINE
  8
TIMBOUTL
 10
148.46
 20
88.75
 11
160.71
 21
88.75
  0
LINE
  8
TIMBOUTL
 10
151.08
 20
154.38
 11
151.08
 21
86.12
  0
LINE
  8
TIMBOUTL
 10
158.08
 20
154.38
 11
158.08
 21
86.12
  0
LINE
  8
TIMBCENT
 10
154.58
 20
81.75
 11
154.58
 21
158.75
  0
TEXT
  8
TIMBNUMB
 10
152.58
 20
156.72
 40
3.53
  1
1.S8
  0
LINE
  8
TIMBOUTL
 10
165.08
 20
151.75
 11
177.33
 21
151.75
  0
LINE
  8
TIMBOUTL
 10
165.08
 20
85.25
 11
177.33
 21
85.25
  0
LINE
  8
TIMBOUTL
 10
167.71
 20
154.38
 11
167.71
 21
82.62
  0
LINE
  8
TIMBOUTL
 10
174.71
 20
154.38
 11
174.71
 21
82.62
  0
LINE
  8
TIMBCENT
 10
171.21
 20
78.25
 11
171.21
 21
158.75
  0
TEXT
  8
TIMBNUMB
 10
169.21
 20
156.72
 40
3.53
  1
1.S9
  0
LINE
  8
TIMBOUTL
 10
181.71
 20
151.75
 11
193.96
 21
151.75
  0
LINE
  8
TIMBOUTL
 10
181.71
 20
85.25
 11
193.96
 21
85.25
  0
LINE
  8
TIMBOUTL
 10
184.33
 20
154.38
 11
184.33
 21
82.62
  0
LINE
  8
TIMBOUTL
 10
191.33
 20
154.38
 11
191.33
 21
82.62
  0
LINE
  8
TIMBCENT
 10
187.83
 20
78.25
 11
187.83
 21
158.75
  0
TEXT
  8
TIMBNUMB
 10
185.83
 20
156.72
 40
3.53
  1
1.S10
  0
LINE
  8
TIMBOUTL
 10
196.87
 20
151.75
 11
209.12
 21
151.75
  0
LINE
  8
TIMBOUTL
 10
196.87
 20
85.25
 11
209.12
 21
85.25
  0
LINE
  8
TIMBOUTL
 10
199.50
 20
154.38
 11
199.50
 21
82.62
  0
LINE
  8
TIMBOUTL
 10
206.50
 20
154.38
 11
206.50
 21
82.62
  0
LINE
  8
TIMBCENT
 10
203.00
 20
78.25
 11
203.00
 21
158.75
  0
TEXT
  8
TIMBNUMB
 10
201.00
 20
156.72
 40
3.53
  1
1.S11
  0
LINE
  8
TIMBOUTL
 10
210.87
 20
151.75
 11
223.12
 21
151.75
  0
LINE
  8
TIMBOUTL
 10
210.87
 20
85.25
 11
223.12
 21
85.25
  0
LINE
  8
TIMBOUTL
 10
213.50
 20
154.38
 11
213.50
 21
82.62
  0
LINE
  8
TIMBOUTL
 10
220.50
 20
154.38
 11
220.50
 21
82.62
  0
LINE
  8
TIMBCENT
 10
217.00
 20
78.25
 11
217.00
 21
158.75
  0
TEXT
  8
TIMBNUMB
 10
215.00
 20
156.72
 40
3.53
  1
1.T1
  0
LINE
  8
TIMBOUTL
 10
361.11
 20
151.75
 11
373.36
 21
151.75
  0
LINE
  8
TIMBOUTL
 10
361.11
 20
67.75
 11
373.36
 21
67.75
  0
LINE
  8
TIMBOUTL
 10
363.74
 20
154.38
 11
363.74
 21
65.12
  0
LINE
  8
TIMBOUTL
 10
370.74
 20
154.38
 11
370.74
 21
65.12
  0
LINE
  8
TIMBCENT
 10
367.24
 20
60.75
 11
367.24
 21
158.75
  0
TEXT
  8
TIMBNUMB
 10
365.24
 20
156.72
 40
3.53
  1
1.X1 - Z
  0
LINE
  8
TIMBOUTL
 10
378.61
 20
151.75
 11
390.86
 21
151.75
  0
LINE
  8
TIMBOUTL
 10
378.61
 20
64.25
 11
390.86
 21
64.25
  0
LINE
  8
TIMBOUTL
 10
381.24
 20
154.38
 11
381.24
 21
61.62
  0
LINE
  8
TIMBOUTL
 10
388.24
 20
154.38
 11
388.24
 21
61.62
  0
LINE
  8
TIMBCENT
 10
384.74
 20
57.25
 11
384.74
 21
158.75
  0
TEXT
  8
TIMBNUMB
 10
382.74
 20
156.72
 40
3.53
  1
1.X2 - Y
  0
LINE
  8
TIMBOUTL
 10
396.11
 20
151.75
 11
408.36
 21
151.75
  0
LINE
  8
TIMBOUTL
 10
396.11
 20
60.75
 11
408.36
 21
60.75
  0
LINE
  8
TIMBOUTL
 10
398.74
 20
154.37
 11
398.74
 21
58.12
  0
LINE
  8
TIMBOUTL
 10
405.74
 20
154.37
 11
405.74
 21
58.12
  0
LINE
  8
TIMBCENT
 10
402.24
 20
53.75
 11
402.24
 21
158.75
  0
TEXT
  8
TIMBNUMB
 10
400.24
 20
156.72
 40
3.53
  1
1.X3 - X
  0
LINE
  8
TIMBOUTL
 10
413.61
 20
151.75
 11
425.86
 21
151.75
  0
LINE
  8
TIMBOUTL
 10
413.61
 20
57.25
 11
425.86
 21
57.25
  0
LINE
  8
TIMBOUTL
 10
416.24
 20
154.38
 11
416.24
 21
54.62
  0
LINE
  8
TIMBOUTL
 10
423.24
 20
154.38
 11
423.24
 21
54.62
  0
LINE
  8
TIMBCENT
 10
419.74
 20
50.25
 11
419.74
 21
158.75
  0
TEXT
  8
TIMBNUMB
 10
417.74
 20
156.72
 40
3.53
  1
1.X4 - A
  0
LINE
  8
TIMBOUTL
 10
431.11
 20
151.75
 11
443.36
 21
151.75
  0
LINE
  8
TIMBOUTL
 10
431.11
 20
53.75
 11
443.36
 21
53.75
  0
LINE
  8
TIMBOUTL
 10
433.74
 20
154.37
 11
433.74
 21
51.12
  0
LINE
  8
TIMBOUTL
 10
440.74
 20
154.37
 11
440.74
 21
51.12
  0
LINE
  8
TIMBCENT
 10
437.24
 20
46.75
 11
437.24
 21
158.75
  0
TEXT
  8
TIMBNUMB
 10
435.24
 20
156.72
 40
3.53
  1
1.X5 - B
  0
LINE
  8
TIMBOUTL
 10
448.61
 20
151.75
 11
460.86
 21
151.75
  0
LINE
  8
TIMBOUTL
 10
448.61
 20
53.75
 11
460.86
 21
53.75
  0
LINE
  8
TIMBOUTL
 10
451.24
 20
154.37
 11
451.24
 21
51.12
  0
LINE
  8
TIMBOUTL
 10
458.24
 20
154.37
 11
458.24
 21
51.12
  0
LINE
  8
TIMBCENT
 10
454.74
 20
46.75
 11
454.74
 21
158.75
  0
TEXT
  8
TIMBNUMB
 10
452.74
 20
156.72
 40
3.53
  1
1.X6 - C
  0
LINE
  8
TIMBOUTL
 10
466.11
 20
151.75
 11
478.36
 21
151.75
  0
LINE
  8
TIMBOUTL
 10
466.11
 20
50.25
 11
478.36
 21
50.25
  0
LINE
  8
TIMBOUTL
 10
468.74
 20
154.38
 11
468.74
 21
47.62
  0
LINE
  8
TIMBOUTL
 10
475.74
 20
154.38
 11
475.74
 21
47.62
  0
LINE
  8
TIMBCENT
 10
472.24
 20
43.25
 11
472.24
 21
158.75
  0
TEXT
  8
TIMBNUMB
 10
470.24
 20
156.72
 40
3.53
  1
1.X7 - D
  0
LINE
  8
TIMBOUTL
 10
483.61
 20
151.75
 11
495.86
 21
151.75
  0
LINE
  8
TIMBOUTL
 10
483.61
 20
46.75
 11
495.86
 21
46.75
  0
LINE
  8
TIMBOUTL
 10
486.24
 20
154.37
 11
486.24
 21
44.12
  0
LINE
  8
TIMBOUTL
 10
493.24
 20
154.37
 11
493.24
 21
44.12
  0
LINE
  8
TIMBCENT
 10
489.74
 20
39.75
 11
489.74
 21
158.75
  0
TEXT
  8
TIMBNUMB
 10
487.74
 20
156.72
 40
3.53
  1
1.X8
  0
LINE
  8
TIMBOUTL
 10
227.83
 20
151.75
 11
240.08
 21
151.75
  0
LINE
  8
TIMBOUTL
 10
227.83
 20
81.75
 11
240.08
 21
81.75
  0
LINE
  8
TIMBOUTL
 10
230.46
 20
154.38
 11
230.46
 21
79.12
  0
LINE
  8
TIMBOUTL
 10
237.46
 20
154.38
 11
237.46
 21
79.12
  0
LINE
  8
TIMBCENT
 10
233.96
 20
74.75
 11
233.96
 21
158.75
  0
TEXT
  8
TIMBNUMB
 10
231.96
 20
156.72
 40
3.53
  1
1.T2
  0
LINE
  8
TIMBOUTL
 10
244.79
 20
151.75
 11
257.04
 21
151.75
  0
LINE
  8
TIMBOUTL
 10
244.79
 20
81.75
 11
257.04
 21
81.75
  0
LINE
  8
TIMBOUTL
 10
247.41
 20
154.38
 11
247.41
 21
79.12
  0
LINE
  8
TIMBOUTL
 10
254.41
 20
154.38
 11
254.41
 21
79.12
  0
LINE
  8
TIMBCENT
 10
250.91
 20
74.75
 11
250.91
 21
158.75
  0
TEXT
  8
TIMBNUMB
 10
248.91
 20
156.72
 40
3.53
  1
1.T3
  0
LINE
  8
TIMBOUTL
 10
261.75
 20
151.75
 11
274.00
 21
151.75
  0
LINE
  8
TIMBOUTL
 10
261.75
 20
78.25
 11
274.00
 21
78.25
  0
LINE
  8
TIMBOUTL
 10
264.37
 20
154.38
 11
264.37
 21
75.62
  0
LINE
  8
TIMBOUTL
 10
271.37
 20
154.38
 11
271.37
 21
75.62
  0
LINE
  8
TIMBCENT
 10
267.87
 20
71.25
 11
267.87
 21
158.75
  0
TEXT
  8
TIMBNUMB
 10
265.87
 20
156.72
 40
3.53
  1
1.T4
  0
LINE
  8
TIMBOUTL
 10
278.70
 20
151.75
 11
290.95
 21
151.75
  0
LINE
  8
TIMBOUTL
 10
278.70
 20
78.25
 11
290.95
 21
78.25
  0
LINE
  8
TIMBOUTL
 10
281.33
 20
154.38
 11
281.33
 21
75.62
  0
LINE
  8
TIMBOUTL
 10
288.33
 20
154.38
 11
288.33
 21
75.62
  0
LINE
  8
TIMBCENT
 10
284.83
 20
71.25
 11
284.83
 21
158.75
  0
TEXT
  8
TIMBNUMB
 10
282.83
 20
156.72
 40
3.53
  1
1.T5
  0
LINE
  8
TIMBOUTL
 10
295.66
 20
151.75
 11
307.91
 21
151.75
  0
LINE
  8
TIMBOUTL
 10
295.66
 20
74.75
 11
307.91
 21
74.75
  0
LINE
  8
TIMBOUTL
 10
298.28
 20
154.38
 11
298.28
 21
72.12
  0
LINE
  8
TIMBOUTL
 10
305.28
 20
154.38
 11
305.28
 21
72.12
  0
LINE
  8
TIMBCENT
 10
301.78
 20
67.75
 11
301.78
 21
158.75
  0
TEXT
  8
TIMBNUMB
 10
299.78
 20
156.72
 40
3.53
  1
1.T6
  0
LINE
  8
TIMBOUTL
 10
312.62
 20
151.75
 11
324.87
 21
151.75
  0
LINE
  8
TIMBOUTL
 10
312.62
 20
74.75
 11
324.87
 21
74.75
  0
LINE
  8
TIMBOUTL
 10
315.24
 20
154.38
 11
315.24
 21
72.12
  0
LINE
  8
TIMBOUTL
 10
322.24
 20
154.38
 11
322.24
 21
72.12
  0
LINE
  8
TIMBCENT
 10
318.74
 20
67.75
 11
318.74
 21
158.75
  0
TEXT
  8
TIMBNUMB
 10
316.74
 20
156.72
 40
3.53
  1
1.T7
  0
LINE
  8
TIMBOUTL
 10
329.57
 20
151.75
 11
341.82
 21
151.75
  0
LINE
  8
TIMBOUTL
 10
329.57
 20
71.25
 11
341.82
 21
71.25
  0
LINE
  8
TIMBOUTL
 10
332.20
 20
154.38
 11
332.20
 21
68.62
  0
LINE
  8
TIMBOUTL
 10
339.20
 20
154.38
 11
339.20
 21
68.62
  0
LINE
  8
TIMBCENT
 10
335.70
 20
64.25
 11
335.70
 21
158.75
  0
TEXT
  8
TIMBNUMB
 10
333.70
 20
156.72
 40
3.53
  1
1.T8
  0
LINE
  8
TIMBOUTL
 10
346.53
 20
151.75
 11
358.78
 21
151.75
  0
LINE
  8
TIMBOUTL
 10
346.53
 20
67.75
 11
358.78
 21
67.75
  0
LINE
  8
TIMBOUTL
 10
349.16
 20
154.38
 11
349.16
 21
65.12
  0
LINE
  8
TIMBOUTL
 10
356.16
 20
154.38
 11
356.16
 21
65.12
  0
LINE
  8
TIMBCENT
 10
352.66
 20
60.75
 11
352.66
 21
158.75
  0
TEXT
  8
TIMBNUMB
 10
350.66
 20
156.72
 40
3.53
  1
1.T9
  0
LINE
  8
TIMBOUTL
 10
498.49
 20
151.75
 11
509.57
 21
151.75
  0
LINE
  8
TIMBOUTL
 10
498.49
 20
92.25
 11
509.57
 21
92.25
  0
LINE
  8
TIMBOUTL
 10
501.11
 20
154.38
 11
501.11
 21
89.62
  0
LINE
  8
TIMBOUTL
 10
506.95
 20
154.38
 11
506.95
 21
89.62
  0
LINE
  8
TIMBCENT
 10
504.03
 20
85.25
 11
504.03
 21
158.75
  0
TEXT
  8
TIMBNUMB
 10
502.03
 20
156.72
 40
3.53
  1
1.E1
  0
LINE
  8
TIMBOUTL
 10
513.95
 20
151.75
 11
525.03
 21
151.75
  0
LINE
  8
TIMBOUTL
 10
513.95
 20
92.25
 11
525.03
 21
92.25
  0
LINE
  8
TIMBOUTL
 10
516.57
 20
154.38
 11
516.57
 21
89.62
  0
LINE
  8
TIMBOUTL
 10
522.41
 20
154.38
 11
522.41
 21
89.62
  0
LINE
  8
TIMBCENT
 10
519.49
 20
85.25
 11
519.49
 21
158.75
  0
TEXT
  8
TIMBNUMB
 10
517.49
 20
156.72
 40
3.53
  1
1.E2
  0
TEXT
  8
INFOTEXT
 10
242.63
 20
110.61
 40
3.88
  1

  0
LINE
  8
GDMARKS
 10
0.00
 20
124.33
 11
0.00
 21
119.67
  0
LINE
  8
GDMARKS
 10
0.00
 20
124.33
 11
0.00
 21
119.67
  0
LINE
  8
GDMARKS
 10
37.92
 20
135.08
 11
37.92
 21
142.52
  0
LINE
  8
GDMARKS
 10
37.42
 20
108.92
 11
37.42
 21
101.48
  0
LINE
  8
GDMARKS
 10
89.28
 20
133.48
 11
89.28
 21
142.52
  0
LINE
  8
GDMARKS
 10
88.75
 20
108.92
 11
88.75
 21
99.87
  0
LINE
  8
GDMARKS
 10
413.88
 20
106.00
 11
415.63
 21
106.00
  0
LINE
  8
GDMARKS
 10
414.75
 20
106.58
 11
414.75
 21
105.42
  0
LINE
  8
GDMARKS
 10
37.67
 20
124.33
 11
37.67
 21
119.67
  0
LINE
  8
GDMARKS
 10
221.43
 20
124.33
 11
221.43
 21
119.67
  0
LINE
  8
GDMARKS
 10
461.43
 20
84.33
 11
461.43
 21
79.67
  0
LINE
  8
GDMARKS
 10
464.74
 20
124.33
 11
464.74
 21
119.67
  0
LINE
  8
GDMARKS
 10
493.32
 20
79.02
 11
493.32
 21
74.35
  0
LINE
  8
GDMARKS
 10
497.03
 20
124.33
 11
497.03
 21
119.67
  0
LINE
  8
GDMARKS
 10
47.25
 20
99.00
 11
49.58
 21
99.00
  0
LINE
  8
GDMARKS
 10
47.25
 20
145.00
 11
49.58
 21
145.00
  0
LINE
  8
GDMARKS
 10
47.25
 20
99.00
 11
47.25
 21
145.00
  0
LINE
  8
GDMARKS
 10
49.58
 20
99.00
 11
49.58
 21
145.00
  0
LINE
  8
JOINTS
 10
0.00
 20
108.92
 11
0.00
 21
101.48
  0
LINE
  8
JOINTS
 10
0.00
 20
135.08
 11
0.00
 21
142.52
  0
LINE
  8
JOINTS
 10
195.59
 20
134.66
 11
195.24
 21
128.84
  0
LINE
  8
JOINTS
 10
195.42
 20
103.08
 11
195.42
 21
108.92
  0
LINE
  8
JOINTS
 10
209.70
 20
94.26
 11
210.09
 21
100.08
  0
LINE
  8
JOINTS
 10
210.00
 20
136.69
 11
210.00
 21
142.52
  0
LINE
  8
JOINTS
 10
359.95
 20
101.48
 11
359.95
 21
108.92
  0
LINE
  8
JOINTS
 10
360.26
 20
111.82
 11
361.36
 21
119.18
  0
LINE
  8
JOINTS
 10
495.47
 20
89.59
 11
496.69
 21
96.93
  0
LINE
  8
JOINTS
 10
497.03
 20
108.92
 11
497.03
 21
101.48
  0
LINE
  8
RADMARKS
 10
88.75
 20
104.40
 11
89.28
 21
136.40
  0
LINE
  8
RADMARKS
 10
186.10
 20
100.23
 11
187.83
 21
132.18
  0
LINE
  8
RADMARKS
 10
388.49
 20
77.94
 11
393.75
 21
109.50
  0
LINE
  8
CENTLINE
 10
0.00
 20
122.00
 11
7.94
 21
122.00
  0
LINE
  8
CENTLINE
 10
7.94
 20
122.00
 11
15.87
 21
122.00
  0
LINE
  8
CENTLINE
 10
15.87
 20
122.00
 11
23.81
 21
122.00
  0
LINE
  8
CENTLINE
 10
23.81
 20
122.00
 11
31.75
 21
122.00
  0
LINE
  8
CENTLINE
 10
31.75
 20
122.00
 11
39.69
 21
122.00
  0
LINE
  8
CENTLINE
 10
39.69
 20
122.00
 11
47.62
 21
122.00
  0
LINE
  8
CENTLINE
 10
47.62
 20
122.00
 11
55.56
 21
122.00
  0
LINE
  8
CENTLINE
 10
55.56
 20
122.00
 11
63.50
 21
122.00
  0
LINE
  8
CENTLINE
 10
63.50
 20
122.00
 11
71.44
 21
122.00
  0
LINE
  8
CENTLINE
 10
71.44
 20
122.00
 11
79.37
 21
122.00
  0
LINE
  8
CENTLINE
 10
79.37
 20
122.00
 11
87.31
 21
122.00
  0
LINE
  8
CENTLINE
 10
87.31
 20
122.00
 11
95.25
 21
122.00
  0
LINE
  8
CENTLINE
 10
95.25
 20
122.00
 11
103.18
 21
122.00
  0
LINE
  8
CENTLINE
 10
103.18
 20
122.00
 11
111.12
 21
122.00
  0
LINE
  8
CENTLINE
 10
111.12
 20
122.00
 11
119.06
 21
122.00
  0
LINE
  8
CENTLINE
 10
119.06
 20
122.00
 11
127.00
 21
122.00
  0
LINE
  8
CENTLINE
 10
127.00
 20
122.00
 11
134.93
 21
122.00
  0
LINE
  8
CENTLINE
 10
134.93
 20
122.00
 11
142.87
 21
122.00
  0
LINE
  8
CENTLINE
 10
142.87
 20
122.00
 11
150.81
 21
122.00
  0
LINE
  8
CENTLINE
 10
150.81
 20
122.00
 11
158.75
 21
122.00
  0
LINE
  8
CENTLINE
 10
158.75
 20
122.00
 11
166.68
 21
122.00
  0
LINE
  8
CENTLINE
 10
166.68
 20
122.00
 11
174.62
 21
122.00
  0
LINE
  8
CENTLINE
 10
174.62
 20
122.00
 11
182.56
 21
122.00
  0
LINE
  8
CENTLINE
 10
182.56
 20
122.00
 11
190.49
 21
122.00
  0
LINE
  8
CENTLINE
 10
190.49
 20
122.00
 11
198.43
 21
122.00
  0
LINE
  8
CENTLINE
 10
198.43
 20
122.00
 11
206.37
 21
122.00
  0
LINE
  8
CENTLINE
 10
206.37
 20
122.00
 11
214.31
 21
122.00
  0
LINE
  8
CENTLINE
 10
214.31
 20
122.00
 11
222.24
 21
122.00
  0
LINE
  8
CENTLINE
 10
222.24
 20
122.00
 11
230.18
 21
122.00
  0
LINE
  8
CENTLINE
 10
230.18
 20
122.00
 11
238.12
 21
122.00
  0
LINE
  8
CENTLINE
 10
238.12
 20
122.00
 11
246.05
 21
122.00
  0
LINE
  8
CENTLINE
 10
246.05
 20
122.00
 11
253.99
 21
122.00
  0
LINE
  8
CENTLINE
 10
253.99
 20
122.00
 11
261.93
 21
122.00
  0
LINE
  8
CENTLINE
 10
261.93
 20
122.00
 11
269.87
 21
122.00
  0
LINE
  8
CENTLINE
 10
269.87
 20
122.00
 11
277.80
 21
122.00
  0
LINE
  8
CENTLINE
 10
277.80
 20
122.00
 11
285.74
 21
122.00
  0
LINE
  8
CENTLINE
 10
285.74
 20
122.00
 11
293.68
 21
122.00
  0
LINE
  8
CENTLINE
 10
293.68
 20
122.00
 11
301.62
 21
122.00
  0
LINE
  8
CENTLINE
 10
301.62
 20
122.00
 11
309.55
 21
122.00
  0
LINE
  8
CENTLINE
 10
309.55
 20
122.00
 11
317.49
 21
122.00
  0
LINE
  8
CENTLINE
 10
317.49
 20
122.00
 11
325.43
 21
122.00
  0
LINE
  8
CENTLINE
 10
325.43
 20
122.00
 11
333.36
 21
122.00
  0
LINE
  8
CENTLINE
 10
333.36
 20
122.00
 11
341.30
 21
122.00
  0
LINE
  8
CENTLINE
 10
341.30
 20
122.00
 11
349.24
 21
122.00
  0
LINE
  8
CENTLINE
 10
349.24
 20
122.00
 11
357.18
 21
122.00
  0
LINE
  8
CENTLINE
 10
357.18
 20
122.00
 11
365.11
 21
122.00
  0
LINE
  8
CENTLINE
 10
365.11
 20
122.00
 11
373.05
 21
122.00
  0
LINE
  8
CENTLINE
 10
373.05
 20
122.00
 11
380.99
 21
122.00
  0
LINE
  8
CENTLINE
 10
380.99
 20
122.00
 11
388.93
 21
122.00
  0
LINE
  8
CENTLINE
 10
388.93
 20
122.00
 11
396.86
 21
122.00
  0
LINE
  8
CENTLINE
 10
396.86
 20
122.00
 11
404.80
 21
122.00
  0
LINE
  8
CENTLINE
 10
404.80
 20
122.00
 11
412.74
 21
122.00
  0
LINE
  8
CENTLINE
 10
412.74
 20
122.00
 11
420.67
 21
122.00
  0
LINE
  8
CENTLINE
 10
420.67
 20
122.00
 11
428.61
 21
122.00
  0
LINE
  8
CENTLINE
 10
428.61
 20
122.00
 11
436.55
 21
122.00
  0
LINE
  8
CENTLINE
 10
436.55
 20
122.00
 11
444.49
 21
122.00
  0
LINE
  8
CENTLINE
 10
444.49
 20
122.00
 11
452.42
 21
122.00
  0
LINE
  8
CENTLINE
 10
452.42
 20
122.00
 11
460.36
 21
122.00
  0
LINE
  8
CENTLINE
 10
460.36
 20
122.00
 11
468.30
 21
122.00
  0
LINE
  8
CENTLINE
 10
468.30
 20
122.00
 11
476.24
 21
122.00
  0
LINE
  8
CENTLINE
 10
476.24
 20
122.00
 11
484.17
 21
122.00
  0
LINE
  8
CENTLINE
 10
484.17
 20
122.00
 11
492.11
 21
122.00
  0
LINE
  8
CENTLINE
 10
492.11
 20
122.00
 11
500.05
 21
122.00
  0
LINE
  8
CENTLINE
 10
500.05
 20
122.00
 11
507.98
 21
122.00
  0
LINE
  8
CENTLINE
 10
507.98
 20
122.00
 11
515.92
 21
122.00
  0
LINE
  8
CENTLINE
 10
515.92
 20
122.00
 11
519.49
 21
122.00
  0
LINE
  8
CENTLINE
 10
221.43
 20
122.00
 11
229.37
 21
120.68
  0
LINE
  8
CENTLINE
 10
229.37
 20
120.68
 11
237.30
 21
119.35
  0
LINE
  8
CENTLINE
 10
237.30
 20
119.35
 11
245.24
 21
118.03
  0
LINE
  8
CENTLINE
 10
245.24
 20
118.03
 11
253.18
 21
116.71
  0
LINE
  8
CENTLINE
 10
253.18
 20
116.71
 11
261.12
 21
115.39
  0
LINE
  8
CENTLINE
 10
261.12
 20
115.39
 11
269.05
 21
114.06
  0
LINE
  8
CENTLINE
 10
269.05
 20
114.06
 11
276.99
 21
112.74
  0
LINE
  8
CENTLINE
 10
276.99
 20
112.74
 11
284.93
 21
111.42
  0
LINE
  8
CENTLINE
 10
284.93
 20
111.42
 11
292.86
 21
110.09
  0
LINE
  8
CENTLINE
 10
292.86
 20
110.09
 11
300.80
 21
108.77
  0
LINE
  8
CENTLINE
 10
300.80
 20
108.77
 11
308.74
 21
107.45
  0
LINE
  8
CENTLINE
 10
308.74
 20
107.45
 11
316.68
 21
106.13
  0
LINE
  8
CENTLINE
 10
316.68
 20
106.13
 11
324.61
 21
104.80
  0
LINE
  8
CENTLINE
 10
324.61
 20
104.80
 11
332.55
 21
103.48
  0
LINE
  8
CENTLINE
 10
332.55
 20
103.48
 11
340.49
 21
102.16
  0
LINE
  8
CENTLINE
 10
340.49
 20
102.16
 11
348.43
 21
100.83
  0
LINE
  8
CENTLINE
 10
348.43
 20
100.83
 11
356.36
 21
99.51
  0
LINE
  8
CENTLINE
 10
356.36
 20
99.51
 11
364.30
 21
98.19
  0
LINE
  8
CENTLINE
 10
364.30
 20
98.19
 11
372.24
 21
96.87
  0
LINE
  8
CENTLINE
 10
372.24
 20
96.87
 11
380.17
 21
95.54
  0
LINE
  8
CENTLINE
 10
380.17
 20
95.54
 11
388.11
 21
94.22
  0
LINE
  8
CENTLINE
 10
388.11
 20
94.22
 11
396.05
 21
92.90
  0
LINE
  8
CENTLINE
 10
396.05
 20
92.90
 11
403.99
 21
91.57
  0
LINE
  8
CENTLINE
 10
403.99
 20
91.57
 11
411.92
 21
90.25
  0
LINE
  8
CENTLINE
 10
411.92
 20
90.25
 11
419.86
 21
88.93
  0
LINE
  8
CENTLINE
 10
419.86
 20
88.93
 11
427.80
 21
87.61
  0
LINE
  8
CENTLINE
 10
427.80
 20
87.61
 11
435.73
 21
86.28
  0
LINE
  8
CENTLINE
 10
435.73
 20
86.28
 11
443.67
 21
84.96
  0
LINE
  8
CENTLINE
 10
443.67
 20
84.96
 11
451.61
 21
83.64
  0
LINE
  8
CENTLINE
 10
451.61
 20
83.64
 11
459.55
 21
82.31
  0
LINE
  8
CENTLINE
 10
459.55
 20
82.31
 11
467.48
 21
80.99
  0
LINE
  8
CENTLINE
 10
467.48
 20
80.99
 11
475.42
 21
79.67
  0
LINE
  8
CENTLINE
 10
475.42
 20
79.67
 11
483.36
 21
78.35
  0
LINE
  8
CENTLINE
 10
483.36
 20
78.35
 11
491.30
 21
77.02
  0
LINE
  8
CENTLINE
 10
491.30
 20
77.02
 11
499.23
 21
75.70
  0
LINE
  8
CENTLINE
 10
499.23
 20
75.70
 11
499.45
 21
75.66
  0
LINE
  8
RAILS
 10
0.00
 20
138.00
 11
7.94
 21
138.00
  0
LINE
  8
RAILS
 10
7.94
 20
138.00
 11
15.87
 21
138.00
  0
LINE
  8
RAILS
 10
15.87
 20
138.00
 11
23.81
 21
138.00
  0
LINE
  8
RAILS
 10
23.81
 20
138.00
 11
31.75
 21
138.00
  0
LINE
  8
RAILS
 10
31.75
 20
138.00
 11
39.69
 21
138.00
  0
LINE
  8
RAILS
 10
39.69
 20
138.00
 11
47.62
 21
138.00
  0
LINE
  8
RAILS
 10
47.62
 20
138.00
 11
55.56
 21
138.00
  0
LINE
  8
RAILS
 10
55.56
 20
138.00
 11
63.50
 21
138.00
  0
LINE
  8
RAILS
 10
63.50
 20
138.00
 11
71.44
 21
138.00
  0
LINE
  8
RAILS
 10
71.44
 20
138.00
 11
79.37
 21
138.00
  0
LINE
  8
RAILS
 10
79.37
 20
138.00
 11
87.31
 21
138.00
  0
LINE
  8
RAILS
 10
87.31
 20
138.00
 11
95.25
 21
138.00
  0
LINE
  8
RAILS
 10
95.25
 20
138.00
 11
103.18
 21
138.00
  0
LINE
  8
RAILS
 10
103.18
 20
138.00
 11
111.12
 21
138.00
  0
LINE
  8
RAILS
 10
111.12
 20
138.00
 11
119.06
 21
138.00
  0
LINE
  8
RAILS
 10
119.06
 20
138.00
 11
127.00
 21
138.00
  0
LINE
  8
RAILS
 10
127.00
 20
138.00
 11
134.93
 21
138.00
  0
LINE
  8
RAILS
 10
134.93
 20
138.00
 11
142.87
 21
138.00
  0
LINE
  8
RAILS
 10
142.87
 20
138.00
 11
150.81
 21
138.00
  0
LINE
  8
RAILS
 10
150.81
 20
138.00
 11
158.75
 21
138.00
  0
LINE
  8
RAILS
 10
158.75
 20
138.00
 11
166.68
 21
138.00
  0
LINE
  8
RAILS
 10
166.68
 20
138.00
 11
174.62
 21
138.00
  0
LINE
  8
RAILS
 10
174.62
 20
138.00
 11
182.56
 21
138.00
  0
LINE
  8
RAILS
 10
182.56
 20
138.00
 11
190.49
 21
138.00
  0
LINE
  8
RAILS
 10
190.49
 20
138.00
 11
198.43
 21
138.00
  0
LINE
  8
RAILS
 10
198.43
 20
138.00
 11
206.37
 21
138.00
  0
LINE
  8
RAILS
 10
206.37
 20
138.00
 11
214.31
 21
138.00
  0
LINE
  8
RAILS
 10
214.31
 20
138.00
 11
222.24
 21
138.00
  0
LINE
  8
RAILS
 10
222.24
 20
138.00
 11
230.18
 21
138.00
  0
LINE
  8
RAILS
 10
230.18
 20
138.00
 11
238.12
 21
138.00
  0
LINE
  8
RAILS
 10
238.12
 20
138.00
 11
246.05
 21
138.00
  0
LINE
  8
RAILS
 10
246.05
 20
138.00
 11
253.99
 21
138.00
  0
LINE
  8
RAILS
 10
253.99
 20
138.00
 11
261.93
 21
138.00
  0
LINE
  8
RAILS
 10
261.93
 20
138.00
 11
269.87
 21
138.00
  0
LINE
  8
RAILS
 10
269.87
 20
138.00
 11
277.80
 21
138.00
  0
LINE
  8
RAILS
 10
277.80
 20
138.00
 11
285.74
 21
138.00
  0
LINE
  8
RAILS
 10
285.74
 20
138.00
 11
293.68
 21
138.00
  0
LINE
  8
RAILS
 10
293.68
 20
138.00
 11
301.62
 21
138.00
  0
LINE
  8
RAILS
 10
301.62
 20
138.00
 11
309.55
 21
138.00
  0
LINE
  8
RAILS
 10
309.55
 20
138.00
 11
317.49
 21
138.00
  0
LINE
  8
RAILS
 10
317.49
 20
138.00
 11
325.43
 21
138.00
  0
LINE
  8
RAILS
 10
325.43
 20
138.00
 11
333.36
 21
138.00
  0
LINE
  8
RAILS
 10
333.36
 20
138.00
 11
341.30
 21
138.00
  0
LINE
  8
RAILS
 10
341.30
 20
138.00
 11
349.24
 21
138.00
  0
LINE
  8
RAILS
 10
349.24
 20
138.00
 11
357.18
 21
138.00
  0
LINE
  8
RAILS
 10
357.18
 20
138.00
 11
365.11
 21
138.00
  0
LINE
  8
RAILS
 10
365.11
 20
138.00
 11
373.05
 21
138.00
  0
LINE
  8
RAILS
 10
373.05
 20
138.00
 11
380.99
 21
138.00
  0
LINE
  8
RAILS
 10
380.99
 20
138.00
 11
388.93
 21
138.00
  0
LINE
  8
RAILS
 10
388.93
 20
138.00
 11
396.86
 21
138.00
  0
LINE
  8
RAILS
 10
396.86
 20
138.00
 11
404.80
 21
138.00
  0
LINE
  8
RAILS
 10
404.80
 20
138.00
 11
412.74
 21
138.00
  0
LINE
  8
RAILS
 10
412.74
 20
138.00
 11
420.67
 21
138.00
  0
LINE
  8
RAILS
 10
420.67
 20
138.00
 11
428.61
 21
138.00
  0
LINE
  8
RAILS
 10
428.61
 20
138.00
 11
436.55
 21
138.00
  0
LINE
  8
RAILS
 10
436.55
 20
138.00
 11
444.49
 21
138.00
  0
LINE
  8
RAILS
 10
444.49
 20
138.00
 11
452.42
 21
138.00
  0
LINE
  8
RAILS
 10
452.42
 20
138.00
 11
460.36
 21
138.00
  0
LINE
  8
RAILS
 10
460.36
 20
138.00
 11
468.30
 21
138.00
  0
LINE
  8
RAILS
 10
468.30
 20
138.00
 11
476.24
 21
138.00
  0
LINE
  8
RAILS
 10
476.24
 20
138.00
 11
484.17
 21
138.00
  0
LINE
  8
RAILS
 10
484.17
 20
138.00
 11
492.11
 21
138.00
  0
LINE
  8
RAILS
 10
492.11
 20
138.00
 11
500.05
 21
138.00
  0
LINE
  8
RAILS
 10
500.05
 20
138.00
 11
507.98
 21
138.00
  0
LINE
  8
RAILS
 10
507.98
 20
138.00
 11
515.92
 21
138.00
  0
LINE
  8
RAILS
 10
515.92
 20
138.00
 11
519.49
 21
138.00
  0
LINE
  8
RAILS
 10
37.42
 20
106.00
 11
45.35
 21
106.00
  0
LINE
  8
RAILS
 10
45.35
 20
106.00
 11
53.29
 21
106.00
  0
LINE
  8
RAILS
 10
53.29
 20
106.00
 11
61.23
 21
106.00
  0
LINE
  8
RAILS
 10
61.23
 20
106.00
 11
69.17
 21
106.00
  0
LINE
  8
RAILS
 10
69.17
 20
106.00
 11
77.10
 21
106.00
  0
LINE
  8
RAILS
 10
77.10
 20
106.00
 11
85.04
 21
106.00
  0
LINE
  8
RAILS
 10
85.04
 20
106.00
 11
88.75
 21
106.00
  0
LINE
  8
RAILS
 10
88.75
 20
106.00
 11
88.75
 21
106.00
  0
LINE
  8
RAILS
 10
88.75
 20
106.00
 11
96.69
 21
106.00
  0
LINE
  8
RAILS
 10
96.69
 20
106.00
 11
104.62
 21
106.00
  0
LINE
  8
RAILS
 10
104.62
 20
106.00
 11
112.56
 21
106.00
  0
LINE
  8
RAILS
 10
112.56
 20
106.00
 11
120.50
 21
106.00
  0
LINE
  8
RAILS
 10
120.50
 20
106.00
 11
128.44
 21
106.00
  0
LINE
  8
RAILS
 10
128.44
 20
106.00
 11
136.37
 21
106.00
  0
LINE
  8
RAILS
 10
136.37
 20
106.00
 11
144.31
 21
106.00
  0
LINE
  8
RAILS
 10
144.31
 20
106.00
 11
152.25
 21
106.00
  0
LINE
  8
RAILS
 10
152.25
 20
106.00
 11
160.18
 21
106.00
  0
LINE
  8
RAILS
 10
160.18
 20
106.00
 11
168.12
 21
106.00
  0
LINE
  8
RAILS
 10
168.12
 20
106.00
 11
176.06
 21
106.00
  0
LINE
  8
RAILS
 10
176.06
 20
106.00
 11
184.00
 21
106.00
  0
LINE
  8
RAILS
 10
184.00
 20
106.00
 11
191.93
 21
106.00
  0
LINE
  8
RAILS
 10
191.93
 20
106.00
 11
199.87
 21
106.00
  0
LINE
  8
RAILS
 10
199.87
 20
106.00
 11
207.81
 21
106.00
  0
LINE
  8
RAILS
 10
207.81
 20
106.00
 11
215.75
 21
106.00
  0
LINE
  8
RAILS
 10
215.75
 20
106.00
 11
223.68
 21
106.00
  0
LINE
  8
RAILS
 10
223.68
 20
106.00
 11
231.62
 21
106.00
  0
LINE
  8
RAILS
 10
231.62
 20
106.00
 11
239.56
 21
106.00
  0
LINE
  8
RAILS
 10
239.56
 20
106.00
 11
247.49
 21
106.00
  0
LINE
  8
RAILS
 10
247.49
 20
106.00
 11
255.43
 21
106.00
  0
LINE
  8
RAILS
 10
255.43
 20
106.00
 11
263.37
 21
106.00
  0
LINE
  8
RAILS
 10
263.37
 20
106.00
 11
271.31
 21
106.00
  0
LINE
  8
RAILS
 10
271.31
 20
106.00
 11
279.24
 21
106.00
  0
LINE
  8
RAILS
 10
279.24
 20
106.00
 11
287.18
 21
106.00
  0
LINE
  8
RAILS
 10
287.18
 20
106.00
 11
295.12
 21
106.00
  0
LINE
  8
RAILS
 10
295.12
 20
106.00
 11
303.05
 21
106.00
  0
LINE
  8
RAILS
 10
303.05
 20
106.00
 11
310.99
 21
106.00
  0
LINE
  8
RAILS
 10
310.99
 20
106.00
 11
318.93
 21
106.00
  0
LINE
  8
RAILS
 10
318.93
 20
106.00
 11
326.87
 21
106.00
  0
LINE
  8
RAILS
 10
326.87
 20
106.00
 11
334.80
 21
106.00
  0
LINE
  8
RAILS
 10
334.80
 20
106.00
 11
342.74
 21
106.00
  0
LINE
  8
RAILS
 10
342.74
 20
106.00
 11
350.68
 21
106.00
  0
LINE
  8
RAILS
 10
350.68
 20
106.00
 11
358.62
 21
106.00
  0
LINE
  8
RAILS
 10
358.62
 20
106.00
 11
366.55
 21
106.00
  0
LINE
  8
RAILS
 10
366.55
 20
106.00
 11
374.49
 21
106.00
  0
LINE
  8
RAILS
 10
374.49
 20
106.00
 11
382.43
 21
106.00
  0
LINE
  8
RAILS
 10
382.43
 20
106.00
 11
390.36
 21
106.00
  0
LINE
  8
RAILS
 10
390.36
 20
106.00
 11
398.30
 21
106.00
  0
LINE
  8
RAILS
 10
398.30
 20
106.00
 11
404.11
 21
106.00
  0
LINE
  8
RAILS
 10
404.11
 20
106.00
 11
404.11
 21
106.00
  0
LINE
  8
RAILS
 10
404.11
 20
106.00
 11
412.05
 21
104.68
  0
LINE
  8
RAILS
 10
412.05
 20
104.68
 11
419.98
 21
103.35
  0
LINE
  8
RAILS
 10
419.98
 20
103.35
 11
426.29
 21
102.30
  0
LINE
  8
RAILS
 10
426.29
 20
102.30
 11
426.29
 21
102.30
  0
LINE
  8
RAILS
 10
426.29
 20
102.30
 11
434.23
 21
100.49
  0
LINE
  8
RAILS
 10
434.23
 20
100.49
 11
442.16
 21
98.68
  0
LINE
  8
RAILS
 10
442.16
 20
98.68
 11
446.80
 21
97.62
  0
LINE
  8
RAILS
 10
37.92
 20
137.98
 11
45.85
 21
137.74
  0
LINE
  8
RAILS
 10
45.85
 20
137.74
 11
53.79
 21
137.49
  0
LINE
  8
RAILS
 10
53.79
 20
137.49
 11
61.73
 21
137.24
  0
LINE
  8
RAILS
 10
61.73
 20
137.24
 11
69.67
 21
136.99
  0
LINE
  8
RAILS
 10
69.67
 20
136.99
 11
77.60
 21
136.74
  0
LINE
  8
RAILS
 10
77.60
 20
136.74
 11
85.54
 21
136.50
  0
LINE
  8
RAILS
 10
85.54
 20
136.50
 11
89.22
 21
136.38
  0
LINE
  8
RAILS
 10
89.22
 20
136.38
 11
89.22
 21
136.40
  0
LINE
  8
RAILS
 10
89.22
 20
136.40
 11
97.16
 21
136.14
  0
LINE
  8
RAILS
 10
97.16
 20
136.14
 11
105.10
 21
135.87
  0
LINE
  8
RAILS
 10
105.10
 20
135.87
 11
113.04
 21
135.59
  0
LINE
  8
RAILS
 10
113.04
 20
135.59
 11
120.97
 21
135.29
  0
LINE
  8
RAILS
 10
120.97
 20
135.29
 11
128.91
 21
134.97
  0
LINE
  8
RAILS
 10
128.91
 20
134.97
 11
136.85
 21
134.64
  0
LINE
  8
RAILS
 10
136.85
 20
134.64
 11
144.79
 21
134.30
  0
LINE
  8
RAILS
 10
144.79
 20
134.30
 11
152.72
 21
133.94
  0
LINE
  8
RAILS
 10
152.72
 20
133.94
 11
160.66
 21
133.57
  0
LINE
  8
RAILS
 10
160.66
 20
133.57
 11
168.60
 21
133.18
  0
LINE
  8
RAILS
 10
168.60
 20
133.18
 11
176.53
 21
132.78
  0
LINE
  8
RAILS
 10
176.53
 20
132.78
 11
184.47
 21
132.36
  0
LINE
  8
RAILS
 10
184.47
 20
132.36
 11
187.83
 21
132.18
  0
LINE
  8
RAILS
 10
187.83
 20
132.18
 11
187.83
 21
132.18
  0
LINE
  8
RAILS
 10
187.83
 20
132.18
 11
195.77
 21
131.73
  0
LINE
  8
RAILS
 10
195.77
 20
131.73
 11
203.71
 21
131.25
  0
LINE
  8
RAILS
 10
203.71
 20
131.25
 11
211.65
 21
130.73
  0
LINE
  8
RAILS
 10
211.65
 20
130.73
 11
219.58
 21
130.18
  0
LINE
  8
RAILS
 10
219.58
 20
130.18
 11
227.52
 21
129.60
  0
LINE
  8
RAILS
 10
227.52
 20
129.60
 11
235.46
 21
128.98
  0
LINE
  8
RAILS
 10
235.46
 20
128.98
 11
243.39
 21
128.33
  0
LINE
  8
RAILS
 10
243.39
 20
128.33
 11
251.33
 21
127.65
  0
LINE
  8
RAILS
 10
251.33
 20
127.65
 11
259.27
 21
126.93
  0
LINE
  8
RAILS
 10
259.27
 20
126.93
 11
267.21
 21
126.17
  0
LINE
  8
RAILS
 10
267.21
 20
126.17
 11
275.14
 21
125.38
  0
LINE
  8
RAILS
 10
275.14
 20
125.38
 11
283.08
 21
124.56
  0
LINE
  8
RAILS
 10
283.08
 20
124.56
 11
291.02
 21
123.71
  0
LINE
  8
RAILS
 10
291.02
 20
123.71
 11
298.95
 21
122.81
  0
LINE
  8
RAILS
 10
298.95
 20
122.81
 11
306.89
 21
121.89
  0
LINE
  8
RAILS
 10
306.89
 20
121.89
 11
314.83
 21
120.93
  0
LINE
  8
RAILS
 10
314.83
 20
120.93
 11
322.77
 21
119.93
  0
LINE
  8
RAILS
 10
322.77
 20
119.93
 11
330.70
 21
118.91
  0
LINE
  8
RAILS
 10
330.70
 20
118.91
 11
338.64
 21
117.84
  0
LINE
  8
RAILS
 10
338.64
 20
117.84
 11
346.58
 21
116.74
  0
LINE
  8
RAILS
 10
346.58
 20
116.74
 11
354.52
 21
115.61
  0
LINE
  8
RAILS
 10
354.52
 20
115.61
 11
362.45
 21
114.44
  0
LINE
  8
RAILS
 10
362.45
 20
114.44
 11
370.39
 21
113.24
  0
LINE
  8
RAILS
 10
370.39
 20
113.24
 11
378.33
 21
112.00
  0
LINE
  8
RAILS
 10
378.33
 20
112.00
 11
386.26
 21
110.73
  0
LINE
  8
RAILS
 10
386.26
 20
110.73
 11
393.75
 21
109.50
  0
LINE
  8
RAILS
 10
393.75
 20
109.50
 11
393.75
 21
109.50
  0
LINE
  8
RAILS
 10
393.75
 20
109.50
 11
401.69
 21
108.18
  0
LINE
  8
RAILS
 10
401.69
 20
108.18
 11
404.25
 21
107.75
  0
LINE
  8
RAILS
 10
404.25
 20
107.75
 11
404.25
 21
107.75
  0
LINE
  8
RAILS
 10
404.25
 20
107.75
 11
412.19
 21
107.75
  0
LINE
  8
RAILS
 10
412.19
 20
107.75
 11
420.13
 21
107.75
  0
LINE
  8
RAILS
 10
420.13
 20
107.75
 11
426.74
 21
107.75
  0
LINE
  8
RAILS
 10
426.74
 20
107.75
 11
426.74
 21
107.75
  0
LINE
  8
RAILS
 10
426.74
 20
107.75
 11
434.68
 21
108.22
  0
LINE
  8
RAILS
 10
434.68
 20
108.22
 11
442.61
 21
108.69
  0
LINE
  8
RAILS
 10
442.61
 20
108.69
 11
447.74
 21
109.00
  0
LINE
  8
RAILS
 10
0.00
 20
106.00
 11
7.94
 21
106.00
  0
LINE
  8
RAILS
 10
7.94
 20
106.00
 11
15.87
 21
106.00
  0
LINE
  8
RAILS
 10
15.87
 20
106.00
 11
23.81
 21
106.00
  0
LINE
  8
RAILS
 10
23.81
 20
106.00
 11
31.75
 21
106.00
  0
LINE
  8
RAILS
 10
31.75
 20
106.00
 11
37.42
 21
106.00
  0
LINE
  8
RAILS
 10
37.42
 20
106.00
 11
37.42
 21
106.00
  0
LINE
  8
RAILS
 10
37.42
 20
106.00
 11
45.35
 21
105.75
  0
LINE
  8
RAILS
 10
45.35
 20
105.75
 11
53.29
 21
105.50
  0
LINE
  8
RAILS
 10
53.29
 20
105.50
 11
61.23
 21
105.26
  0
LINE
  8
RAILS
 10
61.23
 20
105.26
 11
69.17
 21
105.01
  0
LINE
  8
RAILS
 10
69.17
 20
105.01
 11
77.10
 21
104.76
  0
LINE
  8
RAILS
 10
77.10
 20
104.76
 11
85.04
 21
104.51
  0
LINE
  8
RAILS
 10
85.04
 20
104.51
 11
88.23
 21
104.41
  0
LINE
  8
RAILS
 10
88.23
 20
104.41
 11
88.23
 21
104.41
  0
LINE
  8
RAILS
 10
88.23
 20
104.41
 11
96.16
 21
104.16
  0
LINE
  8
RAILS
 10
96.16
 20
104.16
 11
104.10
 21
103.89
  0
LINE
  8
RAILS
 10
104.10
 20
103.89
 11
112.04
 21
103.60
  0
LINE
  8
RAILS
 10
112.04
 20
103.60
 11
119.97
 21
103.30
  0
LINE
  8
RAILS
 10
119.97
 20
103.30
 11
127.91
 21
102.99
  0
LINE
  8
RAILS
 10
127.91
 20
102.99
 11
135.85
 21
102.66
  0
LINE
  8
RAILS
 10
135.85
 20
102.66
 11
143.79
 21
102.31
  0
LINE
  8
RAILS
 10
143.79
 20
102.31
 11
151.72
 21
101.95
  0
LINE
  8
RAILS
 10
151.72
 20
101.95
 11
159.66
 21
101.58
  0
LINE
  8
RAILS
 10
159.66
 20
101.58
 11
167.60
 21
101.19
  0
LINE
  8
RAILS
 10
167.60
 20
101.19
 11
175.54
 21
100.79
  0
LINE
  8
RAILS
 10
175.54
 20
100.79
 11
183.47
 21
100.37
  0
LINE
  8
RAILS
 10
183.47
 20
100.37
 11
186.10
 21
100.23
  0
LINE
  8
RAILS
 10
186.10
 20
100.23
 11
186.10
 21
100.23
  0
LINE
  8
RAILS
 10
186.10
 20
100.23
 11
194.04
 21
99.78
  0
LINE
  8
RAILS
 10
194.04
 20
99.78
 11
201.97
 21
99.30
  0
LINE
  8
RAILS
 10
201.97
 20
99.30
 11
209.91
 21
98.78
  0
LINE
  8
RAILS
 10
209.91
 20
98.78
 11
217.85
 21
98.23
  0
LINE
  8
RAILS
 10
217.85
 20
98.23
 11
225.78
 21
97.64
  0
LINE
  8
RAILS
 10
225.78
 20
97.64
 11
233.72
 21
97.02
  0
LINE
  8
RAILS
 10
233.72
 20
97.02
 11
241.66
 21
96.36
  0
LINE
  8
RAILS
 10
241.66
 20
96.36
 11
249.60
 21
95.67
  0
LINE
  8
RAILS
 10
249.60
 20
95.67
 11
257.53
 21
94.95
  0
LINE
  8
RAILS
 10
257.53
 20
94.95
 11
265.47
 21
94.19
  0
LINE
  8
RAILS
 10
265.47
 20
94.19
 11
273.41
 21
93.40
  0
LINE
  8
RAILS
 10
273.41
 20
93.40
 11
281.35
 21
92.57
  0
LINE
  8
RAILS
 10
281.35
 20
92.57
 11
289.28
 21
91.70
  0
LINE
  8
RAILS
 10
289.28
 20
91.70
 11
297.22
 21
90.80
  0
LINE
  8
RAILS
 10
297.22
 20
90.80
 11
305.16
 21
89.87
  0
LINE
  8
RAILS
 10
305.16
 20
89.87
 11
313.09
 21
88.90
  0
LINE
  8
RAILS
 10
313.09
 20
88.90
 11
321.03
 21
87.90
  0
LINE
  8
RAILS
 10
321.03
 20
87.90
 11
328.97
 21
86.86
  0
LINE
  8
RAILS
 10
328.97
 20
86.86
 11
336.91
 21
85.78
  0
LINE
  8
RAILS
 10
336.91
 20
85.78
 11
344.84
 21
84.67
  0
LINE
  8
RAILS
 10
344.84
 20
84.67
 11
352.78
 21
83.53
  0
LINE
  8
RAILS
 10
352.78
 20
83.53
 11
360.72
 21
82.35
  0
LINE
  8
RAILS
 10
360.72
 20
82.35
 11
368.66
 21
81.13
  0
LINE
  8
RAILS
 10
368.66
 20
81.13
 11
376.59
 21
79.88
  0
LINE
  8
RAILS
 10
376.59
 20
79.88
 11
384.53
 21
78.59
  0
LINE
  8
RAILS
 10
384.53
 20
78.59
 11
388.49
 21
77.94
  0
LINE
  8
RAILS
 10
388.49
 20
77.94
 11
388.49
 21
77.94
  0
LINE
  8
RAILS
 10
388.49
 20
77.94
 11
396.43
 21
76.61
  0
LINE
  8
RAILS
 10
396.43
 20
76.61
 11
404.37
 21
75.29
  0
LINE
  8
RAILS
 10
404.37
 20
75.29
 11
412.30
 21
73.97
  0
LINE
  8
RAILS
 10
412.30
 20
73.97
 11
420.24
 21
72.64
  0
LINE
  8
RAILS
 10
420.24
 20
72.64
 11
428.18
 21
71.32
  0
LINE
  8
RAILS
 10
428.18
 20
71.32
 11
436.12
 21
70.00
  0
LINE
  8
RAILS
 10
436.12
 20
70.00
 11
444.05
 21
68.68
  0
LINE
  8
RAILS
 10
444.05
 20
68.68
 11
451.99
 21
67.35
  0
LINE
  8
RAILS
 10
451.99
 20
67.35
 11
459.93
 21
66.03
  0
LINE
  8
RAILS
 10
459.93
 20
66.03
 11
467.86
 21
64.71
  0
LINE
  8
RAILS
 10
467.86
 20
64.71
 11
475.80
 21
63.38
  0
LINE
  8
RAILS
 10
475.80
 20
63.38
 11
483.74
 21
62.06
  0
LINE
  8
RAILS
 10
483.74
 20
62.06
 11
491.68
 21
60.74
  0
LINE
  8
RAILS
 10
491.68
 20
60.74
 11
494.19
 21
60.32
  0
LINE
  8
RAILS
 10
417.41
 20
106.00
 11
425.34
 21
106.00
  0
LINE
  8
RAILS
 10
425.34
 20
106.00
 11
433.28
 21
106.00
  0
LINE
  8
RAILS
 10
433.28
 20
106.00
 11
441.22
 21
106.00
  0
LINE
  8
RAILS
 10
441.22
 20
106.00
 11
449.15
 21
106.00
  0
LINE
  8
RAILS
 10
449.15
 20
106.00
 11
457.09
 21
106.00
  0
LINE
  8
RAILS
 10
457.09
 20
106.00
 11
465.03
 21
106.00
  0
LINE
  8
RAILS
 10
465.03
 20
106.00
 11
472.97
 21
106.00
  0
LINE
  8
RAILS
 10
472.97
 20
106.00
 11
480.90
 21
106.00
  0
LINE
  8
RAILS
 10
480.90
 20
106.00
 11
488.84
 21
106.00
  0
LINE
  8
RAILS
 10
488.84
 20
106.00
 11
496.78
 21
106.00
  0
LINE
  8
RAILS
 10
496.78
 20
106.00
 11
504.72
 21
106.00
  0
LINE
  8
RAILS
 10
504.72
 20
106.00
 11
512.65
 21
106.00
  0
LINE
  8
RAILS
 10
512.65
 20
106.00
 11
519.49
 21
106.00
  0
LINE
  8
RAILS
 10
417.37
 20
105.56
 11
425.31
 21
104.24
  0
LINE
  8
RAILS
 10
425.31
 20
104.24
 11
433.24
 21
102.91
  0
LINE
  8
RAILS
 10
433.24
 20
102.91
 11
441.18
 21
101.59
  0
LINE
  8
RAILS
 10
441.18
 20
101.59
 11
449.12
 21
100.27
  0
LINE
  8
RAILS
 10
449.12
 20
100.27
 11
457.06
 21
98.94
  0
LINE
  8
RAILS
 10
457.06
 20
98.94
 11
464.99
 21
97.62
  0
LINE
  8
RAILS
 10
464.99
 20
97.62
 11
472.93
 21
96.30
  0
LINE
  8
RAILS
 10
472.93
 20
96.30
 11
480.87
 21
94.97
  0
LINE
  8
RAILS
 10
480.87
 20
94.97
 11
488.80
 21
93.65
  0
LINE
  8
RAILS
 10
488.80
 20
93.65
 11
496.74
 21
92.33
  0
LINE
  8
RAILS
 10
496.74
 20
92.33
 11
499.45
 21
91.88
  0
LINE
  8
RAILS
 10
356.74
 20
135.00
 11
364.68
 21
135.47
  0
LINE
  8
RAILS
 10
364.68
 20
135.47
 11
372.61
 21
135.94
  0
LINE
  8
RAILS
 10
372.61
 20
135.94
 11
377.74
 21
136.25
  0
LINE
  8
RAILS
 10
377.74
 20
136.25
 11
377.74
 21
136.25
  0
LINE
  8
RAILS
 10
377.74
 20
136.25
 11
385.68
 21
136.25
  0
LINE
  8
RAILS
 10
385.68
 20
136.25
 11
393.61
 21
136.25
  0
LINE
  8
RAILS
 10
393.61
 20
136.25
 11
401.55
 21
136.25
  0
LINE
  8
RAILS
 10
401.55
 20
136.25
 11
409.49
 21
136.25
  0
LINE
  8
RAILS
 10
409.49
 20
136.25
 11
417.42
 21
136.25
  0
LINE
  8
RAILS
 10
417.42
 20
136.25
 11
425.36
 21
136.25
  0
LINE
  8
RAILS
 10
425.36
 20
136.25
 11
426.74
 21
136.25
  0
LINE
  8
RAILS
 10
426.74
 20
136.25
 11
426.74
 21
136.25
  0
LINE
  8
RAILS
 10
426.74
 20
136.25
 11
434.68
 21
135.78
  0
LINE
  8
RAILS
 10
434.68
 20
135.78
 11
442.61
 21
135.31
  0
LINE
  8
RAILS
 10
442.61
 20
135.31
 11
447.74
 21
135.00
  0
LINE
  8
RAILS
 10
357.74
 20
85.84
 11
365.67
 21
84.14
  0
LINE
  8
RAILS
 10
365.67
 20
84.14
 11
373.61
 21
82.42
  0
LINE
  8
RAILS
 10
373.61
 20
82.42
 11
378.31
 21
81.38
  0
LINE
  8
RAILS
 10
378.31
 20
81.38
 11
378.31
 21
81.38
  0
LINE
  8
RAILS
 10
378.31
 20
81.38
 11
386.24
 21
80.08
  0
LINE
  8
RAILS
 10
386.24
 20
80.08
 11
394.18
 21
78.76
  0
LINE
  8
RAILS
 10
394.18
 20
78.76
 11
402.12
 21
77.44
  0
LINE
  8
RAILS
 10
402.12
 20
77.44
 11
409.78
 21
76.16
  0
LINE
  8
RAILS
 10
409.78
 20
76.16
 11
409.78
 21
76.16
  0
LINE
  8
RAILS
 10
409.78
 20
76.16
 11
417.72
 21
74.84
  0
LINE
  8
RAILS
 10
417.72
 20
74.84
 11
425.65
 21
73.52
  0
LINE
  8
RAILS
 10
425.65
 20
73.52
 11
426.64
 21
73.35
  0
LINE
  8
RAILS
 10
426.64
 20
73.35
 11
426.64
 21
73.35
  0
LINE
  8
RAILS
 10
426.64
 20
73.35
 11
434.58
 21
72.51
  0
LINE
  8
RAILS
 10
434.58
 20
72.51
 11
442.52
 21
71.67
  0
LINE
  8
RAILS
 10
442.52
 20
71.67
 11
447.56
 21
71.13
  0
LINE
  8
RAILS
 10
0.00
 20
139.60
 11
7.94
 21
139.60
  0
LINE
  8
RAILS
 10
7.94
 20
139.60
 11
15.87
 21
139.60
  0
LINE
  8
RAILS
 10
15.87
 20
139.60
 11
23.81
 21
139.60
  0
LINE
  8
RAILS
 10
23.81
 20
139.60
 11
31.75
 21
139.60
  0
LINE
  8
RAILS
 10
31.75
 20
139.60
 11
39.69
 21
139.60
  0
LINE
  8
RAILS
 10
39.69
 20
139.60
 11
47.62
 21
139.60
  0
LINE
  8
RAILS
 10
47.62
 20
139.60
 11
55.56
 21
139.60
  0
LINE
  8
RAILS
 10
55.56
 20
139.60
 11
63.50
 21
139.60
  0
LINE
  8
RAILS
 10
63.50
 20
139.60
 11
71.44
 21
139.60
  0
LINE
  8
RAILS
 10
71.44
 20
139.60
 11
79.37
 21
139.60
  0
LINE
  8
RAILS
 10
79.37
 20
139.60
 11
87.31
 21
139.60
  0
LINE
  8
RAILS
 10
87.31
 20
139.60
 11
95.25
 21
139.60
  0
LINE
  8
RAILS
 10
95.25
 20
139.60
 11
103.18
 21
139.60
  0
LINE
  8
RAILS
 10
103.18
 20
139.60
 11
111.12
 21
139.60
  0
LINE
  8
RAILS
 10
111.12
 20
139.60
 11
119.06
 21
139.60
  0
LINE
  8
RAILS
 10
119.06
 20
139.60
 11
127.00
 21
139.60
  0
LINE
  8
RAILS
 10
127.00
 20
139.60
 11
134.93
 21
139.60
  0
LINE
  8
RAILS
 10
134.93
 20
139.60
 11
142.87
 21
139.60
  0
LINE
  8
RAILS
 10
142.87
 20
139.60
 11
150.81
 21
139.60
  0
LINE
  8
RAILS
 10
150.81
 20
139.60
 11
158.75
 21
139.60
  0
LINE
  8
RAILS
 10
158.75
 20
139.60
 11
166.68
 21
139.60
  0
LINE
  8
RAILS
 10
166.68
 20
139.60
 11
174.62
 21
139.60
  0
LINE
  8
RAILS
 10
174.62
 20
139.60
 11
182.56
 21
139.60
  0
LINE
  8
RAILS
 10
182.56
 20
139.60
 11
190.49
 21
139.60
  0
LINE
  8
RAILS
 10
190.49
 20
139.60
 11
198.43
 21
139.60
  0
LINE
  8
RAILS
 10
198.43
 20
139.60
 11
206.37
 21
139.60
  0
LINE
  8
RAILS
 10
206.37
 20
139.60
 11
214.31
 21
139.60
  0
LINE
  8
RAILS
 10
214.31
 20
139.60
 11
222.24
 21
139.60
  0
LINE
  8
RAILS
 10
222.24
 20
139.60
 11
230.18
 21
139.60
  0
LINE
  8
RAILS
 10
230.18
 20
139.60
 11
238.12
 21
139.60
  0
LINE
  8
RAILS
 10
238.12
 20
139.60
 11
246.05
 21
139.60
  0
LINE
  8
RAILS
 10
246.05
 20
139.60
 11
253.99
 21
139.60
  0
LINE
  8
RAILS
 10
253.99
 20
139.60
 11
261.93
 21
139.60
  0
LINE
  8
RAILS
 10
261.93
 20
139.60
 11
269.87
 21
139.60
  0
LINE
  8
RAILS
 10
269.87
 20
139.60
 11
277.80
 21
139.60
  0
LINE
  8
RAILS
 10
277.80
 20
139.60
 11
285.74
 21
139.60
  0
LINE
  8
RAILS
 10
285.74
 20
139.60
 11
293.68
 21
139.60
  0
LINE
  8
RAILS
 10
293.68
 20
139.60
 11
301.62
 21
139.60
  0
LINE
  8
RAILS
 10
301.62
 20
139.60
 11
309.55
 21
139.60
  0
LINE
  8
RAILS
 10
309.55
 20
139.60
 11
317.49
 21
139.60
  0
LINE
  8
RAILS
 10
317.49
 20
139.60
 11
325.43
 21
139.60
  0
LINE
  8
RAILS
 10
325.43
 20
139.60
 11
333.36
 21
139.60
  0
LINE
  8
RAILS
 10
333.36
 20
139.60
 11
341.30
 21
139.60
  0
LINE
  8
RAILS
 10
341.30
 20
139.60
 11
349.24
 21
139.60
  0
LINE
  8
RAILS
 10
349.24
 20
139.60
 11
357.18
 21
139.60
  0
LINE
  8
RAILS
 10
357.18
 20
139.60
 11
365.11
 21
139.60
  0
LINE
  8
RAILS
 10
365.11
 20
139.60
 11
373.05
 21
139.60
  0
LINE
  8
RAILS
 10
373.05
 20
139.60
 11
380.99
 21
139.60
  0
LINE
  8
RAILS
 10
380.99
 20
139.60
 11
388.93
 21
139.60
  0
LINE
  8
RAILS
 10
388.93
 20
139.60
 11
396.86
 21
139.60
  0
LINE
  8
RAILS
 10
396.86
 20
139.60
 11
404.80
 21
139.60
  0
LINE
  8
RAILS
 10
404.80
 20
139.60
 11
412.74
 21
139.60
  0
LINE
  8
RAILS
 10
412.74
 20
139.60
 11
420.67
 21
139.60
  0
LINE
  8
RAILS
 10
420.67
 20
139.60
 11
428.61
 21
139.60
  0
LINE
  8
RAILS
 10
428.61
 20
139.60
 11
436.55
 21
139.60
  0
LINE
  8
RAILS
 10
436.55
 20
139.60
 11
444.49
 21
139.60
  0
LINE
  8
RAILS
 10
444.49
 20
139.60
 11
452.42
 21
139.60
  0
LINE
  8
RAILS
 10
452.42
 20
139.60
 11
460.36
 21
139.60
  0
LINE
  8
RAILS
 10
460.36
 20
139.60
 11
468.30
 21
139.60
  0
LINE
  8
RAILS
 10
468.30
 20
139.60
 11
476.24
 21
139.60
  0
LINE
  8
RAILS
 10
476.24
 20
139.60
 11
484.17
 21
139.60
  0
LINE
  8
RAILS
 10
484.17
 20
139.60
 11
492.11
 21
139.60
  0
LINE
  8
RAILS
 10
492.11
 20
139.60
 11
500.05
 21
139.60
  0
LINE
  8
RAILS
 10
500.05
 20
139.60
 11
507.98
 21
139.60
  0
LINE
  8
RAILS
 10
507.98
 20
139.60
 11
515.92
 21
139.60
  0
LINE
  8
RAILS
 10
515.92
 20
139.60
 11
519.49
 21
139.60
  0
LINE
  8
RAILS
 10
88.75
 20
104.40
 11
96.69
 21
104.40
  0
LINE
  8
RAILS
 10
96.69
 20
104.40
 11
104.62
 21
104.40
  0
LINE
  8
RAILS
 10
104.62
 20
104.40
 11
112.56
 21
104.40
  0
LINE
  8
RAILS
 10
112.56
 20
104.40
 11
120.50
 21
104.40
  0
LINE
  8
RAILS
 10
120.50
 20
104.40
 11
128.44
 21
104.40
  0
LINE
  8
RAILS
 10
128.44
 20
104.40
 11
136.37
 21
104.40
  0
LINE
  8
RAILS
 10
136.37
 20
104.40
 11
144.31
 21
104.40
  0
LINE
  8
RAILS
 10
144.31
 20
104.40
 11
152.25
 21
104.40
  0
LINE
  8
RAILS
 10
152.25
 20
104.40
 11
160.18
 21
104.40
  0
LINE
  8
RAILS
 10
160.18
 20
104.40
 11
168.12
 21
104.40
  0
LINE
  8
RAILS
 10
168.12
 20
104.40
 11
176.06
 21
104.40
  0
LINE
  8
RAILS
 10
176.06
 20
104.40
 11
184.00
 21
104.40
  0
LINE
  8
RAILS
 10
184.00
 20
104.40
 11
191.93
 21
104.40
  0
LINE
  8
RAILS
 10
191.93
 20
104.40
 11
199.87
 21
104.40
  0
LINE
  8
RAILS
 10
199.87
 20
104.40
 11
207.81
 21
104.40
  0
LINE
  8
RAILS
 10
207.81
 20
104.40
 11
215.75
 21
104.40
  0
LINE
  8
RAILS
 10
215.75
 20
104.40
 11
223.68
 21
104.40
  0
LINE
  8
RAILS
 10
223.68
 20
104.40
 11
231.62
 21
104.40
  0
LINE
  8
RAILS
 10
231.62
 20
104.40
 11
239.56
 21
104.40
  0
LINE
  8
RAILS
 10
239.56
 20
104.40
 11
247.49
 21
104.40
  0
LINE
  8
RAILS
 10
247.49
 20
104.40
 11
255.43
 21
104.40
  0
LINE
  8
RAILS
 10
255.43
 20
104.40
 11
263.37
 21
104.40
  0
LINE
  8
RAILS
 10
263.37
 20
104.40
 11
271.31
 21
104.40
  0
LINE
  8
RAILS
 10
271.31
 20
104.40
 11
279.24
 21
104.40
  0
LINE
  8
RAILS
 10
279.24
 20
104.40
 11
287.18
 21
104.40
  0
LINE
  8
RAILS
 10
287.18
 20
104.40
 11
295.12
 21
104.40
  0
LINE
  8
RAILS
 10
295.12
 20
104.40
 11
303.05
 21
104.40
  0
LINE
  8
RAILS
 10
303.05
 20
104.40
 11
310.99
 21
104.40
  0
LINE
  8
RAILS
 10
310.99
 20
104.40
 11
318.93
 21
104.40
  0
LINE
  8
RAILS
 10
318.93
 20
104.40
 11
326.87
 21
104.40
  0
LINE
  8
RAILS
 10
326.87
 20
104.40
 11
334.80
 21
104.40
  0
LINE
  8
RAILS
 10
334.80
 20
104.40
 11
342.74
 21
104.40
  0
LINE
  8
RAILS
 10
342.74
 20
104.40
 11
350.68
 21
104.40
  0
LINE
  8
RAILS
 10
350.68
 20
104.40
 11
358.62
 21
104.40
  0
LINE
  8
RAILS
 10
358.62
 20
104.40
 11
366.55
 21
104.40
  0
LINE
  8
RAILS
 10
366.55
 20
104.40
 11
374.49
 21
104.40
  0
LINE
  8
RAILS
 10
374.49
 20
104.40
 11
382.43
 21
104.40
  0
LINE
  8
RAILS
 10
382.43
 20
104.40
 11
390.36
 21
104.40
  0
LINE
  8
RAILS
 10
390.36
 20
104.40
 11
398.30
 21
104.40
  0
LINE
  8
RAILS
 10
398.30
 20
104.40
 11
403.98
 21
104.40
  0
LINE
  8
RAILS
 10
403.98
 20
104.40
 11
403.98
 21
104.40
  0
LINE
  8
RAILS
 10
403.98
 20
104.40
 11
411.91
 21
103.07
  0
LINE
  8
RAILS
 10
411.91
 20
103.07
 11
419.85
 21
101.75
  0
LINE
  8
RAILS
 10
419.85
 20
101.75
 11
425.98
 21
100.73
  0
LINE
  8
RAILS
 10
425.98
 20
100.73
 11
425.98
 21
100.73
  0
LINE
  8
RAILS
 10
425.98
 20
100.73
 11
433.91
 21
98.91
  0
LINE
  8
RAILS
 10
433.91
 20
98.91
 11
441.85
 21
97.10
  0
LINE
  8
RAILS
 10
441.85
 20
97.10
 11
446.44
 21
96.05
  0
LINE
  8
RAILS
 10
89.28
 20
138.00
 11
97.21
 21
137.74
  0
LINE
  8
RAILS
 10
97.21
 20
137.74
 11
105.15
 21
137.47
  0
LINE
  8
RAILS
 10
105.15
 20
137.47
 11
113.09
 21
137.19
  0
LINE
  8
RAILS
 10
113.09
 20
137.19
 11
121.02
 21
136.89
  0
LINE
  8
RAILS
 10
121.02
 20
136.89
 11
128.96
 21
136.58
  0
LINE
  8
RAILS
 10
128.96
 20
136.58
 11
136.90
 21
136.25
  0
LINE
  8
RAILS
 10
136.90
 20
136.25
 11
144.84
 21
135.90
  0
LINE
  8
RAILS
 10
144.84
 20
135.90
 11
152.77
 21
135.55
  0
LINE
  8
RAILS
 10
152.77
 20
135.55
 11
160.71
 21
135.17
  0
LINE
  8
RAILS
 10
160.71
 20
135.17
 11
168.65
 21
134.78
  0
LINE
  8
RAILS
 10
168.65
 20
134.78
 11
176.58
 21
134.38
  0
LINE
  8
RAILS
 10
176.58
 20
134.38
 11
184.52
 21
133.96
  0
LINE
  8
RAILS
 10
184.52
 20
133.96
 11
187.92
 21
133.78
  0
LINE
  8
RAILS
 10
187.92
 20
133.78
 11
187.92
 21
133.78
  0
LINE
  8
RAILS
 10
187.92
 20
133.78
 11
195.86
 21
133.33
  0
LINE
  8
RAILS
 10
195.86
 20
133.33
 11
203.79
 21
132.85
  0
LINE
  8
RAILS
 10
203.79
 20
132.85
 11
211.73
 21
132.34
  0
LINE
  8
RAILS
 10
211.73
 20
132.34
 11
219.67
 21
131.79
  0
LINE
  8
RAILS
 10
219.67
 20
131.79
 11
227.61
 21
131.20
  0
LINE
  8
RAILS
 10
227.61
 20
131.20
 11
235.54
 21
130.59
  0
LINE
  8
RAILS
 10
235.54
 20
130.59
 11
243.48
 21
129.93
  0
LINE
  8
RAILS
 10
243.48
 20
129.93
 11
251.42
 21
129.25
  0
LINE
  8
RAILS
 10
251.42
 20
129.25
 11
259.36
 21
128.53
  0
LINE
  8
RAILS
 10
259.36
 20
128.53
 11
267.29
 21
127.78
  0
LINE
  8
RAILS
 10
267.29
 20
127.78
 11
275.23
 21
126.99
  0
LINE
  8
RAILS
 10
275.23
 20
126.99
 11
283.17
 21
126.17
  0
LINE
  8
RAILS
 10
283.17
 20
126.17
 11
291.10
 21
125.31
  0
LINE
  8
RAILS
 10
291.10
 20
125.31
 11
299.04
 21
124.42
  0
LINE
  8
RAILS
 10
299.04
 20
124.42
 11
306.98
 21
123.49
  0
LINE
  8
RAILS
 10
306.98
 20
123.49
 11
314.92
 21
122.53
  0
LINE
  8
RAILS
 10
314.92
 20
122.53
 11
322.85
 21
121.54
  0
LINE
  8
RAILS
 10
322.85
 20
121.54
 11
330.79
 21
120.51
  0
LINE
  8
RAILS
 10
330.79
 20
120.51
 11
338.73
 21
119.45
  0
LINE
  8
RAILS
 10
338.73
 20
119.45
 11
346.67
 21
118.35
  0
LINE
  8
RAILS
 10
346.67
 20
118.35
 11
354.60
 21
117.22
  0
LINE
  8
RAILS
 10
354.60
 20
117.22
 11
362.54
 21
116.05
  0
LINE
  8
RAILS
 10
362.54
 20
116.05
 11
370.48
 21
114.85
  0
LINE
  8
RAILS
 10
370.48
 20
114.85
 11
378.41
 21
113.62
  0
LINE
  8
RAILS
 10
378.41
 20
113.62
 11
386.35
 21
112.34
  0
LINE
  8
RAILS
 10
386.35
 20
112.34
 11
394.02
 21
111.08
  0
LINE
  8
RAILS
 10
394.02
 20
111.08
 11
394.02
 21
111.08
  0
LINE
  8
RAILS
 10
394.02
 20
111.08
 11
401.95
 21
109.76
  0
LINE
  8
RAILS
 10
401.95
 20
109.76
 11
404.39
 21
109.35
  0
LINE
  8
RAILS
 10
404.39
 20
109.35
 11
404.39
 21
109.35
  0
LINE
  8
RAILS
 10
404.39
 20
109.35
 11
412.32
 21
109.35
  0
LINE
  8
RAILS
 10
412.32
 20
109.35
 11
420.26
 21
109.35
  0
LINE
  8
RAILS
 10
420.26
 20
109.35
 11
426.69
 21
109.35
  0
LINE
  8
RAILS
 10
426.69
 20
109.35
 11
426.69
 21
109.35
  0
LINE
  8
RAILS
 10
426.69
 20
109.35
 11
434.63
 21
109.83
  0
LINE
  8
RAILS
 10
434.63
 20
109.83
 11
442.57
 21
110.30
  0
LINE
  8
RAILS
 10
442.57
 20
110.30
 11
447.64
 21
110.60
  0
LINE
  8
RAILS
 10
0.00
 20
104.40
 11
7.94
 21
104.40
  0
LINE
  8
RAILS
 10
7.94
 20
104.40
 11
15.87
 21
104.40
  0
LINE
  8
RAILS
 10
15.87
 20
104.40
 11
23.81
 21
104.40
  0
LINE
  8
RAILS
 10
23.81
 20
104.40
 11
31.75
 21
104.40
  0
LINE
  8
RAILS
 10
31.75
 20
104.40
 11
37.39
 21
104.40
  0
LINE
  8
RAILS
 10
37.39
 20
104.40
 11
37.39
 21
104.40
  0
LINE
  8
RAILS
 10
37.39
 20
104.40
 11
45.33
 21
104.15
  0
LINE
  8
RAILS
 10
45.33
 20
104.15
 11
53.27
 21
103.90
  0
LINE
  8
RAILS
 10
53.27
 20
103.90
 11
61.20
 21
103.65
  0
LINE
  8
RAILS
 10
61.20
 20
103.65
 11
69.14
 21
103.40
  0
LINE
  8
RAILS
 10
69.14
 20
103.40
 11
77.08
 21
103.16
  0
LINE
  8
RAILS
 10
77.08
 20
103.16
 11
85.02
 21
102.91
  0
LINE
  8
RAILS
 10
85.02
 20
102.91
 11
88.18
 21
102.81
  0
LINE
  8
RAILS
 10
88.18
 20
102.81
 11
88.18
 21
102.81
  0
LINE
  8
RAILS
 10
88.18
 20
102.81
 11
96.11
 21
102.55
  0
LINE
  8
RAILS
 10
96.11
 20
102.55
 11
104.05
 21
102.28
  0
LINE
  8
RAILS
 10
104.05
 20
102.28
 11
111.99
 21
102.00
  0
LINE
  8
RAILS
 10
111.99
 20
102.00
 11
119.92
 21
101.70
  0
LINE
  8
RAILS
 10
119.92
 20
101.70
 11
127.86
 21
101.38
  0
LINE
  8
RAILS
 10
127.86
 20
101.38
 11
135.80
 21
101.05
  0
LINE
  8
RAILS
 10
135.80
 20
101.05
 11
143.74
 21
100.71
  0
LINE
  8
RAILS
 10
143.74
 20
100.71
 11
151.67
 21
100.35
  0
LINE
  8
RAILS
 10
151.67
 20
100.35
 11
159.61
 21
99.98
  0
LINE
  8
RAILS
 10
159.61
 20
99.98
 11
167.55
 21
99.59
  0
LINE
  8
RAILS
 10
167.55
 20
99.59
 11
175.49
 21
99.18
  0
LINE
  8
RAILS
 10
175.49
 20
99.18
 11
183.42
 21
98.76
  0
LINE
  8
RAILS
 10
183.42
 20
98.76
 11
186.01
 21
98.62
  0
LINE
  8
RAILS
 10
186.01
 20
98.62
 11
186.01
 21
98.62
  0
LINE
  8
RAILS
 10
186.01
 20
98.62
 11
193.95
 21
98.18
  0
LINE
  8
RAILS
 10
193.95
 20
98.18
 11
201.89
 21
97.69
  0
LINE
  8
RAILS
 10
201.89
 20
97.69
 11
209.82
 21
97.18
  0
LINE
  8
RAILS
 10
209.82
 20
97.18
 11
217.76
 21
96.62
  0
LINE
  8
RAILS
 10
217.76
 20
96.62
 11
225.70
 21
96.04
  0
LINE
  8
RAILS
 10
225.70
 20
96.04
 11
233.64
 21
95.42
  0
LINE
  8
RAILS
 10
233.64
 20
95.42
 11
241.57
 21
94.76
  0
LINE
  8
RAILS
 10
241.57
 20
94.76
 11
249.51
 21
94.07
  0
LINE
  8
RAILS
 10
249.51
 20
94.07
 11
257.45
 21
93.35
  0
LINE
  8
RAILS
 10
257.45
 20
93.35
 11
265.38
 21
92.59
  0
LINE
  8
RAILS
 10
265.38
 20
92.59
 11
273.32
 21
91.79
  0
LINE
  8
RAILS
 10
273.32
 20
91.79
 11
281.26
 21
90.96
  0
LINE
  8
RAILS
 10
281.26
 20
90.96
 11
289.20
 21
90.10
  0
LINE
  8
RAILS
 10
289.20
 20
90.10
 11
297.13
 21
89.20
  0
LINE
  8
RAILS
 10
297.13
 20
89.20
 11
305.07
 21
88.26
  0
LINE
  8
RAILS
 10
305.07
 20
88.26
 11
313.01
 21
87.29
  0
LINE
  8
RAILS
 10
313.01
 20
87.29
 11
320.94
 21
86.29
  0
LINE
  8
RAILS
 10
320.94
 20
86.29
 11
328.88
 21
85.25
  0
LINE
  8
RAILS
 10
328.88
 20
85.25
 11
336.82
 21
84.17
  0
LINE
  8
RAILS
 10
336.82
 20
84.17
 11
344.76
 21
83.06
  0
LINE
  8
RAILS
 10
344.76
 20
83.06
 11
352.69
 21
81.92
  0
LINE
  8
RAILS
 10
352.69
 20
81.92
 11
360.63
 21
80.74
  0
LINE
  8
RAILS
 10
360.63
 20
80.74
 11
368.57
 21
79.52
  0
LINE
  8
RAILS
 10
368.57
 20
79.52
 11
376.51
 21
78.27
  0
LINE
  8
RAILS
 10
376.51
 20
78.27
 11
384.44
 21
76.98
  0
LINE
  8
RAILS
 10
384.44
 20
76.98
 11
388.23
 21
76.35
  0
LINE
  8
RAILS
 10
388.23
 20
76.35
 11
388.23
 21
76.35
  0
LINE
  8
RAILS
 10
388.23
 20
76.35
 11
396.17
 21
75.03
  0
LINE
  8
RAILS
 10
396.17
 20
75.03
 11
404.10
 21
73.71
  0
LINE
  8
RAILS
 10
404.10
 20
73.71
 11
412.04
 21
72.38
  0
LINE
  8
RAILS
 10
412.04
 20
72.38
 11
419.98
 21
71.06
  0
LINE
  8
RAILS
 10
419.98
 20
71.06
 11
427.91
 21
69.74
  0
LINE
  8
RAILS
 10
427.91
 20
69.74
 11
435.85
 21
68.42
  0
LINE
  8
RAILS
 10
435.85
 20
68.42
 11
443.79
 21
67.09
  0
LINE
  8
RAILS
 10
443.79
 20
67.09
 11
451.73
 21
65.77
  0
LINE
  8
RAILS
 10
451.73
 20
65.77
 11
459.66
 21
64.45
  0
LINE
  8
RAILS
 10
459.66
 20
64.45
 11
467.60
 21
63.12
  0
LINE
  8
RAILS
 10
467.60
 20
63.12
 11
475.54
 21
61.80
  0
LINE
  8
RAILS
 10
475.54
 20
61.80
 11
483.48
 21
60.48
  0
LINE
  8
RAILS
 10
483.48
 20
60.48
 11
491.41
 21
59.16
  0
LINE
  8
RAILS
 10
491.41
 20
59.16
 11
493.92
 21
58.74
  0
LINE
  8
RAILS
 10
434.14
 20
104.40
 11
442.07
 21
104.40
  0
LINE
  8
RAILS
 10
442.07
 20
104.40
 11
450.01
 21
104.40
  0
LINE
  8
RAILS
 10
450.01
 20
104.40
 11
457.95
 21
104.40
  0
LINE
  8
RAILS
 10
457.95
 20
104.40
 11
465.88
 21
104.40
  0
LINE
  8
RAILS
 10
465.88
 20
104.40
 11
473.82
 21
104.40
  0
LINE
  8
RAILS
 10
473.82
 20
104.40
 11
481.76
 21
104.40
  0
LINE
  8
RAILS
 10
481.76
 20
104.40
 11
489.70
 21
104.40
  0
LINE
  8
RAILS
 10
489.70
 20
104.40
 11
497.63
 21
104.40
  0
LINE
  8
RAILS
 10
497.63
 20
104.40
 11
505.57
 21
104.40
  0
LINE
  8
RAILS
 10
505.57
 20
104.40
 11
513.51
 21
104.40
  0
LINE
  8
RAILS
 10
513.51
 20
104.40
 11
519.49
 21
104.40
  0
LINE
  8
RAILS
 10
434.14
 20
104.40
 11
442.07
 21
103.07
  0
LINE
  8
RAILS
 10
442.07
 20
103.07
 11
450.01
 21
101.75
  0
LINE
  8
RAILS
 10
450.01
 20
101.75
 11
457.95
 21
100.43
  0
LINE
  8
RAILS
 10
457.95
 20
100.43
 11
465.88
 21
99.10
  0
LINE
  8
RAILS
 10
465.88
 20
99.10
 11
473.82
 21
97.78
  0
LINE
  8
RAILS
 10
473.82
 20
97.78
 11
481.76
 21
96.46
  0
LINE
  8
RAILS
 10
481.76
 20
96.46
 11
489.70
 21
95.14
  0
LINE
  8
RAILS
 10
489.70
 20
95.14
 11
497.63
 21
93.81
  0
LINE
  8
RAILS
 10
497.63
 20
93.81
 11
499.71
 21
93.47
  0
LINE
  8
RAILS
 10
356.83
 20
133.40
 11
364.77
 21
133.87
  0
LINE
  8
RAILS
 10
364.77
 20
133.87
 11
372.71
 21
134.34
  0
LINE
  8
RAILS
 10
372.71
 20
134.34
 11
377.79
 21
134.65
  0
LINE
  8
RAILS
 10
377.79
 20
134.65
 11
377.79
 21
134.65
  0
LINE
  8
RAILS
 10
377.79
 20
134.65
 11
385.72
 21
134.65
  0
LINE
  8
RAILS
 10
385.72
 20
134.65
 11
393.66
 21
134.65
  0
LINE
  8
RAILS
 10
393.66
 20
134.65
 11
401.60
 21
134.65
  0
LINE
  8
RAILS
 10
401.60
 20
134.65
 11
409.54
 21
134.65
  0
LINE
  8
RAILS
 10
409.54
 20
134.65
 11
417.47
 21
134.65
  0
LINE
  8
RAILS
 10
417.47
 20
134.65
 11
425.41
 21
134.65
  0
LINE
  8
RAILS
 10
425.41
 20
134.65
 11
426.69
 21
134.65
  0
LINE
  8
RAILS
 10
426.69
 20
134.65
 11
426.69
 21
134.65
  0
LINE
  8
RAILS
 10
426.69
 20
134.65
 11
434.63
 21
134.17
  0
LINE
  8
RAILS
 10
434.63
 20
134.17
 11
442.57
 21
133.70
  0
LINE
  8
RAILS
 10
442.57
 20
133.70
 11
447.64
 21
133.40
  0
LINE
  8
RAILS
 10
358.07
 20
87.41
 11
366.00
 21
85.72
  0
LINE
  8
RAILS
 10
366.00
 20
85.72
 11
373.94
 21
83.99
  0
LINE
  8
RAILS
 10
373.94
 20
83.99
 11
378.61
 21
82.96
  0
LINE
  8
RAILS
 10
378.61
 20
82.96
 11
378.61
 21
82.96
  0
LINE
  8
RAILS
 10
378.61
 20
82.96
 11
386.54
 21
81.66
  0
LINE
  8
RAILS
 10
386.54
 20
81.66
 11
394.48
 21
80.34
  0
LINE
  8
RAILS
 10
394.48
 20
80.34
 11
402.42
 21
79.01
  0
LINE
  8
RAILS
 10
402.42
 20
79.01
 11
410.04
 21
77.74
  0
LINE
  8
RAILS
 10
410.04
 20
77.74
 11
410.04
 21
77.74
  0
LINE
  8
RAILS
 10
410.04
 20
77.74
 11
417.98
 21
76.42
  0
LINE
  8
RAILS
 10
417.98
 20
76.42
 11
425.92
 21
75.10
  0
LINE
  8
RAILS
 10
425.92
 20
75.10
 11
426.86
 21
74.94
  0
LINE
  8
RAILS
 10
426.86
 20
74.94
 11
426.86
 21
74.94
  0
LINE
  8
RAILS
 10
426.86
 20
74.94
 11
434.80
 21
74.10
  0
LINE
  8
RAILS
 10
434.80
 20
74.10
 11
442.73
 21
73.26
  0
LINE
  8
RAILS
 10
442.73
 20
73.26
 11
447.73
 21
72.73
  0
LINE
  8
RAILS
 10
446.80
 20
97.62
 11
446.44
 21
96.05
  0
LINE
  8
RAILS
 10
447.74
 20
109.00
 11
447.64
 21
110.60
  0
LINE
  8
RAILS
 10
356.74
 20
135.00
 11
356.83
 21
133.40
  0
LINE
  8
RAILS
 10
447.74
 20
135.00
 11
447.64
 21
133.40
  0
LINE
  8
RAILS
 10
357.74
 20
85.84
 11
358.07
 21
87.41
  0
LINE
  8
RAILS
 10
447.56
 20
71.13
 11
447.73
 21
72.73
  0
LINE
  8
RAILS
 10
417.41
 20
106.00
 11
417.37
 21
105.56
  0
ENDSEC
  0
EOF
