  0
SECTION
  2
HEADER
  0
ENDSEC
  0
SECTION
  2
TABLES
  0
TABLE
  2
LTYPE
 70
10
  0
LTYPE
  2
CONTINUOUS
 70
64
  3
solid line
 72
65
 73
0
 40
0.0
  0
LTYPE
  2
DASHED
 70
0
  3
__ __ __ __ __ __ __ __ __ __ __ __ __ __ __
 72
65
 73
2
 40
0.75
 49
0.5
 49
-0.25
  0
LTYPE
  2
HIDDEN
 70
0
  3
_ _ _ _ _ _ _ _ _ _ _ _ _ _ _ _ _ _ _ _ _ _
 72
65
 73
2
 40
0.375
 49
0.25
 49
-0.125
  0
LTYPE
  2
CENTER
 70
0
  3
____ _ ____ _ ____ _ ____ _ ____ _ ____ _ __
 72
65
 73
4
 40
2.0
 49
1.25
 49
-0.25
 49
0.25
 49
-0.25
  0
LTYPE
  2
PHANTOM
 70
0
  3
_____ _ _ _____ _ _ _____ _ _ _____ _ _ ____
 72
65
 73
6
 40
2.5
 49
1.25
 49
-0.25
 49
0.25
 49
-0.25
 49
0.25
 49
-0.25
  0
LTYPE
  2
DOT
 70
0
  3
............................................
 72
65
 73
2
 40
0.25
 49
0.0
 49
-0.25
  0
LTYPE
  2
DASHDOT
 70
0
  3
__ . __ . __ . __ . __ . __ . __ . __ . __ .
 72
65
 73
4
 40
1.0
 49
0.5
 49
-0.25
 49
0.0
 49
-0.25
  0
LTYPE
  2
BORDER
 70
0
  3
__ __ . __ __ . __ __ . __ __ . __ __ . __ _
 72
65
 73
6
 40
1.75
 49
0.5
 49
-0.25
 49
0.5
 49
-0.25
 49
0.0
 49
-0.25
  0
LTYPE
  2
DIVIDE
 70
0
  3
__ . . __ . . __ . . __ . . __ . . __ . . __
 72
65
 73
6
 40
1.25
 49
0.5
 49
-0.25
 49
0.0
 49
-0.25
 49
0.0
 49
-0.25
  0
LTYPE
  2
DIVIDE2
 70
0
  3
__..__..__..__..__..__..__..__..__..__..__..__.
 72
65
 73
8
 40
0.9
 49
0.25
 49
-0.1
 49
0.25
 49
-0.1
 49
0.0
 49
-0.1
 49
0.0
 49
-0.1
  0
ENDTAB
  0
TABLE
  2
LAYER
 70
23
  0
LAYER
  2
ADJTRACK
 70
0
  6
CONTINUOUS
 62
8
  0
LAYER
  2
CENTLINE
 70
0
  6
CENTER
 62
6
  0
LAYER
  2
TIMBOUTL
 70
0
  6
CONTINUOUS
 62
5
  0
LAYER
  2
SLEEPEND
 70
0
  6
CONTINUOUS
 62
1
  0
LAYER
  2
TIMBCENT
 70
0
  6
CENTER
 62
4
  0
LAYER
  2
GDMARKS
 70
0
  6
CONTINUOUS
 62
1
  0
LAYER
  2
RADMARKS
 70
0
  6
CONTINUOUS
 62
3
  0
LAYER
  2
JOINTS
 70
0
  6
CONTINUOUS
 62
7
  0
LAYER
  2
SBGSHAPE
 70
0
  6
CONTINUOUS
 62
1
  0
LAYER
  2
DBGSHAPE
 70
0
  6
HIDDEN
 62
1
  0
LAYER
  2
INFOTEXT
 70
0
  6
CONTINUOUS
 62
5
  0
LAYER
  2
TIMBNUMB
 70
0
  6
CONTINUOUS
 62
3
  0
LAYER
  2
RLSIDE3D
 70
0
  6
CONTINUOUS
 62
130
  0
LAYER
  2
CHBOLTHD
 70
0
  6
CONTINUOUS
 62
9
  0
LAYER
  2
CHAIRS
 70
0
  6
CONTINUOUS
 62
30
  0
LAYER
  2
TIMBER3D
 70
0
  6
CONTINUOUS
 62
8
  0
LAYER
  2
CHMARKER
 70
0
  6
CONTINUOUS
 62
30
  0
LAYER
  2
CHBOLTBO
 70
0
  6
CONTINUOUS
 62
30
  0
LAYER
  2
CHINJAW
 70
0
  6
CONTINUOUS
 62
30
  0
LAYER
  2
CHOUTJAW
 70
0
  6
CONTINUOUS
 62
30
  0
LAYER
  2
CHKEYS
 70
0
  6
CONTINUOUS
 62
64
  0
ENDTAB
  0
ENDSEC
  0
SECTION
  2
BLOCKS
  0
BLOCK
  2
S1L
  0
3DFACE
  8
CHMARKER
 10
-0.0517
 20
0.0000
 30
-0.0750
 11
0.0517
 21
0.0000
 31
-0.0750
 12
0.0517
 22
-0.0361
 32
-0.0750
 13
-0.0517
 23
-0.0361
 33
-0.0750
  0
3DFACE
  8
CHMARKER
 10
-0.0262
 20
-0.0361
 30
-0.0750
 11
0.0262
 21
-0.0361
 31
-0.0750
 12
0.0262
 22
-0.0525
 32
-0.0750
 13
-0.0262
 23
-0.0525
 33
-0.0750
  0
3DFACE
  8
CHMARKER
 10
-0.0262
 20
-0.0525
 30
-0.0750
 11
-0.0394
 21
-0.0525
 31
-0.0882
 12
0.0394
 22
-0.0525
 32
-0.0882
 13
0.0262
 23
-0.0525
 33
-0.0750
  0
3DFACE
  8
CHMARKER
 10
-0.0517
 20
0.0000
 30
-0.0750
 11
-0.0525
 21
0.0000
 31
-0.0931
 12
-0.0525
 22
-0.0361
 32
-0.0931
 13
-0.0517
 23
-0.0361
 33
-0.0750
  0
3DFACE
  8
CHMARKER
 10
0.0517
 20
0.0000
 30
-0.0750
 11
0.0525
 21
0.0000
 31
-0.0931
 12
0.0525
 22
-0.0361
 32
-0.0931
 13
0.0517
 23
-0.0361
 33
-0.0750
  0
3DFACE
  8
CHMARKER
 10
-0.0262
 20
0.0164
 30
-0.0882
 11
-0.0262
 21
0.0000
 31
-0.0750
 12
-0.0262
 22
0.0000
 32
-0.0882
 13
-0.0262
 23
0.0164
 33
-0.0882
  0
3DFACE
  8
CHMARKER
 10
-0.0262
 20
0.0000
 30
-0.0750
 11
0.0262
 21
0.0000
 31
-0.0750
 12
0.0262
 22
0.0000
 32
-0.0882
 13
-0.0262
 23
0.0000
 33
-0.0882
  0
3DFACE
  8
CHMARKER
 10
0.0262
 20
0.0164
 30
-0.0882
 11
0.0262
 21
0.0000
 31
-0.0750
 12
0.0262
 22
0.0000
 32
-0.0882
 13
0.0262
 23
0.0164
 33
-0.0882
  0
3DFACE
  8
CHMARKER
 10
-0.0525
 20
0.0000
 30
-0.0931
 11
-0.0517
 21
0.0000
 31
-0.0750
 12
-0.0394
 22
0.0164
 32
-0.0882
 13
-0.0525
 23
0.0000
 33
-0.0931
  0
3DFACE
  8
CHMARKER
 10
-0.0517
 20
0.0000
 30
-0.0750
 11
-0.0262
 21
0.0000
 31
-0.0750
 12
-0.0262
 22
0.0164
 32
-0.0882
 13
-0.0394
 23
0.0164
 33
-0.0882
  0
3DFACE
  8
CHMARKER
 10
0.0525
 20
0.0000
 30
-0.0931
 11
0.0517
 21
0.0000
 31
-0.0750
 12
0.0394
 22
0.0164
 32
-0.0882
 13
0.0525
 23
0.0000
 33
-0.0931
  0
3DFACE
  8
CHMARKER
 10
0.0517
 20
0.0000
 30
-0.0750
 11
0.0262
 21
0.0000
 31
-0.0750
 12
0.0262
 22
0.0164
 32
-0.0882
 13
0.0394
 23
0.0164
 33
-0.0882
  0
3DFACE
  8
CHMARKER
 10
0.0525
 20
-0.0361
 30
-0.0931
 11
0.0517
 21
-0.0361
 31
-0.0750
 12
0.0394
 22
-0.0525
 32
-0.0882
 13
0.0525
 23
-0.0361
 33
-0.0931
  0
3DFACE
  8
CHMARKER
 10
0.0517
 20
-0.0361
 30
-0.0750
 11
0.0262
 21
-0.0361
 31
-0.0750
 12
0.0262
 22
-0.0525
 32
-0.0750
 13
0.0394
 23
-0.0525
 33
-0.0882
  0
3DFACE
  8
CHMARKER
 10
-0.0525
 20
-0.0361
 30
-0.0931
 11
-0.0517
 21
-0.0361
 31
-0.0750
 12
-0.0394
 22
-0.0525
 32
-0.0882
 13
-0.0525
 23
-0.0361
 33
-0.0931
  0
3DFACE
  8
CHMARKER
 10
-0.0517
 20
-0.0361
 30
-0.0750
 11
-0.0262
 21
-0.0361
 31
-0.0750
 12
-0.0262
 22
-0.0525
 32
-0.0750
 13
-0.0394
 23
-0.0525
 33
-0.0882
  0
ENDBLK
  0
BLOCK
  2
S1R
  0
3DFACE
  8
CHMARKER
 10
-0.0517
 20
0.0000
 30
-0.0750
 11
0.0517
 21
0.0000
 31
-0.0750
 12
0.0517
 22
0.0361
 32
-0.0750
 13
-0.0517
 23
0.0361
 33
-0.0750
  0
3DFACE
  8
CHMARKER
 10
-0.0262
 20
0.0361
 30
-0.0750
 11
0.0262
 21
0.0361
 31
-0.0750
 12
0.0262
 22
0.0525
 32
-0.0750
 13
-0.0262
 23
0.0525
 33
-0.0750
  0
3DFACE
  8
CHMARKER
 10
-0.0262
 20
0.0525
 30
-0.0750
 11
-0.0394
 21
0.0525
 31
-0.0882
 12
0.0394
 22
0.0525
 32
-0.0882
 13
0.0262
 23
0.0525
 33
-0.0750
  0
3DFACE
  8
CHMARKER
 10
-0.0517
 20
0.0000
 30
-0.0750
 11
-0.0525
 21
0.0000
 31
-0.0931
 12
-0.0525
 22
0.0361
 32
-0.0931
 13
-0.0517
 23
0.0361
 33
-0.0750
  0
3DFACE
  8
CHMARKER
 10
0.0517
 20
0.0000
 30
-0.0750
 11
0.0525
 21
0.0000
 31
-0.0931
 12
0.0525
 22
0.0361
 32
-0.0931
 13
0.0517
 23
0.0361
 33
-0.0750
  0
3DFACE
  8
CHMARKER
 10
-0.0262
 20
-0.0164
 30
-0.0882
 11
-0.0262
 21
0.0000
 31
-0.0750
 12
-0.0262
 22
0.0000
 32
-0.0882
 13
-0.0262
 23
-0.0164
 33
-0.0882
  0
3DFACE
  8
CHMARKER
 10
-0.0262
 20
0.0000
 30
-0.0750
 11
0.0262
 21
0.0000
 31
-0.0750
 12
0.0262
 22
0.0000
 32
-0.0882
 13
-0.0262
 23
0.0000
 33
-0.0882
  0
3DFACE
  8
CHMARKER
 10
0.0262
 20
-0.0164
 30
-0.0882
 11
0.0262
 21
0.0000
 31
-0.0750
 12
0.0262
 22
0.0000
 32
-0.0882
 13
0.0262
 23
-0.0164
 33
-0.0882
  0
3DFACE
  8
CHMARKER
 10
-0.0525
 20
0.0000
 30
-0.0931
 11
-0.0517
 21
0.0000
 31
-0.0750
 12
-0.0394
 22
-0.0164
 32
-0.0882
 13
-0.0525
 23
0.0000
 33
-0.0931
  0
3DFACE
  8
CHMARKER
 10
-0.0517
 20
0.0000
 30
-0.0750
 11
-0.0262
 21
0.0000
 31
-0.0750
 12
-0.0262
 22
-0.0164
 32
-0.0882
 13
-0.0394
 23
-0.0164
 33
-0.0882
  0
3DFACE
  8
CHMARKER
 10
0.0525
 20
0.0000
 30
-0.0931
 11
0.0517
 21
0.0000
 31
-0.0750
 12
0.0394
 22
-0.0164
 32
-0.0882
 13
0.0525
 23
0.0000
 33
-0.0931
  0
3DFACE
  8
CHMARKER
 10
0.0517
 20
0.0000
 30
-0.0750
 11
0.0262
 21
0.0000
 31
-0.0750
 12
0.0262
 22
-0.0164
 32
-0.0882
 13
0.0394
 23
-0.0164
 33
-0.0882
  0
3DFACE
  8
CHMARKER
 10
0.0525
 20
0.0361
 30
-0.0931
 11
0.0517
 21
0.0361
 31
-0.0750
 12
0.0394
 22
0.0525
 32
-0.0882
 13
0.0525
 23
0.0361
 33
-0.0931
  0
3DFACE
  8
CHMARKER
 10
0.0517
 20
0.0361
 30
-0.0750
 11
0.0262
 21
0.0361
 31
-0.0750
 12
0.0262
 22
0.0525
 32
-0.0750
 13
0.0394
 23
0.0525
 33
-0.0882
  0
3DFACE
  8
CHMARKER
 10
-0.0525
 20
0.0361
 30
-0.0931
 11
-0.0517
 21
0.0361
 31
-0.0750
 12
-0.0394
 22
0.0525
 32
-0.0882
 13
-0.0525
 23
0.0361
 33
-0.0931
  0
3DFACE
  8
CHMARKER
 10
-0.0517
 20
0.0361
 30
-0.0750
 11
-0.0262
 21
0.0361
 31
-0.0750
 12
-0.0262
 22
0.0525
 32
-0.0750
 13
-0.0394
 23
0.0525
 33
-0.0882
  0
ENDBLK
  0
BLOCK
  2
L1L
  0
3DFACE
  8
CHMARKER
 10
-0.0517
 20
0.0000
 30
-0.0750
 11
0.0517
 21
0.0000
 31
-0.0750
 12
0.0517
 22
-0.0361
 32
-0.0750
 13
-0.0517
 23
-0.0361
 33
-0.0750
  0
3DFACE
  8
CHMARKER
 10
-0.0262
 20
-0.0361
 30
-0.0750
 11
0.0262
 21
-0.0361
 31
-0.0750
 12
0.0262
 22
-0.0525
 32
-0.0750
 13
-0.0262
 23
-0.0525
 33
-0.0750
  0
3DFACE
  8
CHMARKER
 10
-0.0262
 20
-0.0525
 30
-0.0750
 11
-0.0492
 21
-0.0525
 31
-0.0882
 12
0.0492
 22
-0.0525
 32
-0.0882
 13
0.0262
 23
-0.0525
 33
-0.0750
  0
3DFACE
  8
CHMARKER
 10
-0.0517
 20
0.0000
 30
-0.0750
 11
-0.0722
 21
0.0000
 31
-0.0931
 12
-0.0722
 22
-0.0361
 32
-0.0931
 13
-0.0517
 23
-0.0361
 33
-0.0750
  0
3DFACE
  8
CHMARKER
 10
0.0517
 20
0.0000
 30
-0.0750
 11
0.0722
 21
0.0000
 31
-0.0931
 12
0.0722
 22
-0.0361
 32
-0.0931
 13
0.0517
 23
-0.0361
 33
-0.0750
  0
3DFACE
  8
CHMARKER
 10
-0.0262
 20
0.0164
 30
-0.0882
 11
-0.0262
 21
0.0000
 31
-0.0750
 12
-0.0262
 22
0.0000
 32
-0.0882
 13
-0.0262
 23
0.0164
 33
-0.0882
  0
3DFACE
  8
CHMARKER
 10
-0.0262
 20
0.0000
 30
-0.0750
 11
0.0262
 21
0.0000
 31
-0.0750
 12
0.0262
 22
0.0000
 32
-0.0882
 13
-0.0262
 23
0.0000
 33
-0.0882
  0
3DFACE
  8
CHMARKER
 10
0.0262
 20
0.0164
 30
-0.0882
 11
0.0262
 21
0.0000
 31
-0.0750
 12
0.0262
 22
0.0000
 32
-0.0882
 13
0.0262
 23
0.0164
 33
-0.0882
  0
3DFACE
  8
CHMARKER
 10
-0.0722
 20
0.0000
 30
-0.0931
 11
-0.0517
 21
0.0000
 31
-0.0750
 12
-0.0492
 22
0.0164
 32
-0.0882
 13
-0.0722
 23
0.0000
 33
-0.0931
  0
3DFACE
  8
CHMARKER
 10
-0.0517
 20
0.0000
 30
-0.0750
 11
-0.0262
 21
0.0000
 31
-0.0750
 12
-0.0262
 22
0.0164
 32
-0.0882
 13
-0.0492
 23
0.0164
 33
-0.0882
  0
3DFACE
  8
CHMARKER
 10
0.0722
 20
0.0000
 30
-0.0931
 11
0.0517
 21
0.0000
 31
-0.0750
 12
0.0492
 22
0.0164
 32
-0.0882
 13
0.0722
 23
0.0000
 33
-0.0931
  0
3DFACE
  8
CHMARKER
 10
0.0517
 20
0.0000
 30
-0.0750
 11
0.0262
 21
0.0000
 31
-0.0750
 12
0.0262
 22
0.0164
 32
-0.0882
 13
0.0492
 23
0.0164
 33
-0.0882
  0
3DFACE
  8
CHMARKER
 10
0.0722
 20
-0.0361
 30
-0.0931
 11
0.0517
 21
-0.0361
 31
-0.0750
 12
0.0492
 22
-0.0525
 32
-0.0882
 13
0.0722
 23
-0.0361
 33
-0.0931
  0
3DFACE
  8
CHMARKER
 10
0.0517
 20
-0.0361
 30
-0.0750
 11
0.0262
 21
-0.0361
 31
-0.0750
 12
0.0262
 22
-0.0525
 32
-0.0750
 13
0.0492
 23
-0.0525
 33
-0.0882
  0
3DFACE
  8
CHMARKER
 10
-0.0722
 20
-0.0361
 30
-0.0931
 11
-0.0517
 21
-0.0361
 31
-0.0750
 12
-0.0492
 22
-0.0525
 32
-0.0882
 13
-0.0722
 23
-0.0361
 33
-0.0931
  0
3DFACE
  8
CHMARKER
 10
-0.0517
 20
-0.0361
 30
-0.0750
 11
-0.0262
 21
-0.0361
 31
-0.0750
 12
-0.0262
 22
-0.0525
 32
-0.0750
 13
-0.0492
 23
-0.0525
 33
-0.0882
  0
ENDBLK
  0
BLOCK
  2
L1R
  0
3DFACE
  8
CHMARKER
 10
-0.0517
 20
0.0000
 30
-0.0750
 11
0.0517
 21
0.0000
 31
-0.0750
 12
0.0517
 22
0.0361
 32
-0.0750
 13
-0.0517
 23
0.0361
 33
-0.0750
  0
3DFACE
  8
CHMARKER
 10
-0.0262
 20
0.0361
 30
-0.0750
 11
0.0262
 21
0.0361
 31
-0.0750
 12
0.0262
 22
0.0525
 32
-0.0750
 13
-0.0262
 23
0.0525
 33
-0.0750
  0
3DFACE
  8
CHMARKER
 10
-0.0262
 20
0.0525
 30
-0.0750
 11
-0.0492
 21
0.0525
 31
-0.0882
 12
0.0492
 22
0.0525
 32
-0.0882
 13
0.0262
 23
0.0525
 33
-0.0750
  0
3DFACE
  8
CHMARKER
 10
-0.0517
 20
0.0000
 30
-0.0750
 11
-0.0722
 21
0.0000
 31
-0.0931
 12
-0.0722
 22
0.0361
 32
-0.0931
 13
-0.0517
 23
0.0361
 33
-0.0750
  0
3DFACE
  8
CHMARKER
 10
0.0517
 20
0.0000
 30
-0.0750
 11
0.0722
 21
0.0000
 31
-0.0931
 12
0.0722
 22
0.0361
 32
-0.0931
 13
0.0517
 23
0.0361
 33
-0.0750
  0
3DFACE
  8
CHMARKER
 10
-0.0262
 20
-0.0164
 30
-0.0882
 11
-0.0262
 21
0.0000
 31
-0.0750
 12
-0.0262
 22
0.0000
 32
-0.0882
 13
-0.0262
 23
-0.0164
 33
-0.0882
  0
3DFACE
  8
CHMARKER
 10
-0.0262
 20
0.0000
 30
-0.0750
 11
0.0262
 21
0.0000
 31
-0.0750
 12
0.0262
 22
0.0000
 32
-0.0882
 13
-0.0262
 23
0.0000
 33
-0.0882
  0
3DFACE
  8
CHMARKER
 10
0.0262
 20
-0.0164
 30
-0.0882
 11
0.0262
 21
0.0000
 31
-0.0750
 12
0.0262
 22
0.0000
 32
-0.0882
 13
0.0262
 23
-0.0164
 33
-0.0882
  0
3DFACE
  8
CHMARKER
 10
-0.0722
 20
0.0000
 30
-0.0931
 11
-0.0517
 21
0.0000
 31
-0.0750
 12
-0.0492
 22
-0.0164
 32
-0.0882
 13
-0.0722
 23
0.0000
 33
-0.0931
  0
3DFACE
  8
CHMARKER
 10
-0.0517
 20
0.0000
 30
-0.0750
 11
-0.0262
 21
0.0000
 31
-0.0750
 12
-0.0262
 22
-0.0164
 32
-0.0882
 13
-0.0492
 23
-0.0164
 33
-0.0882
  0
3DFACE
  8
CHMARKER
 10
0.0722
 20
0.0000
 30
-0.0931
 11
0.0517
 21
0.0000
 31
-0.0750
 12
0.0492
 22
-0.0164
 32
-0.0882
 13
0.0722
 23
0.0000
 33
-0.0931
  0
3DFACE
  8
CHMARKER
 10
0.0517
 20
0.0000
 30
-0.0750
 11
0.0262
 21
0.0000
 31
-0.0750
 12
0.0262
 22
-0.0164
 32
-0.0882
 13
0.0492
 23
-0.0164
 33
-0.0882
  0
3DFACE
  8
CHMARKER
 10
0.0722
 20
0.0361
 30
-0.0931
 11
0.0517
 21
0.0361
 31
-0.0750
 12
0.0492
 22
0.0525
 32
-0.0882
 13
0.0722
 23
0.0361
 33
-0.0931
  0
3DFACE
  8
CHMARKER
 10
0.0517
 20
0.0361
 30
-0.0750
 11
0.0262
 21
0.0361
 31
-0.0750
 12
0.0262
 22
0.0525
 32
-0.0750
 13
0.0492
 23
0.0525
 33
-0.0882
  0
3DFACE
  8
CHMARKER
 10
-0.0722
 20
0.0361
 30
-0.0931
 11
-0.0517
 21
0.0361
 31
-0.0750
 12
-0.0492
 22
0.0525
 32
-0.0882
 13
-0.0722
 23
0.0361
 33
-0.0931
  0
3DFACE
  8
CHMARKER
 10
-0.0517
 20
0.0361
 30
-0.0750
 11
-0.0262
 21
0.0361
 31
-0.0750
 12
-0.0262
 22
0.0525
 32
-0.0750
 13
-0.0492
 23
0.0525
 33
-0.0882
  0
ENDBLK
  0
BLOCK
  2
BOLTBOSS
  0
ENDBLK
  0
BLOCK
  2
BOLTHEAD
  0
ENDBLK
  0
ENDSEC
  0
SECTION
  2
ENTITIES
  0
3DFACE
  8
TIMBER3D
 10
4.8327
 20
0.7535
 30
-0.0980
 11
4.7622
 21
2.2480
 31
-0.0980
 12
4.9197
 22
2.2555
 32
-0.0980
 13
4.9898
 23
0.7610
 33
-0.0980
  0
3DFACE
  8
TIMBER3D
 10
4.8327
 20
0.7535
 30
-0.1636
 11
4.7622
 21
2.2480
 31
-0.1636
 12
4.9197
 22
2.2555
 32
-0.1636
 13
4.9898
 23
0.7610
 33
-0.1636
  0
3DFACE
  8
TIMBER3D
 10
4.8327
 20
0.7535
 30
-0.0980
 11
4.9898
 21
0.7610
 31
-0.0980
 12
4.9898
 22
0.7610
 32
-0.1636
 13
4.8327
 23
0.7535
 33
-0.1636
  0
3DFACE
  8
TIMBER3D
 10
4.7622
 20
2.2480
 30
-0.0980
 11
4.9197
 21
2.2555
 31
-0.0980
 12
4.9197
 22
2.2555
 32
-0.1636
 13
4.7622
 23
2.2480
 33
-0.1636
  0
3DFACE
  8
TIMBER3D
 10
4.8327
 20
0.7535
 30
-0.0980
 11
4.7622
 21
2.2480
 31
-0.0980
 12
4.7622
 22
2.2480
 32
-0.1636
 13
4.8327
 23
0.7535
 33
-0.1636
  0
3DFACE
  8
TIMBER3D
 10
4.9898
 20
0.7610
 30
-0.0980
 11
4.9197
 21
2.2555
 31
-0.0980
 12
4.9197
 22
2.2555
 32
-0.1636
 13
4.9898
 23
0.7610
 33
-0.1636
  0
INSERT
  2
BOLTBOSS
  8
CHBOLTBO
 10
4.8465
 20
1.0805
 30
0.0000
 50
0.000
  0
INSERT
  2
BOLTHEAD
  8
CHBOLTHD
 10
4.8465
 20
1.0805
 30
0.0000
 50
56.000
  0
INSERT
  2
BOLTBOSS
  8
CHBOLTBO
 10
4.9451
 20
1.0852
 30
0.0000
 50
0.000
  0
INSERT
  2
BOLTHEAD
  8
CHBOLTHD
 10
4.9451
 20
1.0852
 30
0.0000
 50
79.000
  0
INSERT
  2
BOLTBOSS
  8
CHBOLTBO
 10
4.8508
 20
0.9888
 30
0.0000
 50
0.000
  0
INSERT
  2
BOLTHEAD
  8
CHBOLTHD
 10
4.8508
 20
0.9888
 30
0.0000
 50
42.000
  0
INSERT
  2
BOLTBOSS
  8
CHBOLTBO
 10
4.9494
 20
0.9933
 30
0.0000
 50
0.000
  0
INSERT
  2
BOLTHEAD
  8
CHBOLTHD
 10
4.9494
 20
0.9933
 30
0.0000
 50
72.000
  0
INSERT
  2
L1L
  8
CHMARKER
 10
4.8969
 20
1.0598
 30
0.0000
 50
2.748
  0
INSERT
  2
BOLTBOSS
  8
CHBOLTBO
 10
4.8154
 20
1.7504
 30
0.0000
 50
0.000
  0
INSERT
  2
BOLTHEAD
  8
CHBOLTHD
 10
4.8154
 20
1.7504
 30
0.0000
 50
76.000
  0
INSERT
  2
BOLTBOSS
  8
CHBOLTBO
 10
4.9134
 20
1.7551
 30
0.0000
 50
0.000
  0
INSERT
  2
BOLTHEAD
  8
CHBOLTHD
 10
4.9134
 20
1.7551
 30
0.0000
 50
78.000
  0
INSERT
  2
BOLTBOSS
  8
CHBOLTBO
 10
4.8112
 20
1.8421
 30
0.0000
 50
0.000
  0
INSERT
  2
BOLTHEAD
  8
CHBOLTHD
 10
4.8112
 20
1.8421
 30
0.0000
 50
14.000
  0
INSERT
  2
BOLTBOSS
  8
CHBOLTBO
 10
4.9089
 20
1.8469
 30
0.0000
 50
0.000
  0
INSERT
  2
BOLTHEAD
  8
CHBOLTHD
 10
4.9089
 20
1.8469
 30
0.0000
 50
6.000
  0
INSERT
  2
L1R
  8
CHMARKER
 10
4.8632
 20
1.7756
 30
0.0000
 50
2.759
  0
INSERT
  2
BOLTBOSS
  8
CHBOLTBO
 10
4.8356
 20
1.2484
 30
0.0000
 50
0.000
  0
INSERT
  2
BOLTHEAD
  8
CHBOLTHD
 10
4.8356
 20
1.2484
 30
0.0000
 50
17.000
  0
INSERT
  2
BOLTBOSS
  8
CHBOLTBO
 10
4.9337
 20
1.2598
 30
0.0000
 50
0.000
  0
INSERT
  2
BOLTHEAD
  8
CHBOLTHD
 10
4.9337
 20
1.2598
 30
0.0000
 50
37.000
  0
INSERT
  2
BOLTBOSS
  8
CHBOLTBO
 10
4.8463
 20
1.1571
 30
0.0000
 50
0.000
  0
INSERT
  2
BOLTHEAD
  8
CHBOLTHD
 10
4.8463
 20
1.1571
 30
0.0000
 50
19.000
  0
INSERT
  2
BOLTBOSS
  8
CHBOLTBO
 10
4.9443
 20
1.1685
 30
0.0000
 50
0.000
  0
INSERT
  2
BOLTHEAD
  8
CHBOLTHD
 10
4.9443
 20
1.1685
 30
0.0000
 50
52.000
  0
INSERT
  2
L1L
  8
CHMARKER
 10
4.8872
 20
1.2313
 30
0.0000
 50
6.643
  0
INSERT
  2
BOLTBOSS
  8
CHBOLTBO
 10
4.8108
 20
1.9205
 30
0.0000
 50
0.000
  0
INSERT
  2
BOLTHEAD
  8
CHBOLTHD
 10
4.8108
 20
1.9205
 30
0.0000
 50
29.000
  0
INSERT
  2
BOLTBOSS
  8
CHBOLTBO
 10
4.9081
 20
1.9323
 30
0.0000
 50
0.000
  0
INSERT
  2
BOLTHEAD
  8
CHBOLTHD
 10
4.9081
 20
1.9323
 30
0.0000
 50
71.000
  0
INSERT
  2
BOLTBOSS
  8
CHBOLTBO
 10
4.8002
 20
2.0118
 30
0.0000
 50
0.000
  0
INSERT
  2
BOLTHEAD
  8
CHBOLTHD
 10
4.8002
 20
2.0118
 30
0.0000
 50
67.000
  0
INSERT
  2
BOLTBOSS
  8
CHBOLTBO
 10
4.8972
 20
2.0234
 30
0.0000
 50
0.000
  0
INSERT
  2
BOLTHEAD
  8
CHBOLTHD
 10
4.8972
 20
2.0234
 30
0.0000
 50
12.000
  0
INSERT
  2
L1R
  8
CHMARKER
 10
4.8569
 20
1.9492
 30
0.0000
 50
6.925
  0
3DFACE
  8
TIMBER3D
 10
5.2173
 20
0.7465
 30
-0.0980
 11
5.1299
 21
2.3189
 31
-0.0980
 12
5.2870
 22
2.3276
 32
-0.0980
 13
5.3744
 23
0.7555
 33
-0.0980
  0
3DFACE
  8
TIMBER3D
 10
5.2173
 20
0.7465
 30
-0.1636
 11
5.1299
 21
2.3189
 31
-0.1636
 12
5.2870
 22
2.3276
 32
-0.1636
 13
5.3744
 23
0.7555
 33
-0.1636
  0
3DFACE
  8
TIMBER3D
 10
5.2173
 20
0.7465
 30
-0.0980
 11
5.3744
 21
0.7555
 31
-0.0980
 12
5.3744
 22
0.7555
 32
-0.1636
 13
5.2173
 23
0.7465
 33
-0.1636
  0
3DFACE
  8
TIMBER3D
 10
5.1299
 20
2.3189
 30
-0.0980
 11
5.2870
 21
2.3276
 31
-0.0980
 12
5.2870
 22
2.3276
 32
-0.1636
 13
5.1299
 23
2.3189
 33
-0.1636
  0
3DFACE
  8
TIMBER3D
 10
5.2173
 20
0.7465
 30
-0.0980
 11
5.1299
 21
2.3189
 31
-0.0980
 12
5.1299
 22
2.3189
 32
-0.1636
 13
5.2173
 23
0.7465
 33
-0.1636
  0
3DFACE
  8
TIMBER3D
 10
5.3744
 20
0.7555
 30
-0.0980
 11
5.2870
 21
2.3276
 31
-0.0980
 12
5.2870
 22
2.3276
 32
-0.1636
 13
5.3744
 23
0.7555
 33
-0.1636
  0
INSERT
  2
BOLTBOSS
  8
CHBOLTBO
 10
5.2492
 20
1.1230
 30
0.0000
 50
0.000
  0
INSERT
  2
BOLTHEAD
  8
CHBOLTHD
 10
5.2492
 20
1.1230
 30
0.0000
 50
80.000
  0
INSERT
  2
BOLTBOSS
  8
CHBOLTBO
 10
5.3018
 20
1.1256
 30
0.0000
 50
0.000
  0
INSERT
  2
BOLTHEAD
  8
CHBOLTHD
 10
5.3018
 20
1.1256
 30
0.0000
 50
73.000
  0
INSERT
  2
BOLTBOSS
  8
CHBOLTBO
 10
5.2829
 20
0.9803
 30
0.0000
 50
0.000
  0
INSERT
  2
BOLTHEAD
  8
CHBOLTHD
 10
5.2829
 20
0.9803
 30
0.0000
 50
12.000
  0
INSERT
  2
S1L
  8
CHMARKER
 10
5.2780
 20
1.0785
 30
0.0000
 50
3.148
  0
INSERT
  2
BOLTBOSS
  8
CHBOLTBO
 10
5.2140
 20
1.7469
 30
0.0000
 50
0.000
  0
INSERT
  2
BOLTHEAD
  8
CHBOLTHD
 10
5.2140
 20
1.7469
 30
0.0000
 50
17.000
  0
INSERT
  2
BOLTBOSS
  8
CHBOLTBO
 10
5.2663
 20
1.7494
 30
0.0000
 50
0.000
  0
INSERT
  2
BOLTHEAD
  8
CHBOLTHD
 10
5.2663
 20
1.7494
 30
0.0000
 50
84.000
  0
INSERT
  2
BOLTBOSS
  8
CHBOLTBO
 10
5.2329
 20
1.8921
 30
0.0000
 50
0.000
  0
INSERT
  2
BOLTHEAD
  8
CHBOLTHD
 10
5.2329
 20
1.8921
 30
0.0000
 50
61.000
  0
INSERT
  2
S1R
  8
CHMARKER
 10
5.2376
 20
1.7941
 30
0.0000
 50
2.877
  0
INSERT
  2
BOLTBOSS
  8
CHBOLTBO
 10
5.2132
 20
1.2945
 30
0.0000
 50
0.000
  0
INSERT
  2
BOLTHEAD
  8
CHBOLTHD
 10
5.2132
 20
1.2945
 30
0.0000
 50
15.000
  0
INSERT
  2
BOLTBOSS
  8
CHBOLTBO
 10
5.3108
 20
1.3071
 30
0.0000
 50
0.000
  0
INSERT
  2
BOLTHEAD
  8
CHBOLTHD
 10
5.3108
 20
1.3071
 30
0.0000
 50
6.000
  0
INSERT
  2
BOLTBOSS
  8
CHBOLTBO
 10
5.2250
 20
1.2033
 30
0.0000
 50
0.000
  0
INSERT
  2
BOLTHEAD
  8
CHBOLTHD
 10
5.2250
 20
1.2033
 30
0.0000
 50
66.000
  0
INSERT
  2
BOLTBOSS
  8
CHBOLTBO
 10
5.3226
 20
1.2161
 30
0.0000
 50
0.000
  0
INSERT
  2
BOLTHEAD
  8
CHBOLTHD
 10
5.3226
 20
1.2161
 30
0.0000
 50
19.000
  0
INSERT
  2
L1L
  8
CHMARKER
 10
5.2650
 20
1.2780
 30
0.0000
 50
7.352
  0
INSERT
  2
BOLTBOSS
  8
CHBOLTBO
 10
5.1829
 20
1.9667
 30
0.0000
 50
0.000
  0
INSERT
  2
BOLTHEAD
  8
CHBOLTHD
 10
5.1829
 20
1.9667
 30
0.0000
 50
63.000
  0
INSERT
  2
BOLTBOSS
  8
CHBOLTBO
 10
5.2799
 20
1.9795
 30
0.0000
 50
0.000
  0
INSERT
  2
BOLTHEAD
  8
CHBOLTHD
 10
5.2799
 20
1.9795
 30
0.0000
 50
71.000
  0
INSERT
  2
BOLTBOSS
  8
CHBOLTBO
 10
5.1711
 20
2.0579
 30
0.0000
 50
0.000
  0
INSERT
  2
BOLTHEAD
  8
CHBOLTHD
 10
5.1711
 20
2.0579
 30
0.0000
 50
34.000
  0
INSERT
  2
BOLTBOSS
  8
CHBOLTBO
 10
5.2679
 20
2.0707
 30
0.0000
 50
0.000
  0
INSERT
  2
BOLTHEAD
  8
CHBOLTHD
 10
5.2679
 20
2.0707
 30
0.0000
 50
48.000
  0
INSERT
  2
L1R
  8
CHMARKER
 10
5.2283
 20
1.9959
 30
0.0000
 50
7.640
  0
3DFACE
  8
TIMBER3D
 10
5.6012
 20
0.7823
 30
-0.0980
 11
5.4980
 21
2.3535
 31
-0.0980
 12
5.6551
 22
2.3638
 32
-0.0980
 13
5.7583
 23
0.7925
 33
-0.0980
  0
3DFACE
  8
TIMBER3D
 10
5.6012
 20
0.7823
 30
-0.1636
 11
5.4980
 21
2.3535
 31
-0.1636
 12
5.6551
 22
2.3638
 32
-0.1636
 13
5.7583
 23
0.7925
 33
-0.1636
  0
3DFACE
  8
TIMBER3D
 10
5.6012
 20
0.7823
 30
-0.0980
 11
5.7583
 21
0.7925
 31
-0.0980
 12
5.7583
 22
0.7925
 32
-0.1636
 13
5.6012
 23
0.7823
 33
-0.1636
  0
3DFACE
  8
TIMBER3D
 10
5.4980
 20
2.3535
 30
-0.0980
 11
5.6551
 21
2.3638
 31
-0.0980
 12
5.6551
 22
2.3638
 32
-0.1636
 13
5.4980
 23
2.3535
 33
-0.1636
  0
3DFACE
  8
TIMBER3D
 10
5.6012
 20
0.7823
 30
-0.0980
 11
5.4980
 21
2.3535
 31
-0.0980
 12
5.4980
 22
2.3535
 32
-0.1636
 13
5.6012
 23
0.7823
 33
-0.1636
  0
3DFACE
  8
TIMBER3D
 10
5.7583
 20
0.7925
 30
-0.0980
 11
5.6551
 21
2.3638
 31
-0.0980
 12
5.6551
 22
2.3638
 32
-0.1636
 13
5.7583
 23
0.7925
 33
-0.1636
  0
INSERT
  2
BOLTBOSS
  8
CHBOLTBO
 10
5.6307
 20
1.1429
 30
0.0000
 50
0.000
  0
INSERT
  2
BOLTHEAD
  8
CHBOLTHD
 10
5.6307
 20
1.1429
 30
0.0000
 50
73.000
  0
INSERT
  2
BOLTBOSS
  8
CHBOLTBO
 10
5.6833
 20
1.1459
 30
0.0000
 50
0.000
  0
INSERT
  2
BOLTHEAD
  8
CHBOLTHD
 10
5.6833
 20
1.1459
 30
0.0000
 50
87.000
  0
INSERT
  2
BOLTBOSS
  8
CHBOLTBO
 10
5.6648
 20
1.0004
 30
0.0000
 50
0.000
  0
INSERT
  2
BOLTHEAD
  8
CHBOLTHD
 10
5.6648
 20
1.0004
 30
0.0000
 50
40.000
  0
INSERT
  2
S1L
  8
CHMARKER
 10
5.6594
 20
1.0986
 30
0.0000
 50
3.148
  0
INSERT
  2
BOLTBOSS
  8
CHBOLTBO
 10
5.5884
 20
1.7661
 30
0.0000
 50
0.000
  0
INSERT
  2
BOLTHEAD
  8
CHBOLTHD
 10
5.5884
 20
1.7661
 30
0.0000
 50
54.000
  0
INSERT
  2
BOLTBOSS
  8
CHBOLTBO
 10
5.6407
 20
1.7691
 30
0.0000
 50
0.000
  0
INSERT
  2
BOLTHEAD
  8
CHBOLTHD
 10
5.6407
 20
1.7691
 30
0.0000
 50
31.000
  0
INSERT
  2
BOLTBOSS
  8
CHBOLTBO
 10
5.6067
 20
1.9118
 30
0.0000
 50
0.000
  0
INSERT
  2
BOLTHEAD
  8
CHBOLTHD
 10
5.6067
 20
1.9118
 30
0.0000
 50
30.000
  0
INSERT
  2
S1R
  8
CHMARKER
 10
5.6120
 20
1.8136
 30
0.0000
 50
3.164
  0
INSERT
  2
BOLTBOSS
  8
CHBOLTBO
 10
5.6096
 20
1.3715
 30
0.0000
 50
0.000
  0
INSERT
  2
BOLTHEAD
  8
CHBOLTHD
 10
5.6096
 20
1.3715
 30
0.0000
 50
61.000
  0
INSERT
  2
BOLTBOSS
  8
CHBOLTBO
 10
5.6616
 20
1.3787
 30
0.0000
 50
0.000
  0
INSERT
  2
BOLTHEAD
  8
CHBOLTHD
 10
5.6616
 20
1.3787
 30
0.0000
 50
41.000
  0
INSERT
  2
BOLTBOSS
  8
CHBOLTBO
 10
5.6561
 20
1.2321
 30
0.0000
 50
0.000
  0
INSERT
  2
BOLTHEAD
  8
CHBOLTHD
 10
5.6561
 20
1.2321
 30
0.0000
 50
38.000
  0
INSERT
  2
S1L
  8
CHMARKER
 10
5.6421
 20
1.3295
 30
0.0000
 50
8.049
  0
INSERT
  2
BOLTBOSS
  8
CHBOLTBO
 10
5.5797
 20
1.9982
 30
0.0000
 50
0.000
  0
INSERT
  2
BOLTHEAD
  8
CHBOLTHD
 10
5.5797
 20
1.9982
 30
0.0000
 50
54.000
  0
INSERT
  2
BOLTBOSS
  8
CHBOLTBO
 10
5.6315
 20
2.0057
 30
0.0000
 50
0.000
  0
INSERT
  2
BOLTHEAD
  8
CHBOLTHD
 10
5.6315
 20
2.0057
 30
0.0000
 50
49.000
  0
INSERT
  2
BOLTBOSS
  8
CHBOLTBO
 10
5.5850
 20
2.1447
 30
0.0000
 50
0.000
  0
INSERT
  2
BOLTHEAD
  8
CHBOLTHD
 10
5.5850
 20
2.1447
 30
0.0000
 50
70.000
  0
INSERT
  2
S1R
  8
CHMARKER
 10
5.5990
 20
2.0474
 30
0.0000
 50
8.374
  0
ENDSEC
  0
EOF
