  0
SECTION
  2
HEADER
  0
ENDSEC
  0
SECTION
  2
TABLES
  0
TABLE
  2
LTYPE
 70
10
  0
LTYPE
  2
CONTINUOUS
 70
64
  3
solid line
 72
65
 73
0
 40
0.0
  0
LTYPE
  2
DASHED
 70
0
  3
__ __ __ __ __ __ __ __ __ __ __ __ __ __ __
 72
65
 73
2
 40
0.75
 49
0.5
 49
-0.25
  0
LTYPE
  2
HIDDEN
 70
0
  3
_ _ _ _ _ _ _ _ _ _ _ _ _ _ _ _ _ _ _ _ _ _
 72
65
 73
2
 40
0.375
 49
0.25
 49
-0.125
  0
LTYPE
  2
CENTER
 70
0
  3
____ _ ____ _ ____ _ ____ _ ____ _ ____ _ __
 72
65
 73
4
 40
2.0
 49
1.25
 49
-0.25
 49
0.25
 49
-0.25
  0
LTYPE
  2
PHANTOM
 70
0
  3
_____ _ _ _____ _ _ _____ _ _ _____ _ _ ____
 72
65
 73
6
 40
2.5
 49
1.25
 49
-0.25
 49
0.25
 49
-0.25
 49
0.25
 49
-0.25
  0
LTYPE
  2
DOT
 70
0
  3
............................................
 72
65
 73
2
 40
0.25
 49
0.0
 49
-0.25
  0
LTYPE
  2
DASHDOT
 70
0
  3
__ . __ . __ . __ . __ . __ . __ . __ . __ .
 72
65
 73
4
 40
1.0
 49
0.5
 49
-0.25
 49
0.0
 49
-0.25
  0
LTYPE
  2
BORDER
 70
0
  3
__ __ . __ __ . __ __ . __ __ . __ __ . __ _
 72
65
 73
6
 40
1.75
 49
0.5
 49
-0.25
 49
0.5
 49
-0.25
 49
0.0
 49
-0.25
  0
LTYPE
  2
DIVIDE
 70
0
  3
__ . . __ . . __ . . __ . . __ . . __ . . __
 72
65
 73
6
 40
1.25
 49
0.5
 49
-0.25
 49
0.0
 49
-0.25
 49
0.0
 49
-0.25
  0
LTYPE
  2
DIVIDE2
 70
0
  3
__..__..__..__..__..__..__..__..__..__..__..__.
 72
65
 73
8
 40
0.9
 49
0.25
 49
-0.1
 49
0.25
 49
-0.1
 49
0.0
 49
-0.1
 49
0.0
 49
-0.1
  0
ENDTAB
  0
TABLE
  2
LAYER
 70
23
  0
LAYER
  2
ADJTRACK
 70
0
  6
CONTINUOUS
 62
8
  0
LAYER
  2
CENTLINE
 70
0
  6
CENTER
 62
6
  0
LAYER
  2
TIMBOUTL
 70
0
  6
CONTINUOUS
 62
5
  0
LAYER
  2
SLEEPEND
 70
0
  6
CONTINUOUS
 62
1
  0
LAYER
  2
TIMBCENT
 70
0
  6
CENTER
 62
4
  0
LAYER
  2
GDMARKS
 70
0
  6
CONTINUOUS
 62
1
  0
LAYER
  2
RADMARKS
 70
0
  6
CONTINUOUS
 62
3
  0
LAYER
  2
JOINTS
 70
0
  6
CONTINUOUS
 62
7
  0
LAYER
  2
SBGSHAPE
 70
0
  6
CONTINUOUS
 62
1
  0
LAYER
  2
DBGSHAPE
 70
0
  6
HIDDEN
 62
1
  0
LAYER
  2
INFOTEXT
 70
0
  6
CONTINUOUS
 62
5
  0
LAYER
  2
TIMBNUMB
 70
0
  6
CONTINUOUS
 62
3
  0
LAYER
  2
RLSIDE3D
 70
0
  6
CONTINUOUS
 62
121
  0
LAYER
  2
CHBOLTHD
 70
0
  6
CONTINUOUS
 62
9
  0
LAYER
  2
CHAIRS
 70
0
  6
CONTINUOUS
 62
30
  0
LAYER
  2
TIMBER3D
 70
0
  6
CONTINUOUS
 62
8
  0
LAYER
  2
CHMARKER
 70
0
  6
CONTINUOUS
 62
30
  0
LAYER
  2
CHBOLTBO
 70
0
  6
CONTINUOUS
 62
30
  0
LAYER
  2
CHINJAW
 70
0
  6
CONTINUOUS
 62
30
  0
LAYER
  2
CHOUTJAW
 70
0
  6
CONTINUOUS
 62
30
  0
LAYER
  2
CHKEYS
 70
0
  6
CONTINUOUS
 62
64
  0
ENDTAB
  0
ENDSEC
  0
SECTION
  2
BLOCKS
  0
BLOCK
  2
S1L
  0
3DFACE
  8
CHMARKER
 10
-0.66
 20
0.00
 30
-0.95
 11
0.66
 21
0.00
 31
-0.95
 12
0.66
 22
-0.46
 32
-0.95
 13
-0.66
 23
-0.46
 33
-0.95
  0
3DFACE
  8
CHMARKER
 10
-0.33
 20
-0.46
 30
-0.95
 11
0.33
 21
-0.46
 31
-0.95
 12
0.33
 22
-0.67
 32
-0.95
 13
-0.33
 23
-0.67
 33
-0.95
  0
3DFACE
  8
CHMARKER
 10
-0.33
 20
-0.67
 30
-0.95
 11
-0.50
 21
-0.67
 31
-1.12
 12
0.50
 22
-0.67
 32
-1.12
 13
0.33
 23
-0.67
 33
-0.95
  0
3DFACE
  8
CHMARKER
 10
-0.66
 20
0.00
 30
-0.95
 11
-0.67
 21
0.00
 31
-1.18
 12
-0.67
 22
-0.46
 32
-1.18
 13
-0.66
 23
-0.46
 33
-0.95
  0
3DFACE
  8
CHMARKER
 10
0.66
 20
0.00
 30
-0.95
 11
0.67
 21
0.00
 31
-1.18
 12
0.67
 22
-0.46
 32
-1.18
 13
0.66
 23
-0.46
 33
-0.95
  0
3DFACE
  8
CHMARKER
 10
-0.33
 20
0.21
 30
-1.12
 11
-0.33
 21
0.00
 31
-0.95
 12
-0.33
 22
0.00
 32
-1.12
 13
-0.33
 23
0.21
 33
-1.12
  0
3DFACE
  8
CHMARKER
 10
-0.33
 20
0.00
 30
-0.95
 11
0.33
 21
0.00
 31
-0.95
 12
0.33
 22
0.00
 32
-1.12
 13
-0.33
 23
0.00
 33
-1.12
  0
3DFACE
  8
CHMARKER
 10
0.33
 20
0.21
 30
-1.12
 11
0.33
 21
0.00
 31
-0.95
 12
0.33
 22
0.00
 32
-1.12
 13
0.33
 23
0.21
 33
-1.12
  0
3DFACE
  8
CHMARKER
 10
-0.67
 20
0.00
 30
-1.18
 11
-0.66
 21
0.00
 31
-0.95
 12
-0.50
 22
0.21
 32
-1.12
 13
-0.67
 23
0.00
 33
-1.18
  0
3DFACE
  8
CHMARKER
 10
-0.66
 20
0.00
 30
-0.95
 11
-0.33
 21
0.00
 31
-0.95
 12
-0.33
 22
0.21
 32
-1.12
 13
-0.50
 23
0.21
 33
-1.12
  0
3DFACE
  8
CHMARKER
 10
0.67
 20
0.00
 30
-1.18
 11
0.66
 21
0.00
 31
-0.95
 12
0.50
 22
0.21
 32
-1.12
 13
0.67
 23
0.00
 33
-1.18
  0
3DFACE
  8
CHMARKER
 10
0.66
 20
0.00
 30
-0.95
 11
0.33
 21
0.00
 31
-0.95
 12
0.33
 22
0.21
 32
-1.12
 13
0.50
 23
0.21
 33
-1.12
  0
3DFACE
  8
CHMARKER
 10
0.67
 20
-0.46
 30
-1.18
 11
0.66
 21
-0.46
 31
-0.95
 12
0.50
 22
-0.67
 32
-1.12
 13
0.67
 23
-0.46
 33
-1.18
  0
3DFACE
  8
CHMARKER
 10
0.66
 20
-0.46
 30
-0.95
 11
0.33
 21
-0.46
 31
-0.95
 12
0.33
 22
-0.67
 32
-0.95
 13
0.50
 23
-0.67
 33
-1.12
  0
3DFACE
  8
CHMARKER
 10
-0.67
 20
-0.46
 30
-1.18
 11
-0.66
 21
-0.46
 31
-0.95
 12
-0.50
 22
-0.67
 32
-1.12
 13
-0.67
 23
-0.46
 33
-1.18
  0
3DFACE
  8
CHMARKER
 10
-0.66
 20
-0.46
 30
-0.95
 11
-0.33
 21
-0.46
 31
-0.95
 12
-0.33
 22
-0.67
 32
-0.95
 13
-0.50
 23
-0.67
 33
-1.12
  0
ENDBLK
  0
BLOCK
  2
S1R
  0
3DFACE
  8
CHMARKER
 10
-0.66
 20
0.00
 30
-0.95
 11
0.66
 21
0.00
 31
-0.95
 12
0.66
 22
0.46
 32
-0.95
 13
-0.66
 23
0.46
 33
-0.95
  0
3DFACE
  8
CHMARKER
 10
-0.33
 20
0.46
 30
-0.95
 11
0.33
 21
0.46
 31
-0.95
 12
0.33
 22
0.67
 32
-0.95
 13
-0.33
 23
0.67
 33
-0.95
  0
3DFACE
  8
CHMARKER
 10
-0.33
 20
0.67
 30
-0.95
 11
-0.50
 21
0.67
 31
-1.12
 12
0.50
 22
0.67
 32
-1.12
 13
0.33
 23
0.67
 33
-0.95
  0
3DFACE
  8
CHMARKER
 10
-0.66
 20
0.00
 30
-0.95
 11
-0.67
 21
0.00
 31
-1.18
 12
-0.67
 22
0.46
 32
-1.18
 13
-0.66
 23
0.46
 33
-0.95
  0
3DFACE
  8
CHMARKER
 10
0.66
 20
0.00
 30
-0.95
 11
0.67
 21
0.00
 31
-1.18
 12
0.67
 22
0.46
 32
-1.18
 13
0.66
 23
0.46
 33
-0.95
  0
3DFACE
  8
CHMARKER
 10
-0.33
 20
-0.21
 30
-1.12
 11
-0.33
 21
0.00
 31
-0.95
 12
-0.33
 22
0.00
 32
-1.12
 13
-0.33
 23
-0.21
 33
-1.12
  0
3DFACE
  8
CHMARKER
 10
-0.33
 20
0.00
 30
-0.95
 11
0.33
 21
0.00
 31
-0.95
 12
0.33
 22
0.00
 32
-1.12
 13
-0.33
 23
0.00
 33
-1.12
  0
3DFACE
  8
CHMARKER
 10
0.33
 20
-0.21
 30
-1.12
 11
0.33
 21
0.00
 31
-0.95
 12
0.33
 22
0.00
 32
-1.12
 13
0.33
 23
-0.21
 33
-1.12
  0
3DFACE
  8
CHMARKER
 10
-0.67
 20
0.00
 30
-1.18
 11
-0.66
 21
0.00
 31
-0.95
 12
-0.50
 22
-0.21
 32
-1.12
 13
-0.67
 23
0.00
 33
-1.18
  0
3DFACE
  8
CHMARKER
 10
-0.66
 20
0.00
 30
-0.95
 11
-0.33
 21
0.00
 31
-0.95
 12
-0.33
 22
-0.21
 32
-1.12
 13
-0.50
 23
-0.21
 33
-1.12
  0
3DFACE
  8
CHMARKER
 10
0.67
 20
0.00
 30
-1.18
 11
0.66
 21
0.00
 31
-0.95
 12
0.50
 22
-0.21
 32
-1.12
 13
0.67
 23
0.00
 33
-1.18
  0
3DFACE
  8
CHMARKER
 10
0.66
 20
0.00
 30
-0.95
 11
0.33
 21
0.00
 31
-0.95
 12
0.33
 22
-0.21
 32
-1.12
 13
0.50
 23
-0.21
 33
-1.12
  0
3DFACE
  8
CHMARKER
 10
0.67
 20
0.46
 30
-1.18
 11
0.66
 21
0.46
 31
-0.95
 12
0.50
 22
0.67
 32
-1.12
 13
0.67
 23
0.46
 33
-1.18
  0
3DFACE
  8
CHMARKER
 10
0.66
 20
0.46
 30
-0.95
 11
0.33
 21
0.46
 31
-0.95
 12
0.33
 22
0.67
 32
-0.95
 13
0.50
 23
0.67
 33
-1.12
  0
3DFACE
  8
CHMARKER
 10
-0.67
 20
0.46
 30
-1.18
 11
-0.66
 21
0.46
 31
-0.95
 12
-0.50
 22
0.67
 32
-1.12
 13
-0.67
 23
0.46
 33
-1.18
  0
3DFACE
  8
CHMARKER
 10
-0.66
 20
0.46
 30
-0.95
 11
-0.33
 21
0.46
 31
-0.95
 12
-0.33
 22
0.67
 32
-0.95
 13
-0.50
 23
0.67
 33
-1.12
  0
ENDBLK
  0
BLOCK
  2
L1L
  0
3DFACE
  8
CHMARKER
 10
-0.66
 20
0.00
 30
-0.95
 11
0.66
 21
0.00
 31
-0.95
 12
0.66
 22
-0.46
 32
-0.95
 13
-0.66
 23
-0.46
 33
-0.95
  0
3DFACE
  8
CHMARKER
 10
-0.33
 20
-0.46
 30
-0.95
 11
0.33
 21
-0.46
 31
-0.95
 12
0.33
 22
-0.67
 32
-0.95
 13
-0.33
 23
-0.67
 33
-0.95
  0
3DFACE
  8
CHMARKER
 10
-0.33
 20
-0.67
 30
-0.95
 11
-0.63
 21
-0.67
 31
-1.12
 12
0.63
 22
-0.67
 32
-1.12
 13
0.33
 23
-0.67
 33
-0.95
  0
3DFACE
  8
CHMARKER
 10
-0.66
 20
0.00
 30
-0.95
 11
-0.92
 21
0.00
 31
-1.18
 12
-0.92
 22
-0.46
 32
-1.18
 13
-0.66
 23
-0.46
 33
-0.95
  0
3DFACE
  8
CHMARKER
 10
0.66
 20
0.00
 30
-0.95
 11
0.92
 21
0.00
 31
-1.18
 12
0.92
 22
-0.46
 32
-1.18
 13
0.66
 23
-0.46
 33
-0.95
  0
3DFACE
  8
CHMARKER
 10
-0.33
 20
0.21
 30
-1.12
 11
-0.33
 21
0.00
 31
-0.95
 12
-0.33
 22
0.00
 32
-1.12
 13
-0.33
 23
0.21
 33
-1.12
  0
3DFACE
  8
CHMARKER
 10
-0.33
 20
0.00
 30
-0.95
 11
0.33
 21
0.00
 31
-0.95
 12
0.33
 22
0.00
 32
-1.12
 13
-0.33
 23
0.00
 33
-1.12
  0
3DFACE
  8
CHMARKER
 10
0.33
 20
0.21
 30
-1.12
 11
0.33
 21
0.00
 31
-0.95
 12
0.33
 22
0.00
 32
-1.12
 13
0.33
 23
0.21
 33
-1.12
  0
3DFACE
  8
CHMARKER
 10
-0.92
 20
0.00
 30
-1.18
 11
-0.66
 21
0.00
 31
-0.95
 12
-0.63
 22
0.21
 32
-1.12
 13
-0.92
 23
0.00
 33
-1.18
  0
3DFACE
  8
CHMARKER
 10
-0.66
 20
0.00
 30
-0.95
 11
-0.33
 21
0.00
 31
-0.95
 12
-0.33
 22
0.21
 32
-1.12
 13
-0.63
 23
0.21
 33
-1.12
  0
3DFACE
  8
CHMARKER
 10
0.92
 20
0.00
 30
-1.18
 11
0.66
 21
0.00
 31
-0.95
 12
0.63
 22
0.21
 32
-1.12
 13
0.92
 23
0.00
 33
-1.18
  0
3DFACE
  8
CHMARKER
 10
0.66
 20
0.00
 30
-0.95
 11
0.33
 21
0.00
 31
-0.95
 12
0.33
 22
0.21
 32
-1.12
 13
0.63
 23
0.21
 33
-1.12
  0
3DFACE
  8
CHMARKER
 10
0.92
 20
-0.46
 30
-1.18
 11
0.66
 21
-0.46
 31
-0.95
 12
0.63
 22
-0.67
 32
-1.12
 13
0.92
 23
-0.46
 33
-1.18
  0
3DFACE
  8
CHMARKER
 10
0.66
 20
-0.46
 30
-0.95
 11
0.33
 21
-0.46
 31
-0.95
 12
0.33
 22
-0.67
 32
-0.95
 13
0.63
 23
-0.67
 33
-1.12
  0
3DFACE
  8
CHMARKER
 10
-0.92
 20
-0.46
 30
-1.18
 11
-0.66
 21
-0.46
 31
-0.95
 12
-0.63
 22
-0.67
 32
-1.12
 13
-0.92
 23
-0.46
 33
-1.18
  0
3DFACE
  8
CHMARKER
 10
-0.66
 20
-0.46
 30
-0.95
 11
-0.33
 21
-0.46
 31
-0.95
 12
-0.33
 22
-0.67
 32
-0.95
 13
-0.63
 23
-0.67
 33
-1.12
  0
ENDBLK
  0
BLOCK
  2
L1R
  0
3DFACE
  8
CHMARKER
 10
-0.66
 20
0.00
 30
-0.95
 11
0.66
 21
0.00
 31
-0.95
 12
0.66
 22
0.46
 32
-0.95
 13
-0.66
 23
0.46
 33
-0.95
  0
3DFACE
  8
CHMARKER
 10
-0.33
 20
0.46
 30
-0.95
 11
0.33
 21
0.46
 31
-0.95
 12
0.33
 22
0.67
 32
-0.95
 13
-0.33
 23
0.67
 33
-0.95
  0
3DFACE
  8
CHMARKER
 10
-0.33
 20
0.67
 30
-0.95
 11
-0.63
 21
0.67
 31
-1.12
 12
0.63
 22
0.67
 32
-1.12
 13
0.33
 23
0.67
 33
-0.95
  0
3DFACE
  8
CHMARKER
 10
-0.66
 20
0.00
 30
-0.95
 11
-0.92
 21
0.00
 31
-1.18
 12
-0.92
 22
0.46
 32
-1.18
 13
-0.66
 23
0.46
 33
-0.95
  0
3DFACE
  8
CHMARKER
 10
0.66
 20
0.00
 30
-0.95
 11
0.92
 21
0.00
 31
-1.18
 12
0.92
 22
0.46
 32
-1.18
 13
0.66
 23
0.46
 33
-0.95
  0
3DFACE
  8
CHMARKER
 10
-0.33
 20
-0.21
 30
-1.12
 11
-0.33
 21
0.00
 31
-0.95
 12
-0.33
 22
0.00
 32
-1.12
 13
-0.33
 23
-0.21
 33
-1.12
  0
3DFACE
  8
CHMARKER
 10
-0.33
 20
0.00
 30
-0.95
 11
0.33
 21
0.00
 31
-0.95
 12
0.33
 22
0.00
 32
-1.12
 13
-0.33
 23
0.00
 33
-1.12
  0
3DFACE
  8
CHMARKER
 10
0.33
 20
-0.21
 30
-1.12
 11
0.33
 21
0.00
 31
-0.95
 12
0.33
 22
0.00
 32
-1.12
 13
0.33
 23
-0.21
 33
-1.12
  0
3DFACE
  8
CHMARKER
 10
-0.92
 20
0.00
 30
-1.18
 11
-0.66
 21
0.00
 31
-0.95
 12
-0.63
 22
-0.21
 32
-1.12
 13
-0.92
 23
0.00
 33
-1.18
  0
3DFACE
  8
CHMARKER
 10
-0.66
 20
0.00
 30
-0.95
 11
-0.33
 21
0.00
 31
-0.95
 12
-0.33
 22
-0.21
 32
-1.12
 13
-0.63
 23
-0.21
 33
-1.12
  0
3DFACE
  8
CHMARKER
 10
0.92
 20
0.00
 30
-1.18
 11
0.66
 21
0.00
 31
-0.95
 12
0.63
 22
-0.21
 32
-1.12
 13
0.92
 23
0.00
 33
-1.18
  0
3DFACE
  8
CHMARKER
 10
0.66
 20
0.00
 30
-0.95
 11
0.33
 21
0.00
 31
-0.95
 12
0.33
 22
-0.21
 32
-1.12
 13
0.63
 23
-0.21
 33
-1.12
  0
3DFACE
  8
CHMARKER
 10
0.92
 20
0.46
 30
-1.18
 11
0.66
 21
0.46
 31
-0.95
 12
0.63
 22
0.67
 32
-1.12
 13
0.92
 23
0.46
 33
-1.18
  0
3DFACE
  8
CHMARKER
 10
0.66
 20
0.46
 30
-0.95
 11
0.33
 21
0.46
 31
-0.95
 12
0.33
 22
0.67
 32
-0.95
 13
0.63
 23
0.67
 33
-1.12
  0
3DFACE
  8
CHMARKER
 10
-0.92
 20
0.46
 30
-1.18
 11
-0.66
 21
0.46
 31
-0.95
 12
-0.63
 22
0.67
 32
-1.12
 13
-0.92
 23
0.46
 33
-1.18
  0
3DFACE
  8
CHMARKER
 10
-0.66
 20
0.46
 30
-0.95
 11
-0.33
 21
0.46
 31
-0.95
 12
-0.33
 22
0.67
 32
-0.95
 13
-0.63
 23
0.67
 33
-1.12
  0
ENDBLK
  0
BLOCK
  2
BOLTBOSS
  0
3DFACE
  8
CHBOLTBO
 10
0.17
 20
0.00
 30
-0.99
 11
0.16
 21
0.04
 31
-0.99
 12
0.24
 22
0.06
 32
-1.24
 13
0.25
 23
0.00
 33
-1.24
  0
3DFACE
  8
CHBOLTBO
 10
0.17
 20
0.00
 30
-0.99
 11
0.16
 21
0.04
 31
-0.99
 12
0.00
 22
0.00
 32
-0.99
 13
0.00
 23
0.00
 33
-0.99
  0
3DFACE
  8
CHBOLTBO
 10
0.16
 20
0.04
 30
-0.99
 11
0.14
 21
0.08
 31
-0.99
 12
0.22
 22
0.13
 32
-1.24
 13
0.24
 23
0.06
 33
-1.24
  0
3DFACE
  8
CHBOLTBO
 10
0.16
 20
0.04
 30
-0.99
 11
0.14
 21
0.08
 31
-0.99
 12
0.00
 22
0.00
 32
-0.99
 13
0.00
 23
0.00
 33
-0.99
  0
3DFACE
  8
CHBOLTBO
 10
0.14
 20
0.08
 30
-0.99
 11
0.12
 21
0.12
 31
-0.99
 12
0.18
 22
0.18
 32
-1.24
 13
0.22
 23
0.13
 33
-1.24
  0
3DFACE
  8
CHBOLTBO
 10
0.14
 20
0.08
 30
-0.99
 11
0.12
 21
0.12
 31
-0.99
 12
0.00
 22
0.00
 32
-0.99
 13
0.00
 23
0.00
 33
-0.99
  0
3DFACE
  8
CHBOLTBO
 10
0.12
 20
0.12
 30
-0.99
 11
0.08
 21
0.14
 31
-0.99
 12
0.13
 22
0.22
 32
-1.24
 13
0.18
 23
0.18
 33
-1.24
  0
3DFACE
  8
CHBOLTBO
 10
0.12
 20
0.12
 30
-0.99
 11
0.08
 21
0.14
 31
-0.99
 12
0.00
 22
0.00
 32
-0.99
 13
0.00
 23
0.00
 33
-0.99
  0
3DFACE
  8
CHBOLTBO
 10
0.08
 20
0.14
 30
-0.99
 11
0.04
 21
0.16
 31
-0.99
 12
0.06
 22
0.24
 32
-1.24
 13
0.13
 23
0.22
 33
-1.24
  0
3DFACE
  8
CHBOLTBO
 10
0.08
 20
0.14
 30
-0.99
 11
0.04
 21
0.16
 31
-0.99
 12
0.00
 22
0.00
 32
-0.99
 13
0.00
 23
0.00
 33
-0.99
  0
3DFACE
  8
CHBOLTBO
 10
0.04
 20
0.16
 30
-0.99
 11
0.00
 21
0.17
 31
-0.99
 12
0.00
 22
0.25
 32
-1.24
 13
0.06
 23
0.24
 33
-1.24
  0
3DFACE
  8
CHBOLTBO
 10
0.04
 20
0.16
 30
-0.99
 11
0.00
 21
0.17
 31
-0.99
 12
0.00
 22
0.00
 32
-0.99
 13
0.00
 23
0.00
 33
-0.99
  0
3DFACE
  8
CHBOLTBO
 10
0.00
 20
0.17
 30
-0.99
 11
-0.04
 21
0.16
 31
-0.99
 12
-0.06
 22
0.24
 32
-1.24
 13
0.00
 23
0.25
 33
-1.24
  0
3DFACE
  8
CHBOLTBO
 10
0.00
 20
0.17
 30
-0.99
 11
-0.04
 21
0.16
 31
-0.99
 12
0.00
 22
0.00
 32
-0.99
 13
0.00
 23
0.00
 33
-0.99
  0
3DFACE
  8
CHBOLTBO
 10
-0.04
 20
0.16
 30
-0.99
 11
-0.08
 21
0.14
 31
-0.99
 12
-0.13
 22
0.22
 32
-1.24
 13
-0.06
 23
0.24
 33
-1.24
  0
3DFACE
  8
CHBOLTBO
 10
-0.04
 20
0.16
 30
-0.99
 11
-0.08
 21
0.14
 31
-0.99
 12
0.00
 22
0.00
 32
-0.99
 13
0.00
 23
0.00
 33
-0.99
  0
3DFACE
  8
CHBOLTBO
 10
-0.08
 20
0.14
 30
-0.99
 11
-0.12
 21
0.12
 31
-0.99
 12
-0.18
 22
0.18
 32
-1.24
 13
-0.13
 23
0.22
 33
-1.24
  0
3DFACE
  8
CHBOLTBO
 10
-0.08
 20
0.14
 30
-0.99
 11
-0.12
 21
0.12
 31
-0.99
 12
0.00
 22
0.00
 32
-0.99
 13
0.00
 23
0.00
 33
-0.99
  0
3DFACE
  8
CHBOLTBO
 10
-0.12
 20
0.12
 30
-0.99
 11
-0.14
 21
0.08
 31
-0.99
 12
-0.22
 22
0.13
 32
-1.24
 13
-0.18
 23
0.18
 33
-1.24
  0
3DFACE
  8
CHBOLTBO
 10
-0.12
 20
0.12
 30
-0.99
 11
-0.14
 21
0.08
 31
-0.99
 12
0.00
 22
0.00
 32
-0.99
 13
0.00
 23
0.00
 33
-0.99
  0
3DFACE
  8
CHBOLTBO
 10
-0.14
 20
0.08
 30
-0.99
 11
-0.16
 21
0.04
 31
-0.99
 12
-0.24
 22
0.06
 32
-1.24
 13
-0.22
 23
0.13
 33
-1.24
  0
3DFACE
  8
CHBOLTBO
 10
-0.14
 20
0.08
 30
-0.99
 11
-0.16
 21
0.04
 31
-0.99
 12
0.00
 22
0.00
 32
-0.99
 13
0.00
 23
0.00
 33
-0.99
  0
3DFACE
  8
CHBOLTBO
 10
-0.16
 20
0.04
 30
-0.99
 11
-0.17
 21
0.00
 31
-0.99
 12
-0.25
 22
0.00
 32
-1.24
 13
-0.24
 23
0.06
 33
-1.24
  0
3DFACE
  8
CHBOLTBO
 10
-0.16
 20
0.04
 30
-0.99
 11
-0.17
 21
0.00
 31
-0.99
 12
0.00
 22
0.00
 32
-0.99
 13
0.00
 23
0.00
 33
-0.99
  0
3DFACE
  8
CHBOLTBO
 10
-0.17
 20
0.00
 30
-0.99
 11
-0.16
 21
-0.04
 31
-0.99
 12
-0.24
 22
-0.06
 32
-1.24
 13
-0.25
 23
0.00
 33
-1.24
  0
3DFACE
  8
CHBOLTBO
 10
-0.17
 20
0.00
 30
-0.99
 11
-0.16
 21
-0.04
 31
-0.99
 12
0.00
 22
0.00
 32
-0.99
 13
0.00
 23
0.00
 33
-0.99
  0
3DFACE
  8
CHBOLTBO
 10
-0.16
 20
-0.04
 30
-0.99
 11
-0.14
 21
-0.08
 31
-0.99
 12
-0.22
 22
-0.13
 32
-1.24
 13
-0.24
 23
-0.06
 33
-1.24
  0
3DFACE
  8
CHBOLTBO
 10
-0.16
 20
-0.04
 30
-0.99
 11
-0.14
 21
-0.08
 31
-0.99
 12
0.00
 22
0.00
 32
-0.99
 13
0.00
 23
0.00
 33
-0.99
  0
3DFACE
  8
CHBOLTBO
 10
-0.14
 20
-0.08
 30
-0.99
 11
-0.12
 21
-0.12
 31
-0.99
 12
-0.18
 22
-0.18
 32
-1.24
 13
-0.22
 23
-0.13
 33
-1.24
  0
3DFACE
  8
CHBOLTBO
 10
-0.14
 20
-0.08
 30
-0.99
 11
-0.12
 21
-0.12
 31
-0.99
 12
0.00
 22
0.00
 32
-0.99
 13
0.00
 23
0.00
 33
-0.99
  0
3DFACE
  8
CHBOLTBO
 10
-0.12
 20
-0.12
 30
-0.99
 11
-0.08
 21
-0.14
 31
-0.99
 12
-0.13
 22
-0.22
 32
-1.24
 13
-0.18
 23
-0.18
 33
-1.24
  0
3DFACE
  8
CHBOLTBO
 10
-0.12
 20
-0.12
 30
-0.99
 11
-0.08
 21
-0.14
 31
-0.99
 12
0.00
 22
0.00
 32
-0.99
 13
0.00
 23
0.00
 33
-0.99
  0
3DFACE
  8
CHBOLTBO
 10
-0.08
 20
-0.14
 30
-0.99
 11
-0.04
 21
-0.16
 31
-0.99
 12
-0.06
 22
-0.24
 32
-1.24
 13
-0.13
 23
-0.22
 33
-1.24
  0
3DFACE
  8
CHBOLTBO
 10
-0.08
 20
-0.14
 30
-0.99
 11
-0.04
 21
-0.16
 31
-0.99
 12
0.00
 22
0.00
 32
-0.99
 13
0.00
 23
0.00
 33
-0.99
  0
3DFACE
  8
CHBOLTBO
 10
-0.04
 20
-0.16
 30
-0.99
 11
0.00
 21
-0.17
 31
-0.99
 12
0.00
 22
-0.25
 32
-1.24
 13
-0.06
 23
-0.24
 33
-1.24
  0
3DFACE
  8
CHBOLTBO
 10
-0.04
 20
-0.16
 30
-0.99
 11
0.00
 21
-0.17
 31
-0.99
 12
0.00
 22
0.00
 32
-0.99
 13
0.00
 23
0.00
 33
-0.99
  0
3DFACE
  8
CHBOLTBO
 10
0.00
 20
-0.17
 30
-0.99
 11
0.04
 21
-0.16
 31
-0.99
 12
0.06
 22
-0.24
 32
-1.24
 13
0.00
 23
-0.25
 33
-1.24
  0
3DFACE
  8
CHBOLTBO
 10
0.00
 20
-0.17
 30
-0.99
 11
0.04
 21
-0.16
 31
-0.99
 12
0.00
 22
0.00
 32
-0.99
 13
0.00
 23
0.00
 33
-0.99
  0
3DFACE
  8
CHBOLTBO
 10
0.04
 20
-0.16
 30
-0.99
 11
0.08
 21
-0.14
 31
-0.99
 12
0.13
 22
-0.22
 32
-1.24
 13
0.06
 23
-0.24
 33
-1.24
  0
3DFACE
  8
CHBOLTBO
 10
0.04
 20
-0.16
 30
-0.99
 11
0.08
 21
-0.14
 31
-0.99
 12
0.00
 22
0.00
 32
-0.99
 13
0.00
 23
0.00
 33
-0.99
  0
3DFACE
  8
CHBOLTBO
 10
0.08
 20
-0.14
 30
-0.99
 11
0.12
 21
-0.12
 31
-0.99
 12
0.18
 22
-0.18
 32
-1.24
 13
0.13
 23
-0.22
 33
-1.24
  0
3DFACE
  8
CHBOLTBO
 10
0.08
 20
-0.14
 30
-0.99
 11
0.12
 21
-0.12
 31
-0.99
 12
0.00
 22
0.00
 32
-0.99
 13
0.00
 23
0.00
 33
-0.99
  0
3DFACE
  8
CHBOLTBO
 10
0.12
 20
-0.12
 30
-0.99
 11
0.14
 21
-0.08
 31
-0.99
 12
0.22
 22
-0.13
 32
-1.24
 13
0.18
 23
-0.18
 33
-1.24
  0
3DFACE
  8
CHBOLTBO
 10
0.12
 20
-0.12
 30
-0.99
 11
0.14
 21
-0.08
 31
-0.99
 12
0.00
 22
0.00
 32
-0.99
 13
0.00
 23
0.00
 33
-0.99
  0
3DFACE
  8
CHBOLTBO
 10
0.14
 20
-0.08
 30
-0.99
 11
0.16
 21
-0.04
 31
-0.99
 12
0.24
 22
-0.06
 32
-1.24
 13
0.22
 23
-0.13
 33
-1.24
  0
3DFACE
  8
CHBOLTBO
 10
0.14
 20
-0.08
 30
-0.99
 11
0.16
 21
-0.04
 31
-0.99
 12
0.00
 22
0.00
 32
-0.99
 13
0.00
 23
0.00
 33
-0.99
  0
3DFACE
  8
CHBOLTBO
 10
0.16
 20
-0.04
 30
-0.99
 11
0.17
 21
0.00
 31
-0.99
 12
0.25
 22
0.00
 32
-1.24
 13
0.24
 23
-0.06
 33
-1.24
  0
3DFACE
  8
CHBOLTBO
 10
0.16
 20
-0.04
 30
-0.99
 11
0.17
 21
0.00
 31
-0.99
 12
0.00
 22
0.00
 32
-0.99
 13
0.00
 23
0.00
 33
-0.99
  0
3DFACE
  8
CHBOLTBO
 10
0.13
 20
0.00
 30
-0.99
 11
0.12
 21
0.03
 31
-0.99
 12
0.12
 22
0.03
 32
-0.96
 13
0.13
 23
0.00
 33
-0.96
  0
3DFACE
  8
CHBOLTBO
 10
0.12
 20
0.03
 30
-0.99
 11
0.11
 21
0.06
 31
-0.99
 12
0.11
 22
0.06
 32
-0.96
 13
0.12
 23
0.03
 33
-0.96
  0
3DFACE
  8
CHBOLTBO
 10
0.11
 20
0.06
 30
-0.99
 11
0.09
 21
0.09
 31
-0.99
 12
0.09
 22
0.09
 32
-0.96
 13
0.11
 23
0.06
 33
-0.96
  0
3DFACE
  8
CHBOLTBO
 10
0.09
 20
0.09
 30
-0.99
 11
0.06
 21
0.11
 31
-0.99
 12
0.06
 22
0.11
 32
-0.96
 13
0.09
 23
0.09
 33
-0.96
  0
3DFACE
  8
CHBOLTBO
 10
0.06
 20
0.11
 30
-0.99
 11
0.03
 21
0.12
 31
-0.99
 12
0.03
 22
0.12
 32
-0.96
 13
0.06
 23
0.11
 33
-0.96
  0
3DFACE
  8
CHBOLTBO
 10
0.03
 20
0.12
 30
-0.99
 11
0.00
 21
0.13
 31
-0.99
 12
0.00
 22
0.13
 32
-0.96
 13
0.03
 23
0.12
 33
-0.96
  0
3DFACE
  8
CHBOLTBO
 10
0.00
 20
0.13
 30
-0.99
 11
-0.03
 21
0.12
 31
-0.99
 12
-0.03
 22
0.12
 32
-0.96
 13
0.00
 23
0.13
 33
-0.96
  0
3DFACE
  8
CHBOLTBO
 10
-0.03
 20
0.12
 30
-0.99
 11
-0.06
 21
0.11
 31
-0.99
 12
-0.06
 22
0.11
 32
-0.96
 13
-0.03
 23
0.12
 33
-0.96
  0
3DFACE
  8
CHBOLTBO
 10
-0.06
 20
0.11
 30
-0.99
 11
-0.09
 21
0.09
 31
-0.99
 12
-0.09
 22
0.09
 32
-0.96
 13
-0.06
 23
0.11
 33
-0.96
  0
3DFACE
  8
CHBOLTBO
 10
-0.09
 20
0.09
 30
-0.99
 11
-0.11
 21
0.06
 31
-0.99
 12
-0.11
 22
0.06
 32
-0.96
 13
-0.09
 23
0.09
 33
-0.96
  0
3DFACE
  8
CHBOLTBO
 10
-0.11
 20
0.06
 30
-0.99
 11
-0.12
 21
0.03
 31
-0.99
 12
-0.12
 22
0.03
 32
-0.96
 13
-0.11
 23
0.06
 33
-0.96
  0
3DFACE
  8
CHBOLTBO
 10
-0.12
 20
0.03
 30
-0.99
 11
-0.13
 21
0.00
 31
-0.99
 12
-0.13
 22
0.00
 32
-0.96
 13
-0.12
 23
0.03
 33
-0.96
  0
3DFACE
  8
CHBOLTBO
 10
-0.13
 20
0.00
 30
-0.99
 11
-0.12
 21
-0.03
 31
-0.99
 12
-0.12
 22
-0.03
 32
-0.96
 13
-0.13
 23
0.00
 33
-0.96
  0
3DFACE
  8
CHBOLTBO
 10
-0.12
 20
-0.03
 30
-0.99
 11
-0.11
 21
-0.06
 31
-0.99
 12
-0.11
 22
-0.06
 32
-0.96
 13
-0.12
 23
-0.03
 33
-0.96
  0
3DFACE
  8
CHBOLTBO
 10
-0.11
 20
-0.06
 30
-0.99
 11
-0.09
 21
-0.09
 31
-0.99
 12
-0.09
 22
-0.09
 32
-0.96
 13
-0.11
 23
-0.06
 33
-0.96
  0
3DFACE
  8
CHBOLTBO
 10
-0.09
 20
-0.09
 30
-0.99
 11
-0.06
 21
-0.11
 31
-0.99
 12
-0.06
 22
-0.11
 32
-0.96
 13
-0.09
 23
-0.09
 33
-0.96
  0
3DFACE
  8
CHBOLTBO
 10
-0.06
 20
-0.11
 30
-0.99
 11
-0.03
 21
-0.12
 31
-0.99
 12
-0.03
 22
-0.12
 32
-0.96
 13
-0.06
 23
-0.11
 33
-0.96
  0
3DFACE
  8
CHBOLTBO
 10
-0.03
 20
-0.12
 30
-0.99
 11
0.00
 21
-0.13
 31
-0.99
 12
0.00
 22
-0.13
 32
-0.96
 13
-0.03
 23
-0.12
 33
-0.96
  0
3DFACE
  8
CHBOLTBO
 10
0.00
 20
-0.13
 30
-0.99
 11
0.03
 21
-0.12
 31
-0.99
 12
0.03
 22
-0.12
 32
-0.96
 13
0.00
 23
-0.13
 33
-0.96
  0
3DFACE
  8
CHBOLTBO
 10
0.03
 20
-0.12
 30
-0.99
 11
0.06
 21
-0.11
 31
-0.99
 12
0.06
 22
-0.11
 32
-0.96
 13
0.03
 23
-0.12
 33
-0.96
  0
3DFACE
  8
CHBOLTBO
 10
0.06
 20
-0.11
 30
-0.99
 11
0.09
 21
-0.09
 31
-0.99
 12
0.09
 22
-0.09
 32
-0.96
 13
0.06
 23
-0.11
 33
-0.96
  0
3DFACE
  8
CHBOLTBO
 10
0.09
 20
-0.09
 30
-0.99
 11
0.11
 21
-0.06
 31
-0.99
 12
0.11
 22
-0.06
 32
-0.96
 13
0.09
 23
-0.09
 33
-0.96
  0
3DFACE
  8
CHBOLTBO
 10
0.11
 20
-0.06
 30
-0.99
 11
0.12
 21
-0.03
 31
-0.99
 12
0.12
 22
-0.03
 32
-0.96
 13
0.11
 23
-0.06
 33
-0.96
  0
3DFACE
  8
CHBOLTBO
 10
0.12
 20
-0.03
 30
-0.99
 11
0.13
 21
0.00
 31
-0.99
 12
0.13
 22
0.00
 32
-0.96
 13
0.12
 23
-0.03
 33
-0.96
  0
ENDBLK
  0
BLOCK
  2
BOLTHEAD
  0
3DFACE
  8
CHBOLTHD
 10
0.15
 20
0.00
 30
-0.96
 11
0.14
 21
0.04
 31
-0.96
 12
0.00
 22
0.00
 32
-0.96
 13
0.00
 23
0.00
 33
-0.96
  0
3DFACE
  8
CHBOLTHD
 10
0.15
 20
0.00
 30
-0.95
 11
0.14
 21
0.04
 31
-0.95
 12
0.00
 22
0.00
 32
-0.90
 13
0.00
 23
0.00
 33
-0.90
  0
3DFACE
  8
CHBOLTHD
 10
0.15
 20
0.00
 30
-0.96
 11
0.14
 21
0.04
 31
-0.96
 12
0.14
 22
0.04
 32
-0.95
 13
0.15
 23
0.00
 33
-0.95
  0
3DFACE
  8
CHBOLTHD
 10
0.14
 20
0.04
 30
-0.96
 11
0.13
 21
0.07
 31
-0.96
 12
0.00
 22
0.00
 32
-0.96
 13
0.00
 23
0.00
 33
-0.96
  0
3DFACE
  8
CHBOLTHD
 10
0.14
 20
0.04
 30
-0.95
 11
0.13
 21
0.07
 31
-0.95
 12
0.00
 22
0.00
 32
-0.90
 13
0.00
 23
0.00
 33
-0.90
  0
3DFACE
  8
CHBOLTHD
 10
0.14
 20
0.04
 30
-0.96
 11
0.13
 21
0.07
 31
-0.96
 12
0.13
 22
0.07
 32
-0.95
 13
0.14
 23
0.04
 33
-0.95
  0
3DFACE
  8
CHBOLTHD
 10
0.13
 20
0.07
 30
-0.96
 11
0.10
 21
0.10
 31
-0.96
 12
0.00
 22
0.00
 32
-0.96
 13
0.00
 23
0.00
 33
-0.96
  0
3DFACE
  8
CHBOLTHD
 10
0.13
 20
0.07
 30
-0.95
 11
0.10
 21
0.10
 31
-0.95
 12
0.00
 22
0.00
 32
-0.90
 13
0.00
 23
0.00
 33
-0.90
  0
3DFACE
  8
CHBOLTHD
 10
0.13
 20
0.07
 30
-0.96
 11
0.10
 21
0.10
 31
-0.96
 12
0.10
 22
0.10
 32
-0.95
 13
0.13
 23
0.07
 33
-0.95
  0
3DFACE
  8
CHBOLTHD
 10
0.10
 20
0.10
 30
-0.96
 11
0.07
 21
0.13
 31
-0.96
 12
0.00
 22
0.00
 32
-0.96
 13
0.00
 23
0.00
 33
-0.96
  0
3DFACE
  8
CHBOLTHD
 10
0.10
 20
0.10
 30
-0.95
 11
0.07
 21
0.13
 31
-0.95
 12
0.00
 22
0.00
 32
-0.90
 13
0.00
 23
0.00
 33
-0.90
  0
3DFACE
  8
CHBOLTHD
 10
0.10
 20
0.10
 30
-0.96
 11
0.07
 21
0.13
 31
-0.96
 12
0.07
 22
0.13
 32
-0.95
 13
0.10
 23
0.10
 33
-0.95
  0
3DFACE
  8
CHBOLTHD
 10
0.07
 20
0.13
 30
-0.96
 11
0.04
 21
0.14
 31
-0.96
 12
0.00
 22
0.00
 32
-0.96
 13
0.00
 23
0.00
 33
-0.96
  0
3DFACE
  8
CHBOLTHD
 10
0.07
 20
0.13
 30
-0.95
 11
0.04
 21
0.14
 31
-0.95
 12
0.00
 22
0.00
 32
-0.90
 13
0.00
 23
0.00
 33
-0.90
  0
3DFACE
  8
CHBOLTHD
 10
0.07
 20
0.13
 30
-0.96
 11
0.04
 21
0.14
 31
-0.96
 12
0.04
 22
0.14
 32
-0.95
 13
0.07
 23
0.13
 33
-0.95
  0
3DFACE
  8
CHBOLTHD
 10
0.04
 20
0.14
 30
-0.96
 11
0.00
 21
0.15
 31
-0.96
 12
0.00
 22
0.00
 32
-0.96
 13
0.00
 23
0.00
 33
-0.96
  0
3DFACE
  8
CHBOLTHD
 10
0.04
 20
0.14
 30
-0.95
 11
0.00
 21
0.15
 31
-0.95
 12
0.00
 22
0.00
 32
-0.90
 13
0.00
 23
0.00
 33
-0.90
  0
3DFACE
  8
CHBOLTHD
 10
0.04
 20
0.14
 30
-0.96
 11
0.00
 21
0.15
 31
-0.96
 12
0.00
 22
0.15
 32
-0.95
 13
0.04
 23
0.14
 33
-0.95
  0
3DFACE
  8
CHBOLTHD
 10
0.00
 20
0.15
 30
-0.96
 11
-0.04
 21
0.14
 31
-0.96
 12
0.00
 22
0.00
 32
-0.96
 13
0.00
 23
0.00
 33
-0.96
  0
3DFACE
  8
CHBOLTHD
 10
0.00
 20
0.15
 30
-0.95
 11
-0.04
 21
0.14
 31
-0.95
 12
0.00
 22
0.00
 32
-0.90
 13
0.00
 23
0.00
 33
-0.90
  0
3DFACE
  8
CHBOLTHD
 10
0.00
 20
0.15
 30
-0.96
 11
-0.04
 21
0.14
 31
-0.96
 12
-0.04
 22
0.14
 32
-0.95
 13
0.00
 23
0.15
 33
-0.95
  0
3DFACE
  8
CHBOLTHD
 10
-0.04
 20
0.14
 30
-0.96
 11
-0.07
 21
0.13
 31
-0.96
 12
0.00
 22
0.00
 32
-0.96
 13
0.00
 23
0.00
 33
-0.96
  0
3DFACE
  8
CHBOLTHD
 10
-0.04
 20
0.14
 30
-0.95
 11
-0.07
 21
0.13
 31
-0.95
 12
0.00
 22
0.00
 32
-0.90
 13
0.00
 23
0.00
 33
-0.90
  0
3DFACE
  8
CHBOLTHD
 10
-0.04
 20
0.14
 30
-0.96
 11
-0.07
 21
0.13
 31
-0.96
 12
-0.07
 22
0.13
 32
-0.95
 13
-0.04
 23
0.14
 33
-0.95
  0
3DFACE
  8
CHBOLTHD
 10
-0.07
 20
0.13
 30
-0.96
 11
-0.10
 21
0.10
 31
-0.96
 12
0.00
 22
0.00
 32
-0.96
 13
0.00
 23
0.00
 33
-0.96
  0
3DFACE
  8
CHBOLTHD
 10
-0.07
 20
0.13
 30
-0.95
 11
-0.10
 21
0.10
 31
-0.95
 12
0.00
 22
0.00
 32
-0.90
 13
0.00
 23
0.00
 33
-0.90
  0
3DFACE
  8
CHBOLTHD
 10
-0.07
 20
0.13
 30
-0.96
 11
-0.10
 21
0.10
 31
-0.96
 12
-0.10
 22
0.10
 32
-0.95
 13
-0.07
 23
0.13
 33
-0.95
  0
3DFACE
  8
CHBOLTHD
 10
-0.10
 20
0.10
 30
-0.96
 11
-0.13
 21
0.07
 31
-0.96
 12
0.00
 22
0.00
 32
-0.96
 13
0.00
 23
0.00
 33
-0.96
  0
3DFACE
  8
CHBOLTHD
 10
-0.10
 20
0.10
 30
-0.95
 11
-0.13
 21
0.07
 31
-0.95
 12
0.00
 22
0.00
 32
-0.90
 13
0.00
 23
0.00
 33
-0.90
  0
3DFACE
  8
CHBOLTHD
 10
-0.10
 20
0.10
 30
-0.96
 11
-0.13
 21
0.07
 31
-0.96
 12
-0.13
 22
0.07
 32
-0.95
 13
-0.10
 23
0.10
 33
-0.95
  0
3DFACE
  8
CHBOLTHD
 10
-0.13
 20
0.07
 30
-0.96
 11
-0.14
 21
0.04
 31
-0.96
 12
0.00
 22
0.00
 32
-0.96
 13
0.00
 23
0.00
 33
-0.96
  0
3DFACE
  8
CHBOLTHD
 10
-0.13
 20
0.07
 30
-0.95
 11
-0.14
 21
0.04
 31
-0.95
 12
0.00
 22
0.00
 32
-0.90
 13
0.00
 23
0.00
 33
-0.90
  0
3DFACE
  8
CHBOLTHD
 10
-0.13
 20
0.07
 30
-0.96
 11
-0.14
 21
0.04
 31
-0.96
 12
-0.14
 22
0.04
 32
-0.95
 13
-0.13
 23
0.07
 33
-0.95
  0
3DFACE
  8
CHBOLTHD
 10
-0.14
 20
0.04
 30
-0.96
 11
-0.15
 21
0.00
 31
-0.96
 12
0.00
 22
0.00
 32
-0.96
 13
0.00
 23
0.00
 33
-0.96
  0
3DFACE
  8
CHBOLTHD
 10
-0.14
 20
0.04
 30
-0.95
 11
-0.15
 21
0.00
 31
-0.95
 12
0.00
 22
0.00
 32
-0.90
 13
0.00
 23
0.00
 33
-0.90
  0
3DFACE
  8
CHBOLTHD
 10
-0.14
 20
0.04
 30
-0.96
 11
-0.15
 21
0.00
 31
-0.96
 12
-0.15
 22
0.00
 32
-0.95
 13
-0.14
 23
0.04
 33
-0.95
  0
3DFACE
  8
CHBOLTHD
 10
-0.15
 20
0.00
 30
-0.96
 11
-0.14
 21
-0.04
 31
-0.96
 12
0.00
 22
0.00
 32
-0.96
 13
0.00
 23
0.00
 33
-0.96
  0
3DFACE
  8
CHBOLTHD
 10
-0.15
 20
0.00
 30
-0.95
 11
-0.14
 21
-0.04
 31
-0.95
 12
0.00
 22
0.00
 32
-0.90
 13
0.00
 23
0.00
 33
-0.90
  0
3DFACE
  8
CHBOLTHD
 10
-0.15
 20
0.00
 30
-0.96
 11
-0.14
 21
-0.04
 31
-0.96
 12
-0.14
 22
-0.04
 32
-0.95
 13
-0.15
 23
0.00
 33
-0.95
  0
3DFACE
  8
CHBOLTHD
 10
-0.14
 20
-0.04
 30
-0.96
 11
-0.13
 21
-0.07
 31
-0.96
 12
0.00
 22
0.00
 32
-0.96
 13
0.00
 23
0.00
 33
-0.96
  0
3DFACE
  8
CHBOLTHD
 10
-0.14
 20
-0.04
 30
-0.95
 11
-0.13
 21
-0.07
 31
-0.95
 12
0.00
 22
0.00
 32
-0.90
 13
0.00
 23
0.00
 33
-0.90
  0
3DFACE
  8
CHBOLTHD
 10
-0.14
 20
-0.04
 30
-0.96
 11
-0.13
 21
-0.07
 31
-0.96
 12
-0.13
 22
-0.07
 32
-0.95
 13
-0.14
 23
-0.04
 33
-0.95
  0
3DFACE
  8
CHBOLTHD
 10
-0.13
 20
-0.07
 30
-0.96
 11
-0.10
 21
-0.10
 31
-0.96
 12
0.00
 22
0.00
 32
-0.96
 13
0.00
 23
0.00
 33
-0.96
  0
3DFACE
  8
CHBOLTHD
 10
-0.13
 20
-0.07
 30
-0.95
 11
-0.10
 21
-0.10
 31
-0.95
 12
0.00
 22
0.00
 32
-0.90
 13
0.00
 23
0.00
 33
-0.90
  0
3DFACE
  8
CHBOLTHD
 10
-0.13
 20
-0.07
 30
-0.96
 11
-0.10
 21
-0.10
 31
-0.96
 12
-0.10
 22
-0.10
 32
-0.95
 13
-0.13
 23
-0.07
 33
-0.95
  0
3DFACE
  8
CHBOLTHD
 10
-0.10
 20
-0.10
 30
-0.96
 11
-0.07
 21
-0.13
 31
-0.96
 12
0.00
 22
0.00
 32
-0.96
 13
0.00
 23
0.00
 33
-0.96
  0
3DFACE
  8
CHBOLTHD
 10
-0.10
 20
-0.10
 30
-0.95
 11
-0.07
 21
-0.13
 31
-0.95
 12
0.00
 22
0.00
 32
-0.90
 13
0.00
 23
0.00
 33
-0.90
  0
3DFACE
  8
CHBOLTHD
 10
-0.10
 20
-0.10
 30
-0.96
 11
-0.07
 21
-0.13
 31
-0.96
 12
-0.07
 22
-0.13
 32
-0.95
 13
-0.10
 23
-0.10
 33
-0.95
  0
3DFACE
  8
CHBOLTHD
 10
-0.07
 20
-0.13
 30
-0.96
 11
-0.04
 21
-0.14
 31
-0.96
 12
0.00
 22
0.00
 32
-0.96
 13
0.00
 23
0.00
 33
-0.96
  0
3DFACE
  8
CHBOLTHD
 10
-0.07
 20
-0.13
 30
-0.95
 11
-0.04
 21
-0.14
 31
-0.95
 12
0.00
 22
0.00
 32
-0.90
 13
0.00
 23
0.00
 33
-0.90
  0
3DFACE
  8
CHBOLTHD
 10
-0.07
 20
-0.13
 30
-0.96
 11
-0.04
 21
-0.14
 31
-0.96
 12
-0.04
 22
-0.14
 32
-0.95
 13
-0.07
 23
-0.13
 33
-0.95
  0
3DFACE
  8
CHBOLTHD
 10
-0.04
 20
-0.14
 30
-0.96
 11
0.00
 21
-0.15
 31
-0.96
 12
0.00
 22
0.00
 32
-0.96
 13
0.00
 23
0.00
 33
-0.96
  0
3DFACE
  8
CHBOLTHD
 10
-0.04
 20
-0.14
 30
-0.95
 11
0.00
 21
-0.15
 31
-0.95
 12
0.00
 22
0.00
 32
-0.90
 13
0.00
 23
0.00
 33
-0.90
  0
3DFACE
  8
CHBOLTHD
 10
-0.04
 20
-0.14
 30
-0.96
 11
0.00
 21
-0.15
 31
-0.96
 12
0.00
 22
-0.15
 32
-0.95
 13
-0.04
 23
-0.14
 33
-0.95
  0
3DFACE
  8
CHBOLTHD
 10
0.00
 20
-0.15
 30
-0.96
 11
0.04
 21
-0.14
 31
-0.96
 12
0.00
 22
0.00
 32
-0.96
 13
0.00
 23
0.00
 33
-0.96
  0
3DFACE
  8
CHBOLTHD
 10
0.00
 20
-0.15
 30
-0.95
 11
0.04
 21
-0.14
 31
-0.95
 12
0.00
 22
0.00
 32
-0.90
 13
0.00
 23
0.00
 33
-0.90
  0
3DFACE
  8
CHBOLTHD
 10
0.00
 20
-0.15
 30
-0.96
 11
0.04
 21
-0.14
 31
-0.96
 12
0.04
 22
-0.14
 32
-0.95
 13
0.00
 23
-0.15
 33
-0.95
  0
3DFACE
  8
CHBOLTHD
 10
0.04
 20
-0.14
 30
-0.96
 11
0.07
 21
-0.13
 31
-0.96
 12
0.00
 22
0.00
 32
-0.96
 13
0.00
 23
0.00
 33
-0.96
  0
3DFACE
  8
CHBOLTHD
 10
0.04
 20
-0.14
 30
-0.95
 11
0.07
 21
-0.13
 31
-0.95
 12
0.00
 22
0.00
 32
-0.90
 13
0.00
 23
0.00
 33
-0.90
  0
3DFACE
  8
CHBOLTHD
 10
0.04
 20
-0.14
 30
-0.96
 11
0.07
 21
-0.13
 31
-0.96
 12
0.07
 22
-0.13
 32
-0.95
 13
0.04
 23
-0.14
 33
-0.95
  0
3DFACE
  8
CHBOLTHD
 10
0.07
 20
-0.13
 30
-0.96
 11
0.10
 21
-0.10
 31
-0.96
 12
0.00
 22
0.00
 32
-0.96
 13
0.00
 23
0.00
 33
-0.96
  0
3DFACE
  8
CHBOLTHD
 10
0.07
 20
-0.13
 30
-0.95
 11
0.10
 21
-0.10
 31
-0.95
 12
0.00
 22
0.00
 32
-0.90
 13
0.00
 23
0.00
 33
-0.90
  0
3DFACE
  8
CHBOLTHD
 10
0.07
 20
-0.13
 30
-0.96
 11
0.10
 21
-0.10
 31
-0.96
 12
0.10
 22
-0.10
 32
-0.95
 13
0.07
 23
-0.13
 33
-0.95
  0
3DFACE
  8
CHBOLTHD
 10
0.10
 20
-0.10
 30
-0.96
 11
0.13
 21
-0.07
 31
-0.96
 12
0.00
 22
0.00
 32
-0.96
 13
0.00
 23
0.00
 33
-0.96
  0
3DFACE
  8
CHBOLTHD
 10
0.10
 20
-0.10
 30
-0.95
 11
0.13
 21
-0.07
 31
-0.95
 12
0.00
 22
0.00
 32
-0.90
 13
0.00
 23
0.00
 33
-0.90
  0
3DFACE
  8
CHBOLTHD
 10
0.10
 20
-0.10
 30
-0.96
 11
0.13
 21
-0.07
 31
-0.96
 12
0.13
 22
-0.07
 32
-0.95
 13
0.10
 23
-0.10
 33
-0.95
  0
3DFACE
  8
CHBOLTHD
 10
0.13
 20
-0.07
 30
-0.96
 11
0.14
 21
-0.04
 31
-0.96
 12
0.00
 22
0.00
 32
-0.96
 13
0.00
 23
0.00
 33
-0.96
  0
3DFACE
  8
CHBOLTHD
 10
0.13
 20
-0.07
 30
-0.95
 11
0.14
 21
-0.04
 31
-0.95
 12
0.00
 22
0.00
 32
-0.90
 13
0.00
 23
0.00
 33
-0.90
  0
3DFACE
  8
CHBOLTHD
 10
0.13
 20
-0.07
 30
-0.96
 11
0.14
 21
-0.04
 31
-0.96
 12
0.14
 22
-0.04
 32
-0.95
 13
0.13
 23
-0.07
 33
-0.95
  0
3DFACE
  8
CHBOLTHD
 10
0.14
 20
-0.04
 30
-0.96
 11
0.15
 21
0.00
 31
-0.96
 12
0.00
 22
0.00
 32
-0.96
 13
0.00
 23
0.00
 33
-0.96
  0
3DFACE
  8
CHBOLTHD
 10
0.14
 20
-0.04
 30
-0.95
 11
0.15
 21
0.00
 31
-0.95
 12
0.00
 22
0.00
 32
-0.90
 13
0.00
 23
0.00
 33
-0.90
  0
3DFACE
  8
CHBOLTHD
 10
0.14
 20
-0.04
 30
-0.96
 11
0.15
 21
0.00
 31
-0.96
 12
0.15
 22
0.00
 32
-0.95
 13
0.14
 23
-0.04
 33
-0.95
  0
3DFACE
  8
CHBOLTHD
 10
0.10
 20
0.10
 30
-0.96
 11
0.08
 21
0.08
 31
-0.76
 12
0.08
 22
-0.08
 32
-0.76
 13
0.10
 23
-0.10
 33
-0.96
  0
3DFACE
  8
CHBOLTHD
 10
0.08
 20
-0.08
 30
-0.76
 11
0.10
 21
-0.10
 31
-0.96
 12
-0.10
 22
-0.10
 32
-0.96
 13
-0.08
 23
-0.08
 33
-0.76
  0
3DFACE
  8
CHBOLTHD
 10
-0.10
 20
-0.10
 30
-0.96
 11
-0.08
 21
-0.08
 31
-0.76
 12
-0.08
 22
0.08
 32
-0.76
 13
-0.10
 23
0.10
 33
-0.96
  0
3DFACE
  8
CHBOLTHD
 10
-0.08
 20
0.08
 30
-0.76
 11
-0.10
 21
0.10
 31
-0.96
 12
0.10
 22
0.10
 32
-0.96
 13
0.08
 23
0.08
 33
-0.76
  0
3DFACE
  8
CHBOLTHD
 10
0.08
 20
0.08
 30
-0.76
 11
0.08
 21
-0.08
 31
-0.76
 12
-0.08
 22
-0.08
 32
-0.76
 13
-0.08
 23
0.08
 33
-0.76
  0
3DFACE
  8
CHBOLTHD
 10
0.10
 20
0.10
 30
-0.96
 11
0.10
 21
-0.10
 31
-0.96
 12
-0.10
 22
-0.10
 32
-0.96
 13
-0.10
 23
0.10
 33
-0.96
  0
ENDBLK
  0
ENDSEC
  0
SECTION
  2
ENTITIES
  0
3DFACE
  8
TIMBER3D
 10
20.75
 20
28.18
 30
-4.36
 11
19.50
 21
87.67
 31
-4.36
 12
26.50
 22
87.81
 32
-4.36
 13
27.75
 23
28.33
 33
-4.36
  0
3DFACE
  8
TIMBER3D
 10
20.75
 20
28.18
 30
-7.27
 11
19.50
 21
87.67
 31
-7.27
 12
26.50
 22
87.81
 32
-7.27
 13
27.75
 23
28.33
 33
-7.27
  0
3DFACE
  8
TIMBER3D
 10
20.75
 20
28.18
 30
-4.36
 11
27.75
 21
28.33
 31
-4.36
 12
27.75
 22
28.33
 32
-7.27
 13
20.75
 23
28.18
 33
-7.27
  0
3DFACE
  8
TIMBER3D
 10
19.50
 20
87.67
 30
-4.36
 11
26.50
 21
87.81
 31
-4.36
 12
26.50
 22
87.81
 32
-7.27
 13
19.50
 23
87.67
 33
-7.27
  0
3DFACE
  8
TIMBER3D
 10
20.75
 20
28.18
 30
-4.36
 11
19.50
 21
87.67
 31
-4.36
 12
19.50
 22
87.67
 32
-7.27
 13
20.75
 23
28.18
 33
-7.27
  0
3DFACE
  8
TIMBER3D
 10
27.75
 20
28.33
 30
-4.36
 11
26.50
 21
87.81
 31
-4.36
 12
26.50
 22
87.81
 32
-7.27
 13
27.75
 23
28.33
 33
-7.27
  0
INSERT
  2
BOLTBOSS
  8
CHBOLTBO
 10
22.74
 20
44.27
 30
0.00
 41
3.5000
 42
3.5000
 43
3.5000
 50
0.000
  0
INSERT
  2
BOLTHEAD
  8
CHBOLTHD
 10
22.74
 20
44.27
 30
0.00
 41
3.5000
 42
3.5000
 43
3.5000
 50
6.000
  0
INSERT
  2
BOLTBOSS
  8
CHBOLTBO
 10
25.10
 20
44.32
 30
0.00
 41
3.5000
 42
3.5000
 43
3.5000
 50
0.000
  0
INSERT
  2
BOLTHEAD
  8
CHBOLTHD
 10
25.10
 20
44.32
 30
0.00
 41
3.5000
 42
3.5000
 43
3.5000
 50
84.000
  0
INSERT
  2
BOLTBOSS
  8
CHBOLTBO
 10
24.05
 20
37.88
 30
0.00
 41
3.5000
 42
3.5000
 43
3.5000
 50
0.000
  0
INSERT
  2
BOLTHEAD
  8
CHBOLTHD
 10
24.05
 20
37.88
 30
0.00
 41
3.5000
 42
3.5000
 43
3.5000
 50
80.000
  0
INSERT
  2
S1L
  8
CHMARKER
 10
23.96
 20
42.26
 30
0.00
 41
3.5000
 42
3.5000
 43
3.5000
 50
1.130
  0
INSERT
  2
BOLTBOSS
  8
CHBOLTBO
 10
22.19
 20
71.68
 30
0.00
 41
3.5000
 42
3.5000
 43
3.5000
 50
0.000
  0
INSERT
  2
BOLTHEAD
  8
CHBOLTHD
 10
22.19
 20
71.68
 30
0.00
 41
3.5000
 42
3.5000
 43
3.5000
 50
26.000
  0
INSERT
  2
BOLTBOSS
  8
CHBOLTBO
 10
24.49
 20
71.73
 30
0.00
 41
3.5000
 42
3.5000
 43
3.5000
 50
0.000
  0
INSERT
  2
BOLTHEAD
  8
CHBOLTHD
 10
24.49
 20
71.73
 30
0.00
 41
3.5000
 42
3.5000
 43
3.5000
 50
19.000
  0
INSERT
  2
BOLTBOSS
  8
CHBOLTBO
 10
23.20
 20
78.12
 30
0.00
 41
3.5000
 42
3.5000
 43
3.5000
 50
0.000
  0
INSERT
  2
BOLTHEAD
  8
CHBOLTHD
 10
23.20
 20
78.12
 30
0.00
 41
3.5000
 42
3.5000
 43
3.5000
 50
81.000
  0
INSERT
  2
S1R
  8
CHMARKER
 10
23.30
 20
73.75
 30
0.00
 41
3.5000
 42
3.5000
 43
3.5000
 50
1.162
  0
3DFACE
  8
TIMBER3D
 10
3.98
 20
28.00
 30
-4.36
 11
3.60
 21
87.50
 31
-4.36
 12
10.60
 22
87.55
 32
-4.36
 13
10.98
 23
28.05
 33
-4.36
  0
3DFACE
  8
TIMBER3D
 10
3.98
 20
28.00
 30
-7.27
 11
3.60
 21
87.50
 31
-7.27
 12
10.60
 22
87.55
 32
-7.27
 13
10.98
 23
28.05
 33
-7.27
  0
3DFACE
  8
TIMBER3D
 10
3.98
 20
28.00
 30
-4.36
 11
10.98
 21
28.05
 31
-4.36
 12
10.98
 22
28.05
 32
-7.27
 13
3.98
 23
28.00
 33
-7.27
  0
3DFACE
  8
TIMBER3D
 10
3.60
 20
87.50
 30
-4.36
 11
10.60
 21
87.55
 31
-4.36
 12
10.60
 22
87.55
 32
-7.27
 13
3.60
 23
87.50
 33
-7.27
  0
3DFACE
  8
TIMBER3D
 10
3.98
 20
28.00
 30
-4.36
 11
3.60
 21
87.50
 31
-4.36
 12
3.60
 22
87.50
 32
-7.27
 13
3.98
 23
28.00
 33
-7.27
  0
3DFACE
  8
TIMBER3D
 10
10.98
 20
28.05
 30
-4.36
 11
10.60
 21
87.55
 31
-4.36
 12
10.60
 22
87.55
 32
-7.27
 13
10.98
 23
28.05
 33
-7.27
  0
INSERT
  2
BOLTBOSS
  8
CHBOLTBO
 10
6.20
 20
44.06
 30
0.00
 41
3.5000
 42
3.5000
 43
3.5000
 50
0.000
  0
INSERT
  2
BOLTHEAD
  8
CHBOLTHD
 10
6.20
 20
44.06
 30
0.00
 41
3.5000
 42
3.5000
 43
3.5000
 50
81.000
  0
INSERT
  2
BOLTBOSS
  8
CHBOLTBO
 10
8.57
 20
44.08
 30
0.00
 41
3.5000
 42
3.5000
 43
3.5000
 50
0.000
  0
INSERT
  2
BOLTHEAD
  8
CHBOLTHD
 10
8.57
 20
44.08
 30
0.00
 41
3.5000
 42
3.5000
 43
3.5000
 50
35.000
  0
INSERT
  2
BOLTBOSS
  8
CHBOLTBO
 10
7.43
 20
37.65
 30
0.00
 41
3.5000
 42
3.5000
 43
3.5000
 50
0.000
  0
INSERT
  2
BOLTHEAD
  8
CHBOLTHD
 10
7.43
 20
37.65
 30
0.00
 41
3.5000
 42
3.5000
 43
3.5000
 50
48.000
  0
INSERT
  2
S1L
  8
CHMARKER
 10
7.40
 20
42.03
 30
0.00
 41
3.5000
 42
3.5000
 43
3.5000
 50
0.484
  0
INSERT
  2
BOLTBOSS
  8
CHBOLTBO
 10
6.05
 20
71.48
 30
0.00
 41
3.5000
 42
3.5000
 43
3.5000
 50
0.000
  0
INSERT
  2
BOLTHEAD
  8
CHBOLTHD
 10
6.05
 20
71.48
 30
0.00
 41
3.5000
 42
3.5000
 43
3.5000
 50
39.000
  0
INSERT
  2
BOLTBOSS
  8
CHBOLTBO
 10
8.36
 20
71.49
 30
0.00
 41
3.5000
 42
3.5000
 43
3.5000
 50
0.000
  0
INSERT
  2
BOLTHEAD
  8
CHBOLTHD
 10
8.36
 20
71.49
 30
0.00
 41
3.5000
 42
3.5000
 43
3.5000
 50
52.000
  0
INSERT
  2
BOLTBOSS
  8
CHBOLTBO
 10
7.16
 20
77.90
 30
0.00
 41
3.5000
 42
3.5000
 43
3.5000
 50
0.000
  0
INSERT
  2
BOLTHEAD
  8
CHBOLTHD
 10
7.16
 20
77.90
 30
0.00
 41
3.5000
 42
3.5000
 43
3.5000
 50
41.000
  0
INSERT
  2
S1R
  8
CHMARKER
 10
7.19
 20
73.53
 30
0.00
 41
3.5000
 42
3.5000
 43
3.5000
 50
0.497
  0
3DFACE
  8
TIMBER3D
 10
37.51
 20
28.60
 30
-4.36
 11
35.40
 21
88.07
 31
-4.36
 12
42.39
 22
88.31
 32
-4.36
 13
44.50
 23
28.85
 33
-4.36
  0
3DFACE
  8
TIMBER3D
 10
37.51
 20
28.60
 30
-7.27
 11
35.40
 21
88.07
 31
-7.27
 12
42.39
 22
88.31
 32
-7.27
 13
44.50
 23
28.85
 33
-7.27
  0
3DFACE
  8
TIMBER3D
 10
37.51
 20
28.60
 30
-4.36
 11
44.50
 21
28.85
 31
-4.36
 12
44.50
 22
28.85
 32
-7.27
 13
37.51
 23
28.60
 33
-7.27
  0
3DFACE
  8
TIMBER3D
 10
35.40
 20
88.07
 30
-4.36
 11
42.39
 21
88.31
 31
-4.36
 12
42.39
 22
88.31
 32
-7.27
 13
35.40
 23
88.07
 33
-7.27
  0
3DFACE
  8
TIMBER3D
 10
37.51
 20
28.60
 30
-4.36
 11
35.40
 21
88.07
 31
-4.36
 12
35.40
 22
88.07
 32
-7.27
 13
37.51
 23
28.60
 33
-7.27
  0
3DFACE
  8
TIMBER3D
 10
44.50
 20
28.85
 30
-4.36
 11
42.39
 21
88.31
 31
-4.36
 12
42.39
 22
88.31
 32
-7.27
 13
44.50
 23
28.85
 33
-7.27
  0
INSERT
  2
BOLTBOSS
  8
CHBOLTBO
 10
39.19
 20
46.76
 30
0.00
 41
3.5000
 42
3.5000
 43
3.5000
 50
0.000
  0
INSERT
  2
BOLTHEAD
  8
CHBOLTHD
 10
39.19
 20
46.76
 30
0.00
 41
3.5000
 42
3.5000
 43
3.5000
 50
35.000
  0
INSERT
  2
BOLTBOSS
  8
CHBOLTBO
 10
41.55
 20
46.84
 30
0.00
 41
3.5000
 42
3.5000
 43
3.5000
 50
0.000
  0
INSERT
  2
BOLTHEAD
  8
CHBOLTHD
 10
41.55
 20
46.84
 30
0.00
 41
3.5000
 42
3.5000
 43
3.5000
 50
29.000
  0
INSERT
  2
BOLTBOSS
  8
CHBOLTBO
 10
40.67
 20
38.35
 30
0.00
 41
3.5000
 42
3.5000
 43
3.5000
 50
0.000
  0
INSERT
  2
BOLTHEAD
  8
CHBOLTHD
 10
40.67
 20
38.35
 30
0.00
 41
3.5000
 42
3.5000
 43
3.5000
 50
88.000
  0
INSERT
  2
S1L
  8
CHMARKER
 10
40.51
 20
42.72
 30
0.00
 41
3.5000
 42
3.5000
 43
3.5000
 50
1.941
  0
INSERT
  2
BOLTBOSS
  8
CHBOLTBO
 10
38.51
 20
70.13
 30
0.00
 41
3.5000
 42
3.5000
 43
3.5000
 50
0.000
  0
INSERT
  2
BOLTHEAD
  8
CHBOLTHD
 10
38.51
 20
70.13
 30
0.00
 41
3.5000
 42
3.5000
 43
3.5000
 50
18.000
  0
INSERT
  2
BOLTBOSS
  8
CHBOLTBO
 10
40.82
 20
70.28
 30
0.00
 41
3.5000
 42
3.5000
 43
3.5000
 50
0.000
  0
INSERT
  2
BOLTHEAD
  8
CHBOLTHD
 10
40.82
 20
70.28
 30
0.00
 41
3.5000
 42
3.5000
 43
3.5000
 50
32.000
  0
INSERT
  2
BOLTBOSS
  8
CHBOLTBO
 10
39.11
 20
78.64
 30
0.00
 41
3.5000
 42
3.5000
 43
3.5000
 50
0.000
  0
INSERT
  2
BOLTHEAD
  8
CHBOLTHD
 10
39.11
 20
78.64
 30
0.00
 41
3.5000
 42
3.5000
 43
3.5000
 50
43.000
  0
INSERT
  2
S1R
  8
CHMARKER
 10
39.39
 20
74.28
 30
0.00
 41
3.5000
 42
3.5000
 43
3.5000
 50
3.991
  0
3DFACE
  8
TIMBER3D
 10
54.26
 20
29.27
 30
-4.36
 11
51.29
 21
88.70
 31
-4.36
 12
58.28
 22
89.05
 32
-4.36
 13
61.25
 23
29.62
 33
-4.36
  0
3DFACE
  8
TIMBER3D
 10
54.26
 20
29.27
 30
-7.27
 11
51.29
 21
88.70
 31
-7.27
 12
58.28
 22
89.05
 32
-7.27
 13
61.25
 23
29.62
 33
-7.27
  0
3DFACE
  8
TIMBER3D
 10
54.26
 20
29.27
 30
-4.36
 11
61.25
 21
29.62
 31
-4.36
 12
61.25
 22
29.62
 32
-7.27
 13
54.26
 23
29.27
 33
-7.27
  0
3DFACE
  8
TIMBER3D
 10
51.29
 20
88.70
 30
-4.36
 11
58.28
 21
89.05
 31
-4.36
 12
58.28
 22
89.05
 32
-7.27
 13
51.29
 23
88.70
 33
-7.27
  0
3DFACE
  8
TIMBER3D
 10
54.26
 20
29.27
 30
-4.36
 11
51.29
 21
88.70
 31
-4.36
 12
51.29
 22
88.70
 32
-7.27
 13
54.26
 23
29.27
 33
-7.27
  0
3DFACE
  8
TIMBER3D
 10
61.25
 20
29.62
 30
-4.36
 11
58.28
 21
89.05
 31
-4.36
 12
58.28
 22
89.05
 32
-7.27
 13
61.25
 23
29.62
 33
-7.27
  0
INSERT
  2
BOLTBOSS
  8
CHBOLTBO
 10
55.68
 20
47.45
 30
0.00
 41
3.5000
 42
3.5000
 43
3.5000
 50
0.000
  0
INSERT
  2
BOLTHEAD
  8
CHBOLTHD
 10
55.68
 20
47.45
 30
0.00
 41
3.5000
 42
3.5000
 43
3.5000
 50
68.000
  0
INSERT
  2
BOLTBOSS
  8
CHBOLTBO
 10
58.03
 20
47.57
 30
0.00
 41
3.5000
 42
3.5000
 43
3.5000
 50
0.000
  0
INSERT
  2
BOLTHEAD
  8
CHBOLTHD
 10
58.03
 20
47.57
 30
0.00
 41
3.5000
 42
3.5000
 43
3.5000
 50
0.000
  0
INSERT
  2
BOLTBOSS
  8
CHBOLTBO
 10
57.28
 20
39.06
 30
0.00
 41
3.5000
 42
3.5000
 43
3.5000
 50
0.000
  0
INSERT
  2
BOLTHEAD
  8
CHBOLTHD
 10
57.28
 20
39.06
 30
0.00
 41
3.5000
 42
3.5000
 43
3.5000
 50
50.000
  0
INSERT
  2
S1L
  8
CHMARKER
 10
57.06
 20
43.43
 30
0.00
 41
3.5000
 42
3.5000
 43
3.5000
 50
2.903
  0
INSERT
  2
BOLTBOSS
  8
CHBOLTBO
 10
54.64
 20
71.32
 30
0.00
 41
3.5000
 42
3.5000
 43
3.5000
 50
0.000
  0
INSERT
  2
BOLTHEAD
  8
CHBOLTHD
 10
54.64
 20
71.32
 30
0.00
 41
3.5000
 42
3.5000
 43
3.5000
 50
32.000
  0
INSERT
  2
BOLTBOSS
  8
CHBOLTBO
 10
56.94
 20
71.51
 30
0.00
 41
3.5000
 42
3.5000
 43
3.5000
 50
0.000
  0
INSERT
  2
BOLTHEAD
  8
CHBOLTHD
 10
56.94
 20
71.51
 30
0.00
 41
3.5000
 42
3.5000
 43
3.5000
 50
59.000
  0
INSERT
  2
BOLTBOSS
  8
CHBOLTBO
 10
55.11
 20
79.84
 30
0.00
 41
3.5000
 42
3.5000
 43
3.5000
 50
0.000
  0
INSERT
  2
BOLTHEAD
  8
CHBOLTHD
 10
55.11
 20
79.84
 30
0.00
 41
3.5000
 42
3.5000
 43
3.5000
 50
60.000
  0
INSERT
  2
S1R
  8
CHMARKER
 10
55.46
 20
75.48
 30
0.00
 41
3.5000
 42
3.5000
 43
3.5000
 50
4.667
  0
3DFACE
  8
TIMBER3D
 10
71.00
 20
30.18
 30
-4.36
 11
67.16
 21
89.55
 31
-4.36
 12
74.15
 22
90.01
 32
-4.36
 13
77.99
 23
30.63
 33
-4.36
  0
3DFACE
  8
TIMBER3D
 10
71.00
 20
30.18
 30
-7.27
 11
67.16
 21
89.55
 31
-7.27
 12
74.15
 22
90.01
 32
-7.27
 13
77.99
 23
30.63
 33
-7.27
  0
3DFACE
  8
TIMBER3D
 10
71.00
 20
30.18
 30
-4.36
 11
77.99
 21
30.63
 31
-4.36
 12
77.99
 22
30.63
 32
-7.27
 13
71.00
 23
30.18
 33
-7.27
  0
3DFACE
  8
TIMBER3D
 10
67.16
 20
89.55
 30
-4.36
 11
74.15
 21
90.01
 31
-4.36
 12
74.15
 22
90.01
 32
-7.27
 13
67.16
 23
89.55
 33
-7.27
  0
3DFACE
  8
TIMBER3D
 10
71.00
 20
30.18
 30
-4.36
 11
67.16
 21
89.55
 31
-4.36
 12
67.16
 22
89.55
 32
-7.27
 13
71.00
 23
30.18
 33
-7.27
  0
3DFACE
  8
TIMBER3D
 10
77.99
 20
30.63
 30
-4.36
 11
74.15
 21
90.01
 31
-4.36
 12
74.15
 22
90.01
 32
-7.27
 13
77.99
 23
30.63
 33
-7.27
  0
INSERT
  2
BOLTBOSS
  8
CHBOLTBO
 10
72.15
 20
48.38
 30
0.00
 41
3.5000
 42
3.5000
 43
3.5000
 50
0.000
  0
INSERT
  2
BOLTHEAD
  8
CHBOLTHD
 10
72.15
 20
48.38
 30
0.00
 41
3.5000
 42
3.5000
 43
3.5000
 50
86.000
  0
INSERT
  2
BOLTBOSS
  8
CHBOLTBO
 10
74.51
 20
48.53
 30
0.00
 41
3.5000
 42
3.5000
 43
3.5000
 50
0.000
  0
INSERT
  2
BOLTHEAD
  8
CHBOLTHD
 10
74.51
 20
48.53
 30
0.00
 41
3.5000
 42
3.5000
 43
3.5000
 50
75.000
  0
INSERT
  2
BOLTBOSS
  8
CHBOLTBO
 10
73.88
 20
40.01
 30
0.00
 41
3.5000
 42
3.5000
 43
3.5000
 50
0.000
  0
INSERT
  2
BOLTHEAD
  8
CHBOLTHD
 10
73.88
 20
40.01
 30
0.00
 41
3.5000
 42
3.5000
 43
3.5000
 50
26.000
  0
INSERT
  2
S1L
  8
CHMARKER
 10
73.59
 20
44.38
 30
0.00
 41
3.5000
 42
3.5000
 43
3.5000
 50
3.717
  0
INSERT
  2
BOLTBOSS
  8
CHBOLTBO
 10
70.74
 20
72.74
 30
0.00
 41
3.5000
 42
3.5000
 43
3.5000
 50
0.000
  0
INSERT
  2
BOLTHEAD
  8
CHBOLTHD
 10
70.74
 20
72.74
 30
0.00
 41
3.5000
 42
3.5000
 43
3.5000
 50
26.000
  0
INSERT
  2
BOLTBOSS
  8
CHBOLTBO
 10
73.03
 20
72.96
 30
0.00
 41
3.5000
 42
3.5000
 43
3.5000
 50
0.000
  0
INSERT
  2
BOLTHEAD
  8
CHBOLTHD
 10
73.03
 20
72.96
 30
0.00
 41
3.5000
 42
3.5000
 43
3.5000
 50
32.000
  0
INSERT
  2
BOLTBOSS
  8
CHBOLTBO
 10
71.08
 20
81.27
 30
0.00
 41
3.5000
 42
3.5000
 43
3.5000
 50
0.000
  0
INSERT
  2
BOLTHEAD
  8
CHBOLTHD
 10
71.08
 20
81.27
 30
0.00
 41
3.5000
 42
3.5000
 43
3.5000
 50
7.000
  0
INSERT
  2
S1R
  8
CHMARKER
 10
71.50
 20
76.91
 30
0.00
 41
3.5000
 42
3.5000
 43
3.5000
 50
5.496
  0
3DFACE
  8
TIMBER3D
 10
87.73
 20
31.33
 30
-4.36
 11
82.75
 21
94.13
 31
-4.36
 12
89.73
 22
94.69
 32
-4.36
 13
94.70
 23
31.88
 33
-4.36
  0
3DFACE
  8
TIMBER3D
 10
87.73
 20
31.33
 30
-7.27
 11
82.75
 21
94.13
 31
-7.27
 12
89.73
 22
94.69
 32
-7.27
 13
94.70
 23
31.88
 33
-7.27
  0
3DFACE
  8
TIMBER3D
 10
87.73
 20
31.33
 30
-4.36
 11
94.70
 21
31.88
 31
-4.36
 12
94.70
 22
31.88
 32
-7.27
 13
87.73
 23
31.33
 33
-7.27
  0
3DFACE
  8
TIMBER3D
 10
82.75
 20
94.13
 30
-4.36
 11
89.73
 21
94.69
 31
-4.36
 12
89.73
 22
94.69
 32
-7.27
 13
82.75
 23
94.13
 33
-7.27
  0
3DFACE
  8
TIMBER3D
 10
87.73
 20
31.33
 30
-4.36
 11
82.75
 21
94.13
 31
-4.36
 12
82.75
 22
94.13
 32
-7.27
 13
87.73
 23
31.33
 33
-7.27
  0
3DFACE
  8
TIMBER3D
 10
94.70
 20
31.88
 30
-4.36
 11
89.73
 21
94.69
 31
-4.36
 12
89.73
 22
94.69
 32
-7.27
 13
94.70
 23
31.88
 33
-7.27
  0
INSERT
  2
BOLTBOSS
  8
CHBOLTBO
 10
88.62
 20
49.54
 30
0.00
 41
3.5000
 42
3.5000
 43
3.5000
 50
0.000
  0
INSERT
  2
BOLTHEAD
  8
CHBOLTHD
 10
88.62
 20
49.54
 30
0.00
 41
3.5000
 42
3.5000
 43
3.5000
 50
5.000
  0
INSERT
  2
BOLTBOSS
  8
CHBOLTBO
 10
90.97
 20
49.73
 30
0.00
 41
3.5000
 42
3.5000
 43
3.5000
 50
0.000
  0
INSERT
  2
BOLTHEAD
  8
CHBOLTHD
 10
90.97
 20
49.73
 30
0.00
 41
3.5000
 42
3.5000
 43
3.5000
 50
26.000
  0
INSERT
  2
BOLTBOSS
  8
CHBOLTBO
 10
90.46
 20
41.21
 30
0.00
 41
3.5000
 42
3.5000
 43
3.5000
 50
0.000
  0
INSERT
  2
BOLTHEAD
  8
CHBOLTHD
 10
90.46
 20
41.21
 30
0.00
 41
3.5000
 42
3.5000
 43
3.5000
 50
39.000
  0
INSERT
  2
S1L
  8
CHMARKER
 10
90.11
 20
45.56
 30
0.00
 41
3.5000
 42
3.5000
 43
3.5000
 50
4.522
  0
INSERT
  2
BOLTBOSS
  8
CHBOLTBO
 10
86.81
 20
74.39
 30
0.00
 41
3.5000
 42
3.5000
 43
3.5000
 50
0.000
  0
INSERT
  2
BOLTHEAD
  8
CHBOLTHD
 10
86.81
 20
74.39
 30
0.00
 41
3.5000
 42
3.5000
 43
3.5000
 50
36.000
  0
INSERT
  2
BOLTBOSS
  8
CHBOLTBO
 10
89.10
 20
74.64
 30
0.00
 41
3.5000
 42
3.5000
 43
3.5000
 50
0.000
  0
INSERT
  2
BOLTHEAD
  8
CHBOLTHD
 10
89.10
 20
74.64
 30
0.00
 41
3.5000
 42
3.5000
 43
3.5000
 50
61.000
  0
INSERT
  2
BOLTBOSS
  8
CHBOLTBO
 10
87.02
 20
82.92
 30
0.00
 41
3.5000
 42
3.5000
 43
3.5000
 50
0.000
  0
INSERT
  2
BOLTHEAD
  8
CHBOLTHD
 10
87.02
 20
82.92
 30
0.00
 41
3.5000
 42
3.5000
 43
3.5000
 50
7.000
  0
INSERT
  2
S1R
  8
CHMARKER
 10
87.50
 20
78.57
 30
0.00
 41
3.5000
 42
3.5000
 43
3.5000
 50
6.340
  0
3DFACE
  8
TIMBER3D
 10
104.43
 20
32.73
 30
-4.36
 11
98.55
 21
95.45
 31
-4.36
 12
105.52
 22
96.10
 32
-4.36
 13
111.40
 23
33.38
 33
-4.36
  0
3DFACE
  8
TIMBER3D
 10
104.43
 20
32.73
 30
-7.27
 11
98.55
 21
95.45
 31
-7.27
 12
105.52
 22
96.10
 32
-7.27
 13
111.40
 23
33.38
 33
-7.27
  0
3DFACE
  8
TIMBER3D
 10
104.43
 20
32.73
 30
-4.36
 11
111.40
 21
33.38
 31
-4.36
 12
111.40
 22
33.38
 32
-7.27
 13
104.43
 23
32.73
 33
-7.27
  0
3DFACE
  8
TIMBER3D
 10
98.55
 20
95.45
 30
-4.36
 11
105.52
 21
96.10
 31
-4.36
 12
105.52
 22
96.10
 32
-7.27
 13
98.55
 23
95.45
 33
-7.27
  0
3DFACE
  8
TIMBER3D
 10
104.43
 20
32.73
 30
-4.36
 11
98.55
 21
95.45
 31
-4.36
 12
98.55
 22
95.45
 32
-7.27
 13
104.43
 23
32.73
 33
-7.27
  0
3DFACE
  8
TIMBER3D
 10
111.40
 20
33.38
 30
-4.36
 11
105.52
 21
96.10
 31
-4.36
 12
105.52
 22
96.10
 32
-7.27
 13
111.40
 23
33.38
 33
-7.27
  0
INSERT
  2
BOLTBOSS
  8
CHBOLTBO
 10
105.06
 20
50.95
 30
0.00
 41
3.5000
 42
3.5000
 43
3.5000
 50
0.000
  0
INSERT
  2
BOLTHEAD
  8
CHBOLTHD
 10
105.06
 20
50.95
 30
0.00
 41
3.5000
 42
3.5000
 43
3.5000
 50
16.000
  0
INSERT
  2
BOLTBOSS
  8
CHBOLTBO
 10
107.40
 20
51.17
 30
0.00
 41
3.5000
 42
3.5000
 43
3.5000
 50
0.000
  0
INSERT
  2
BOLTHEAD
  8
CHBOLTHD
 10
107.40
 20
51.17
 30
0.00
 41
3.5000
 42
3.5000
 43
3.5000
 50
3.000
  0
INSERT
  2
BOLTBOSS
  8
CHBOLTBO
 10
107.02
 20
42.64
 30
0.00
 41
3.5000
 42
3.5000
 43
3.5000
 50
0.000
  0
INSERT
  2
BOLTHEAD
  8
CHBOLTHD
 10
107.02
 20
42.64
 30
0.00
 41
3.5000
 42
3.5000
 43
3.5000
 50
69.000
  0
INSERT
  2
S1L
  8
CHMARKER
 10
106.61
 20
47.00
 30
0.00
 41
3.5000
 42
3.5000
 43
3.5000
 50
5.326
  0
INSERT
  2
BOLTBOSS
  8
CHBOLTBO
 10
102.85
 20
76.30
 30
0.00
 41
3.5000
 42
3.5000
 43
3.5000
 50
0.000
  0
INSERT
  2
BOLTHEAD
  8
CHBOLTHD
 10
102.85
 20
76.30
 30
0.00
 41
3.5000
 42
3.5000
 43
3.5000
 50
17.000
  0
INSERT
  2
BOLTBOSS
  8
CHBOLTBO
 10
105.14
 20
76.60
 30
0.00
 41
3.5000
 42
3.5000
 43
3.5000
 50
0.000
  0
INSERT
  2
BOLTHEAD
  8
CHBOLTHD
 10
105.14
 20
76.60
 30
0.00
 41
3.5000
 42
3.5000
 43
3.5000
 50
36.000
  0
INSERT
  2
BOLTBOSS
  8
CHBOLTBO
 10
102.91
 20
84.84
 30
0.00
 41
3.5000
 42
3.5000
 43
3.5000
 50
0.000
  0
INSERT
  2
BOLTHEAD
  8
CHBOLTHD
 10
102.91
 20
84.84
 30
0.00
 41
3.5000
 42
3.5000
 43
3.5000
 50
37.000
  0
INSERT
  2
S1R
  8
CHMARKER
 10
103.47
 20
80.50
 30
0.00
 41
3.5000
 42
3.5000
 43
3.5000
 50
7.331
  0
3DFACE
  8
TIMBER3D
 10
121.12
 20
34.36
 30
-4.36
 11
114.32
 21
96.99
 31
-4.36
 12
121.28
 22
97.75
 32
-4.36
 13
128.08
 23
35.12
 33
-4.36
  0
3DFACE
  8
TIMBER3D
 10
121.12
 20
34.36
 30
-7.27
 11
114.32
 21
96.99
 31
-7.27
 12
121.28
 22
97.75
 32
-7.27
 13
128.08
 23
35.12
 33
-7.27
  0
3DFACE
  8
TIMBER3D
 10
121.12
 20
34.36
 30
-4.36
 11
128.08
 21
35.12
 31
-4.36
 12
128.08
 22
35.12
 32
-7.27
 13
121.12
 23
34.36
 33
-7.27
  0
3DFACE
  8
TIMBER3D
 10
114.32
 20
96.99
 30
-4.36
 11
121.28
 21
97.75
 31
-4.36
 12
121.28
 22
97.75
 32
-7.27
 13
114.32
 23
96.99
 33
-7.27
  0
3DFACE
  8
TIMBER3D
 10
121.12
 20
34.36
 30
-4.36
 11
114.32
 21
96.99
 31
-4.36
 12
114.32
 22
96.99
 32
-7.27
 13
121.12
 23
34.36
 33
-7.27
  0
3DFACE
  8
TIMBER3D
 10
128.08
 20
35.12
 30
-4.36
 11
121.28
 21
97.75
 31
-4.36
 12
121.28
 22
97.75
 32
-7.27
 13
128.08
 23
35.12
 33
-7.27
  0
INSERT
  2
BOLTBOSS
  8
CHBOLTBO
 10
121.48
 20
52.59
 30
0.00
 41
3.5000
 42
3.5000
 43
3.5000
 50
0.000
  0
INSERT
  2
BOLTHEAD
  8
CHBOLTHD
 10
121.48
 20
52.59
 30
0.00
 41
3.5000
 42
3.5000
 43
3.5000
 50
26.000
  0
INSERT
  2
BOLTBOSS
  8
CHBOLTBO
 10
123.82
 20
52.85
 30
0.00
 41
3.5000
 42
3.5000
 43
3.5000
 50
0.000
  0
INSERT
  2
BOLTHEAD
  8
CHBOLTHD
 10
123.82
 20
52.85
 30
0.00
 41
3.5000
 42
3.5000
 43
3.5000
 50
71.000
  0
INSERT
  2
BOLTBOSS
  8
CHBOLTBO
 10
123.56
 20
44.31
 30
0.00
 41
3.5000
 42
3.5000
 43
3.5000
 50
0.000
  0
INSERT
  2
BOLTHEAD
  8
CHBOLTHD
 10
123.56
 20
44.31
 30
0.00
 41
3.5000
 42
3.5000
 43
3.5000
 50
16.000
  0
INSERT
  2
S1L
  8
CHMARKER
 10
123.09
 20
48.66
 30
0.00
 41
3.5000
 42
3.5000
 43
3.5000
 50
6.144
  0
INSERT
  2
BOLTBOSS
  8
CHBOLTBO
 10
118.86
 20
78.51
 30
0.00
 41
3.5000
 42
3.5000
 43
3.5000
 50
0.000
  0
INSERT
  2
BOLTHEAD
  8
CHBOLTHD
 10
118.86
 20
78.51
 30
0.00
 41
3.5000
 42
3.5000
 43
3.5000
 50
25.000
  0
INSERT
  2
BOLTBOSS
  8
CHBOLTBO
 10
121.14
 20
78.85
 30
0.00
 41
3.5000
 42
3.5000
 43
3.5000
 50
0.000
  0
INSERT
  2
BOLTHEAD
  8
CHBOLTHD
 10
121.14
 20
78.85
 30
0.00
 41
3.5000
 42
3.5000
 43
3.5000
 50
86.000
  0
INSERT
  2
BOLTBOSS
  8
CHBOLTBO
 10
118.76
 20
87.05
 30
0.00
 41
3.5000
 42
3.5000
 43
3.5000
 50
0.000
  0
INSERT
  2
BOLTHEAD
  8
CHBOLTHD
 10
118.76
 20
87.05
 30
0.00
 41
3.5000
 42
3.5000
 43
3.5000
 50
72.000
  0
INSERT
  2
S1R
  8
CHMARKER
 10
119.40
 20
82.73
 30
0.00
 41
3.5000
 42
3.5000
 43
3.5000
 50
8.506
  0
3DFACE
  8
TIMBER3D
 10
137.78
 20
36.24
 30
-4.36
 11
130.07
 21
98.77
 31
-4.36
 12
137.02
 22
99.62
 32
-4.36
 13
144.72
 23
37.10
 33
-4.36
  0
3DFACE
  8
TIMBER3D
 10
137.78
 20
36.24
 30
-7.27
 11
130.07
 21
98.77
 31
-7.27
 12
137.02
 22
99.62
 32
-7.27
 13
144.72
 23
37.10
 33
-7.27
  0
3DFACE
  8
TIMBER3D
 10
137.78
 20
36.24
 30
-4.36
 11
144.72
 21
37.10
 31
-4.36
 12
144.72
 22
37.10
 32
-7.27
 13
137.78
 23
36.24
 33
-7.27
  0
3DFACE
  8
TIMBER3D
 10
130.07
 20
98.77
 30
-4.36
 11
137.02
 21
99.62
 31
-4.36
 12
137.02
 22
99.62
 32
-7.27
 13
130.07
 23
98.77
 33
-7.27
  0
3DFACE
  8
TIMBER3D
 10
137.78
 20
36.24
 30
-4.36
 11
130.07
 21
98.77
 31
-4.36
 12
130.07
 22
98.77
 32
-7.27
 13
137.78
 23
36.24
 33
-7.27
  0
3DFACE
  8
TIMBER3D
 10
144.72
 20
37.10
 30
-4.36
 11
137.02
 21
99.62
 31
-4.36
 12
137.02
 22
99.62
 32
-7.27
 13
144.72
 23
37.10
 33
-7.27
  0
INSERT
  2
BOLTBOSS
  8
CHBOLTBO
 10
137.74
 20
55.54
 30
0.00
 41
3.5000
 42
3.5000
 43
3.5000
 50
0.000
  0
INSERT
  2
BOLTHEAD
  8
CHBOLTHD
 10
137.74
 20
55.54
 30
0.00
 41
3.5000
 42
3.5000
 43
3.5000
 50
56.000
  0
INSERT
  2
BOLTBOSS
  8
CHBOLTBO
 10
140.08
 20
55.83
 30
0.00
 41
3.5000
 42
3.5000
 43
3.5000
 50
0.000
  0
INSERT
  2
BOLTHEAD
  8
CHBOLTHD
 10
140.08
 20
55.83
 30
0.00
 41
3.5000
 42
3.5000
 43
3.5000
 50
71.000
  0
INSERT
  2
BOLTBOSS
  8
CHBOLTBO
 10
140.08
 20
46.23
 30
0.00
 41
3.5000
 42
3.5000
 43
3.5000
 50
0.000
  0
INSERT
  2
BOLTHEAD
  8
CHBOLTHD
 10
140.08
 20
46.23
 30
0.00
 41
3.5000
 42
3.5000
 43
3.5000
 50
79.000
  0
INSERT
  2
S1L
  8
CHMARKER
 10
139.54
 20
50.57
 30
0.00
 41
3.5000
 42
3.5000
 43
3.5000
 50
6.965
  0
INSERT
  2
BOLTBOSS
  8
CHBOLTBO
 10
134.97
 20
79.96
 30
0.00
 41
3.5000
 42
3.5000
 43
3.5000
 50
0.000
  0
INSERT
  2
BOLTHEAD
  8
CHBOLTHD
 10
134.97
 20
79.96
 30
0.00
 41
3.5000
 42
3.5000
 43
3.5000
 50
20.000
  0
INSERT
  2
BOLTBOSS
  8
CHBOLTBO
 10
137.24
 20
80.34
 30
0.00
 41
3.5000
 42
3.5000
 43
3.5000
 50
0.000
  0
INSERT
  2
BOLTHEAD
  8
CHBOLTHD
 10
137.24
 20
80.34
 30
0.00
 41
3.5000
 42
3.5000
 43
3.5000
 50
4.000
  0
INSERT
  2
BOLTBOSS
  8
CHBOLTBO
 10
134.54
 20
89.55
 30
0.00
 41
3.5000
 42
3.5000
 43
3.5000
 50
0.000
  0
INSERT
  2
BOLTHEAD
  8
CHBOLTHD
 10
134.54
 20
89.55
 30
0.00
 41
3.5000
 42
3.5000
 43
3.5000
 50
42.000
  0
INSERT
  2
S1R
  8
CHMARKER
 10
135.25
 20
85.24
 30
0.00
 41
3.5000
 42
3.5000
 43
3.5000
 50
9.517
  0
3DFACE
  8
TIMBER3D
 10
154.70
 20
38.40
 30
-4.36
 11
146.08
 21
100.81
 31
-4.36
 12
153.01
 22
101.77
 32
-4.36
 13
161.64
 23
39.36
 33
-4.36
  0
3DFACE
  8
TIMBER3D
 10
154.70
 20
38.40
 30
-7.27
 11
146.08
 21
100.81
 31
-7.27
 12
153.01
 22
101.77
 32
-7.27
 13
161.64
 23
39.36
 33
-7.27
  0
3DFACE
  8
TIMBER3D
 10
154.70
 20
38.40
 30
-4.36
 11
161.64
 21
39.36
 31
-4.36
 12
161.64
 22
39.36
 32
-7.27
 13
154.70
 23
38.40
 33
-7.27
  0
3DFACE
  8
TIMBER3D
 10
146.08
 20
100.81
 30
-4.36
 11
153.01
 21
101.77
 31
-4.36
 12
153.01
 22
101.77
 32
-7.27
 13
146.08
 23
100.81
 33
-7.27
  0
3DFACE
  8
TIMBER3D
 10
154.70
 20
38.40
 30
-4.36
 11
146.08
 21
100.81
 31
-4.36
 12
146.08
 22
100.81
 32
-7.27
 13
154.70
 23
38.40
 33
-7.27
  0
3DFACE
  8
TIMBER3D
 10
161.64
 20
39.36
 30
-4.36
 11
153.01
 21
101.77
 31
-4.36
 12
153.01
 22
101.77
 32
-7.27
 13
161.64
 23
39.36
 33
-7.27
  0
INSERT
  2
BOLTBOSS
  8
CHBOLTBO
 10
154.28
 20
58.43
 30
0.00
 41
3.5000
 42
3.5000
 43
3.5000
 50
0.000
  0
INSERT
  2
BOLTHEAD
  8
CHBOLTHD
 10
154.28
 20
58.43
 30
0.00
 41
3.5000
 42
3.5000
 43
3.5000
 50
79.000
  0
INSERT
  2
BOLTBOSS
  8
CHBOLTBO
 10
156.61
 20
58.75
 30
0.00
 41
3.5000
 42
3.5000
 43
3.5000
 50
0.000
  0
INSERT
  2
BOLTHEAD
  8
CHBOLTHD
 10
156.61
 20
58.75
 30
0.00
 41
3.5000
 42
3.5000
 43
3.5000
 50
16.000
  0
INSERT
  2
BOLTBOSS
  8
CHBOLTBO
 10
156.86
 20
48.42
 30
0.00
 41
3.5000
 42
3.5000
 43
3.5000
 50
0.000
  0
INSERT
  2
BOLTHEAD
  8
CHBOLTHD
 10
156.86
 20
48.42
 30
0.00
 41
3.5000
 42
3.5000
 43
3.5000
 50
48.000
  0
INSERT
  2
S1L
  8
CHMARKER
 10
156.26
 20
52.75
 30
0.00
 41
3.5000
 42
3.5000
 43
3.5000
 50
7.787
  0
INSERT
  2
BOLTBOSS
  8
CHBOLTBO
 10
151.28
 20
82.08
 30
0.00
 41
3.5000
 42
3.5000
 43
3.5000
 50
0.000
  0
INSERT
  2
BOLTHEAD
  8
CHBOLTHD
 10
151.28
 20
82.08
 30
0.00
 41
3.5000
 42
3.5000
 43
3.5000
 50
45.000
  0
INSERT
  2
BOLTBOSS
  8
CHBOLTBO
 10
153.55
 20
82.51
 30
0.00
 41
3.5000
 42
3.5000
 43
3.5000
 50
0.000
  0
INSERT
  2
BOLTHEAD
  8
CHBOLTHD
 10
153.55
 20
82.51
 30
0.00
 41
3.5000
 42
3.5000
 43
3.5000
 50
47.000
  0
INSERT
  2
BOLTBOSS
  8
CHBOLTBO
 10
150.54
 20
92.39
 30
0.00
 41
3.5000
 42
3.5000
 43
3.5000
 50
0.000
  0
INSERT
  2
BOLTHEAD
  8
CHBOLTHD
 10
150.54
 20
92.39
 30
0.00
 41
3.5000
 42
3.5000
 43
3.5000
 50
83.000
  0
INSERT
  2
S1R
  8
CHMARKER
 10
151.33
 20
88.09
 30
0.00
 41
3.5000
 42
3.5000
 43
3.5000
 50
10.558
  0
3DFACE
  8
TIMBER3D
 10
171.60
 20
40.81
 30
-4.36
 11
161.52
 21
106.54
 31
-4.36
 12
168.44
 22
107.60
 32
-4.36
 13
178.52
 23
41.87
 33
-4.36
  0
3DFACE
  8
TIMBER3D
 10
171.60
 20
40.81
 30
-7.27
 11
161.52
 21
106.54
 31
-7.27
 12
168.44
 22
107.60
 32
-7.27
 13
178.52
 23
41.87
 33
-7.27
  0
3DFACE
  8
TIMBER3D
 10
171.60
 20
40.81
 30
-4.36
 11
178.52
 21
41.87
 31
-4.36
 12
178.52
 22
41.87
 32
-7.27
 13
171.60
 23
40.81
 33
-7.27
  0
3DFACE
  8
TIMBER3D
 10
161.52
 20
106.54
 30
-4.36
 11
168.44
 21
107.60
 31
-4.36
 12
168.44
 22
107.60
 32
-7.27
 13
161.52
 23
106.54
 33
-7.27
  0
3DFACE
  8
TIMBER3D
 10
171.60
 20
40.81
 30
-4.36
 11
161.52
 21
106.54
 31
-4.36
 12
161.52
 22
106.54
 32
-7.27
 13
171.60
 23
40.81
 33
-7.27
  0
3DFACE
  8
TIMBER3D
 10
178.52
 20
41.87
 30
-4.36
 11
168.44
 21
107.60
 31
-4.36
 12
168.44
 22
107.60
 32
-7.27
 13
178.52
 23
41.87
 33
-7.27
  0
INSERT
  2
BOLTBOSS
  8
CHBOLTBO
 10
170.71
 20
61.92
 30
0.00
 41
3.5000
 42
3.5000
 43
3.5000
 50
0.000
  0
INSERT
  2
BOLTHEAD
  8
CHBOLTHD
 10
170.71
 20
61.92
 30
0.00
 41
3.5000
 42
3.5000
 43
3.5000
 50
58.000
  0
INSERT
  2
BOLTBOSS
  8
CHBOLTBO
 10
173.04
 20
62.27
 30
0.00
 41
3.5000
 42
3.5000
 43
3.5000
 50
0.000
  0
INSERT
  2
BOLTHEAD
  8
CHBOLTHD
 10
173.04
 20
62.27
 30
0.00
 41
3.5000
 42
3.5000
 43
3.5000
 50
1.000
  0
INSERT
  2
BOLTBOSS
  8
CHBOLTBO
 10
173.60
 20
50.86
 30
0.00
 41
3.5000
 42
3.5000
 43
3.5000
 50
0.000
  0
INSERT
  2
BOLTHEAD
  8
CHBOLTHD
 10
173.60
 20
50.86
 30
0.00
 41
3.5000
 42
3.5000
 43
3.5000
 50
55.000
  0
INSERT
  2
S1L
  8
CHMARKER
 10
172.94
 20
55.18
 30
0.00
 41
3.5000
 42
3.5000
 43
3.5000
 50
8.746
  0
INSERT
  2
BOLTBOSS
  8
CHBOLTBO
 10
167.62
 20
84.16
 30
0.00
 41
3.5000
 42
3.5000
 43
3.5000
 50
0.000
  0
INSERT
  2
BOLTHEAD
  8
CHBOLTHD
 10
167.62
 20
84.16
 30
0.00
 41
3.5000
 42
3.5000
 43
3.5000
 50
76.000
  0
INSERT
  2
BOLTBOSS
  8
CHBOLTBO
 10
169.88
 20
84.62
 30
0.00
 41
3.5000
 42
3.5000
 43
3.5000
 50
0.000
  0
INSERT
  2
BOLTHEAD
  8
CHBOLTHD
 10
169.88
 20
84.62
 30
0.00
 41
3.5000
 42
3.5000
 43
3.5000
 50
43.000
  0
INSERT
  2
BOLTBOSS
  8
CHBOLTBO
 10
166.47
 20
95.52
 30
0.00
 41
3.5000
 42
3.5000
 43
3.5000
 50
0.000
  0
INSERT
  2
BOLTHEAD
  8
CHBOLTHD
 10
166.47
 20
95.52
 30
0.00
 41
3.5000
 42
3.5000
 43
3.5000
 50
89.000
  0
INSERT
  2
S1R
  8
CHMARKER
 10
167.34
 20
91.24
 30
0.00
 41
3.5000
 42
3.5000
 43
3.5000
 50
11.605
  0
3DFACE
  8
TIMBER3D
 10
188.45
 20
43.47
 30
-4.36
 11
177.41
 21
109.05
 31
-4.36
 12
184.31
 22
110.21
 32
-4.36
 13
195.36
 23
44.63
 33
-4.36
  0
3DFACE
  8
TIMBER3D
 10
188.45
 20
43.47
 30
-7.27
 11
177.41
 21
109.05
 31
-7.27
 12
184.31
 22
110.21
 32
-7.27
 13
195.36
 23
44.63
 33
-7.27
  0
3DFACE
  8
TIMBER3D
 10
188.45
 20
43.47
 30
-4.36
 11
195.36
 21
44.63
 31
-4.36
 12
195.36
 22
44.63
 32
-7.27
 13
188.45
 23
43.47
 33
-7.27
  0
3DFACE
  8
TIMBER3D
 10
177.41
 20
109.05
 30
-4.36
 11
184.31
 21
110.21
 31
-4.36
 12
184.31
 22
110.21
 32
-7.27
 13
177.41
 23
109.05
 33
-7.27
  0
3DFACE
  8
TIMBER3D
 10
188.45
 20
43.47
 30
-4.36
 11
177.41
 21
109.05
 31
-4.36
 12
177.41
 22
109.05
 32
-7.27
 13
188.45
 23
43.47
 33
-7.27
  0
3DFACE
  8
TIMBER3D
 10
195.36
 20
44.63
 30
-4.36
 11
184.31
 21
110.21
 31
-4.36
 12
184.31
 22
110.21
 32
-7.27
 13
195.36
 23
44.63
 33
-7.27
  0
INSERT
  2
BOLTBOSS
  8
CHBOLTBO
 10
187.11
 20
65.42
 30
0.00
 41
3.5000
 42
3.5000
 43
3.5000
 50
0.000
  0
INSERT
  2
BOLTHEAD
  8
CHBOLTHD
 10
187.11
 20
65.42
 30
0.00
 41
3.5000
 42
3.5000
 43
3.5000
 50
65.000
  0
INSERT
  2
BOLTBOSS
  8
CHBOLTBO
 10
189.43
 20
65.81
 30
0.00
 41
3.5000
 42
3.5000
 43
3.5000
 50
0.000
  0
INSERT
  2
BOLTHEAD
  8
CHBOLTHD
 10
189.43
 20
65.81
 30
0.00
 41
3.5000
 42
3.5000
 43
3.5000
 50
4.000
  0
INSERT
  2
BOLTBOSS
  8
CHBOLTBO
 10
190.31
 20
53.54
 30
0.00
 41
3.5000
 42
3.5000
 43
3.5000
 50
0.000
  0
INSERT
  2
BOLTHEAD
  8
CHBOLTHD
 10
190.31
 20
53.54
 30
0.00
 41
3.5000
 42
3.5000
 43
3.5000
 50
45.000
  0
INSERT
  2
S1L
  8
CHMARKER
 10
189.58
 20
57.86
 30
0.00
 41
3.5000
 42
3.5000
 43
3.5000
 50
9.568
  0
INSERT
  2
BOLTBOSS
  8
CHBOLTBO
 10
183.88
 20
86.76
 30
0.00
 41
3.5000
 42
3.5000
 43
3.5000
 50
0.000
  0
INSERT
  2
BOLTHEAD
  8
CHBOLTHD
 10
183.88
 20
86.76
 30
0.00
 41
3.5000
 42
3.5000
 43
3.5000
 50
25.000
  0
INSERT
  2
BOLTBOSS
  8
CHBOLTBO
 10
186.13
 20
87.27
 30
0.00
 41
3.5000
 42
3.5000
 43
3.5000
 50
0.000
  0
INSERT
  2
BOLTHEAD
  8
CHBOLTHD
 10
186.13
 20
87.27
 30
0.00
 41
3.5000
 42
3.5000
 43
3.5000
 50
12.000
  0
INSERT
  2
BOLTBOSS
  8
CHBOLTBO
 10
182.32
 20
98.96
 30
0.00
 41
3.5000
 42
3.5000
 43
3.5000
 50
0.000
  0
INSERT
  2
BOLTHEAD
  8
CHBOLTHD
 10
182.32
 20
98.96
 30
0.00
 41
3.5000
 42
3.5000
 43
3.5000
 50
19.000
  0
INSERT
  2
S1R
  8
CHMARKER
 10
183.28
 20
94.69
 30
0.00
 41
3.5000
 42
3.5000
 43
3.5000
 50
12.782
  0
3DFACE
  8
TIMBER3D
 10
203.80
 20
46.11
 30
-4.36
 11
191.86
 21
111.54
 31
-4.36
 12
198.75
 22
112.79
 32
-4.36
 13
210.68
 23
47.37
 33
-4.36
  0
3DFACE
  8
TIMBER3D
 10
203.80
 20
46.11
 30
-7.27
 11
191.86
 21
111.54
 31
-7.27
 12
198.75
 22
112.79
 32
-7.27
 13
210.68
 23
47.37
 33
-7.27
  0
3DFACE
  8
TIMBER3D
 10
203.80
 20
46.11
 30
-4.36
 11
210.68
 21
47.37
 31
-4.36
 12
210.68
 22
47.37
 32
-7.27
 13
203.80
 23
46.11
 33
-7.27
  0
3DFACE
  8
TIMBER3D
 10
191.86
 20
111.54
 30
-4.36
 11
198.75
 21
112.79
 31
-4.36
 12
198.75
 22
112.79
 32
-7.27
 13
191.86
 23
111.54
 33
-7.27
  0
3DFACE
  8
TIMBER3D
 10
203.80
 20
46.11
 30
-4.36
 11
191.86
 21
111.54
 31
-4.36
 12
191.86
 22
111.54
 32
-7.27
 13
203.80
 23
46.11
 33
-7.27
  0
3DFACE
  8
TIMBER3D
 10
210.68
 20
47.37
 30
-4.36
 11
198.75
 21
112.79
 31
-4.36
 12
198.75
 22
112.79
 32
-7.27
 13
210.68
 23
47.37
 33
-7.27
  0
INSERT
  2
BOLTBOSS
  8
CHBOLTBO
 10
202.36
 20
61.13
 30
0.00
 41
3.5000
 42
3.5000
 43
3.5000
 50
0.000
  0
INSERT
  2
BOLTHEAD
  8
CHBOLTHD
 10
202.36
 20
61.13
 30
0.00
 41
3.5000
 42
3.5000
 43
3.5000
 50
77.000
  0
INSERT
  2
BOLTBOSS
  8
CHBOLTBO
 10
206.72
 20
61.92
 30
0.00
 41
3.5000
 42
3.5000
 43
3.5000
 50
0.000
  0
INSERT
  2
BOLTHEAD
  8
CHBOLTHD
 10
206.72
 20
61.92
 30
0.00
 41
3.5000
 42
3.5000
 43
3.5000
 50
60.000
  0
INSERT
  2
BOLTBOSS
  8
CHBOLTBO
 10
203.09
 20
57.11
 30
0.00
 41
3.5000
 42
3.5000
 43
3.5000
 50
0.000
  0
INSERT
  2
BOLTHEAD
  8
CHBOLTHD
 10
203.09
 20
57.11
 30
0.00
 41
3.5000
 42
3.5000
 43
3.5000
 50
88.000
  0
INSERT
  2
BOLTBOSS
  8
CHBOLTBO
 10
207.47
 20
57.91
 30
0.00
 41
3.5000
 42
3.5000
 43
3.5000
 50
0.000
  0
INSERT
  2
BOLTHEAD
  8
CHBOLTHD
 10
207.47
 20
57.91
 30
0.00
 41
3.5000
 42
3.5000
 43
3.5000
 50
71.000
  0
INSERT
  2
L1L
  8
CHMARKER
 10
204.73
 20
60.52
 30
0.00
 41
3.5000
 42
3.5000
 43
3.5000
 50
10.247
  0
INSERT
  2
BOLTBOSS
  8
CHBOLTBO
 10
197.14
 20
90.12
 30
0.00
 41
3.5000
 42
3.5000
 43
3.5000
 50
0.000
  0
INSERT
  2
BOLTHEAD
  8
CHBOLTHD
 10
197.14
 20
90.12
 30
0.00
 41
3.5000
 42
3.5000
 43
3.5000
 50
1.000
  0
INSERT
  2
BOLTBOSS
  8
CHBOLTBO
 10
201.38
 20
90.89
 30
0.00
 41
3.5000
 42
3.5000
 43
3.5000
 50
0.000
  0
INSERT
  2
BOLTHEAD
  8
CHBOLTHD
 10
201.38
 20
90.89
 30
0.00
 41
3.5000
 42
3.5000
 43
3.5000
 50
83.000
  0
INSERT
  2
BOLTBOSS
  8
CHBOLTBO
 10
196.41
 20
94.13
 30
0.00
 41
3.5000
 42
3.5000
 43
3.5000
 50
0.000
  0
INSERT
  2
BOLTHEAD
  8
CHBOLTHD
 10
196.41
 20
94.13
 30
0.00
 41
3.5000
 42
3.5000
 43
3.5000
 50
69.000
  0
INSERT
  2
BOLTBOSS
  8
CHBOLTBO
 10
200.64
 20
94.91
 30
0.00
 41
3.5000
 42
3.5000
 43
3.5000
 50
0.000
  0
INSERT
  2
BOLTHEAD
  8
CHBOLTHD
 10
200.64
 20
94.91
 30
0.00
 41
3.5000
 42
3.5000
 43
3.5000
 50
53.000
  0
INSERT
  2
L1R
  8
CHMARKER
 10
199.08
 20
91.51
 30
0.00
 41
3.5000
 42
3.5000
 43
3.5000
 50
10.269
  0
INSERT
  2
BOLTBOSS
  8
CHBOLTBO
 10
201.08
 20
67.56
 30
0.00
 41
3.5000
 42
3.5000
 43
3.5000
 50
0.000
  0
INSERT
  2
BOLTHEAD
  8
CHBOLTHD
 10
201.08
 20
67.56
 30
0.00
 41
3.5000
 42
3.5000
 43
3.5000
 50
89.000
  0
INSERT
  2
BOLTBOSS
  8
CHBOLTBO
 10
205.36
 20
68.62
 30
0.00
 41
3.5000
 42
3.5000
 43
3.5000
 50
0.000
  0
INSERT
  2
BOLTHEAD
  8
CHBOLTHD
 10
205.36
 20
68.62
 30
0.00
 41
3.5000
 42
3.5000
 43
3.5000
 50
45.000
  0
INSERT
  2
BOLTBOSS
  8
CHBOLTBO
 10
202.06
 20
63.60
 30
0.00
 41
3.5000
 42
3.5000
 43
3.5000
 50
0.000
  0
INSERT
  2
BOLTHEAD
  8
CHBOLTHD
 10
202.06
 20
63.60
 30
0.00
 41
3.5000
 42
3.5000
 43
3.5000
 50
44.000
  0
INSERT
  2
BOLTBOSS
  8
CHBOLTBO
 10
206.35
 20
64.66
 30
0.00
 41
3.5000
 42
3.5000
 43
3.5000
 50
0.000
  0
INSERT
  2
BOLTHEAD
  8
CHBOLTHD
 10
206.35
 20
64.66
 30
0.00
 41
3.5000
 42
3.5000
 43
3.5000
 50
41.000
  0
INSERT
  2
L1L
  8
CHMARKER
 10
203.46
 20
67.10
 30
0.00
 41
3.5000
 42
3.5000
 43
3.5000
 50
13.910
  0
INSERT
  2
BOLTBOSS
  8
CHBOLTBO
 10
196.09
 20
96.67
 30
0.00
 41
3.5000
 42
3.5000
 43
3.5000
 50
0.000
  0
INSERT
  2
BOLTHEAD
  8
CHBOLTHD
 10
196.09
 20
96.67
 30
0.00
 41
3.5000
 42
3.5000
 43
3.5000
 50
48.000
  0
INSERT
  2
BOLTBOSS
  8
CHBOLTBO
 10
200.25
 20
97.71
 30
0.00
 41
3.5000
 42
3.5000
 43
3.5000
 50
0.000
  0
INSERT
  2
BOLTHEAD
  8
CHBOLTHD
 10
200.25
 20
97.71
 30
0.00
 41
3.5000
 42
3.5000
 43
3.5000
 50
13.000
  0
INSERT
  2
BOLTBOSS
  8
CHBOLTBO
 10
195.12
 20
100.63
 30
0.00
 41
3.5000
 42
3.5000
 43
3.5000
 50
0.000
  0
INSERT
  2
BOLTHEAD
  8
CHBOLTHD
 10
195.12
 20
100.63
 30
0.00
 41
3.5000
 42
3.5000
 43
3.5000
 50
74.000
  0
INSERT
  2
BOLTBOSS
  8
CHBOLTBO
 10
199.26
 20
101.67
 30
0.00
 41
3.5000
 42
3.5000
 43
3.5000
 50
0.000
  0
INSERT
  2
BOLTHEAD
  8
CHBOLTHD
 10
199.26
 20
101.67
 30
0.00
 41
3.5000
 42
3.5000
 43
3.5000
 50
61.000
  0
INSERT
  2
L1R
  8
CHMARKER
 10
197.92
 20
98.18
 30
0.00
 41
3.5000
 42
3.5000
 43
3.5000
 50
14.036
  0
3DFACE
  8
TIMBER3D
 10
217.92
 20
48.74
 30
-4.36
 11
205.18
 21
114.00
 31
-4.36
 12
212.05
 22
115.35
 32
-4.36
 13
224.79
 23
50.08
 33
-4.36
  0
3DFACE
  8
TIMBER3D
 10
217.92
 20
48.74
 30
-7.27
 11
205.18
 21
114.00
 31
-7.27
 12
212.05
 22
115.35
 32
-7.27
 13
224.79
 23
50.08
 33
-7.27
  0
3DFACE
  8
TIMBER3D
 10
217.92
 20
48.74
 30
-4.36
 11
224.79
 21
50.08
 31
-4.36
 12
224.79
 22
50.08
 32
-7.27
 13
217.92
 23
48.74
 33
-7.27
  0
3DFACE
  8
TIMBER3D
 10
205.18
 20
114.00
 30
-4.36
 11
212.05
 21
115.35
 31
-4.36
 12
212.05
 22
115.35
 32
-7.27
 13
205.18
 23
114.00
 33
-7.27
  0
3DFACE
  8
TIMBER3D
 10
217.92
 20
48.74
 30
-4.36
 11
205.18
 21
114.00
 31
-4.36
 12
205.18
 22
114.00
 32
-7.27
 13
217.92
 23
48.74
 33
-7.27
  0
3DFACE
  8
TIMBER3D
 10
224.79
 20
50.08
 30
-4.36
 11
212.05
 21
115.35
 31
-4.36
 12
212.05
 22
115.35
 32
-7.27
 13
224.79
 23
50.08
 33
-7.27
  0
INSERT
  2
BOLTBOSS
  8
CHBOLTBO
 10
216.30
 20
63.73
 30
0.00
 41
3.5000
 42
3.5000
 43
3.5000
 50
0.000
  0
INSERT
  2
BOLTHEAD
  8
CHBOLTHD
 10
216.30
 20
63.73
 30
0.00
 41
3.5000
 42
3.5000
 43
3.5000
 50
81.000
  0
INSERT
  2
BOLTBOSS
  8
CHBOLTBO
 10
220.66
 20
64.58
 30
0.00
 41
3.5000
 42
3.5000
 43
3.5000
 50
0.000
  0
INSERT
  2
BOLTHEAD
  8
CHBOLTHD
 10
220.66
 20
64.58
 30
0.00
 41
3.5000
 42
3.5000
 43
3.5000
 50
54.000
  0
INSERT
  2
BOLTBOSS
  8
CHBOLTBO
 10
217.08
 20
59.72
 30
0.00
 41
3.5000
 42
3.5000
 43
3.5000
 50
0.000
  0
INSERT
  2
BOLTHEAD
  8
CHBOLTHD
 10
217.08
 20
59.72
 30
0.00
 41
3.5000
 42
3.5000
 43
3.5000
 50
31.000
  0
INSERT
  2
BOLTBOSS
  8
CHBOLTBO
 10
221.45
 20
60.57
 30
0.00
 41
3.5000
 42
3.5000
 43
3.5000
 50
0.000
  0
INSERT
  2
BOLTHEAD
  8
CHBOLTHD
 10
221.45
 20
60.57
 30
0.00
 41
3.5000
 42
3.5000
 43
3.5000
 50
0.000
  0
INSERT
  2
L1L
  8
CHMARKER
 10
218.68
 20
63.16
 30
0.00
 41
3.5000
 42
3.5000
 43
3.5000
 50
11.056
  0
INSERT
  2
BOLTBOSS
  8
CHBOLTBO
 10
210.72
 20
92.66
 30
0.00
 41
3.5000
 42
3.5000
 43
3.5000
 50
0.000
  0
INSERT
  2
BOLTHEAD
  8
CHBOLTHD
 10
210.72
 20
92.66
 30
0.00
 41
3.5000
 42
3.5000
 43
3.5000
 50
23.000
  0
INSERT
  2
BOLTBOSS
  8
CHBOLTBO
 10
214.96
 20
93.48
 30
0.00
 41
3.5000
 42
3.5000
 43
3.5000
 50
0.000
  0
INSERT
  2
BOLTHEAD
  8
CHBOLTHD
 10
214.96
 20
93.48
 30
0.00
 41
3.5000
 42
3.5000
 43
3.5000
 50
15.000
  0
INSERT
  2
BOLTBOSS
  8
CHBOLTBO
 10
209.94
 20
96.66
 30
0.00
 41
3.5000
 42
3.5000
 43
3.5000
 50
0.000
  0
INSERT
  2
BOLTHEAD
  8
CHBOLTHD
 10
209.94
 20
96.66
 30
0.00
 41
3.5000
 42
3.5000
 43
3.5000
 50
61.000
  0
INSERT
  2
BOLTBOSS
  8
CHBOLTBO
 10
214.16
 20
97.49
 30
0.00
 41
3.5000
 42
3.5000
 43
3.5000
 50
0.000
  0
INSERT
  2
BOLTHEAD
  8
CHBOLTHD
 10
214.16
 20
97.49
 30
0.00
 41
3.5000
 42
3.5000
 43
3.5000
 50
66.000
  0
INSERT
  2
L1R
  8
CHMARKER
 10
212.64
 20
94.07
 30
0.00
 41
3.5000
 42
3.5000
 43
3.5000
 50
11.076
  0
INSERT
  2
BOLTBOSS
  8
CHBOLTBO
 10
214.76
 20
71.04
 30
0.00
 41
3.5000
 42
3.5000
 43
3.5000
 50
0.000
  0
INSERT
  2
BOLTHEAD
  8
CHBOLTHD
 10
214.76
 20
71.04
 30
0.00
 41
3.5000
 42
3.5000
 43
3.5000
 50
70.000
  0
INSERT
  2
BOLTBOSS
  8
CHBOLTBO
 10
219.01
 20
72.18
 30
0.00
 41
3.5000
 42
3.5000
 43
3.5000
 50
0.000
  0
INSERT
  2
BOLTHEAD
  8
CHBOLTHD
 10
219.01
 20
72.18
 30
0.00
 41
3.5000
 42
3.5000
 43
3.5000
 50
84.000
  0
INSERT
  2
BOLTBOSS
  8
CHBOLTBO
 10
215.81
 20
67.10
 30
0.00
 41
3.5000
 42
3.5000
 43
3.5000
 50
0.000
  0
INSERT
  2
BOLTHEAD
  8
CHBOLTHD
 10
215.81
 20
67.10
 30
0.00
 41
3.5000
 42
3.5000
 43
3.5000
 50
85.000
  0
INSERT
  2
BOLTBOSS
  8
CHBOLTBO
 10
220.08
 20
68.24
 30
0.00
 41
3.5000
 42
3.5000
 43
3.5000
 50
0.000
  0
INSERT
  2
BOLTHEAD
  8
CHBOLTHD
 10
220.08
 20
68.24
 30
0.00
 41
3.5000
 42
3.5000
 43
3.5000
 50
14.000
  0
INSERT
  2
L1L
  8
CHMARKER
 10
217.15
 20
70.62
 30
0.00
 41
3.5000
 42
3.5000
 43
3.5000
 50
15.015
  0
INSERT
  2
BOLTBOSS
  8
CHBOLTBO
 10
209.43
 20
100.11
 30
0.00
 41
3.5000
 42
3.5000
 43
3.5000
 50
0.000
  0
INSERT
  2
BOLTHEAD
  8
CHBOLTHD
 10
209.43
 20
100.11
 30
0.00
 41
3.5000
 42
3.5000
 43
3.5000
 50
81.000
  0
INSERT
  2
BOLTBOSS
  8
CHBOLTBO
 10
213.57
 20
101.24
 30
0.00
 41
3.5000
 42
3.5000
 43
3.5000
 50
0.000
  0
INSERT
  2
BOLTHEAD
  8
CHBOLTHD
 10
213.57
 20
101.24
 30
0.00
 41
3.5000
 42
3.5000
 43
3.5000
 50
61.000
  0
INSERT
  2
BOLTBOSS
  8
CHBOLTBO
 10
208.38
 20
104.05
 30
0.00
 41
3.5000
 42
3.5000
 43
3.5000
 50
0.000
  0
INSERT
  2
BOLTHEAD
  8
CHBOLTHD
 10
208.38
 20
104.05
 30
0.00
 41
3.5000
 42
3.5000
 43
3.5000
 50
7.000
  0
INSERT
  2
BOLTBOSS
  8
CHBOLTBO
 10
212.50
 20
105.18
 30
0.00
 41
3.5000
 42
3.5000
 43
3.5000
 50
0.000
  0
INSERT
  2
BOLTHEAD
  8
CHBOLTHD
 10
212.50
 20
105.18
 30
0.00
 41
3.5000
 42
3.5000
 43
3.5000
 50
17.000
  0
INSERT
  2
L1R
  8
CHMARKER
 10
211.23
 20
101.66
 30
0.00
 41
3.5000
 42
3.5000
 43
3.5000
 50
15.267
  0
3DFACE
  8
TIMBER3D
 10
364.06
 20
86.86
 30
-4.36
 11
337.34
 21
166.50
 31
-4.36
 12
343.98
 22
168.73
 32
-4.36
 13
370.69
 23
89.09
 33
-4.36
  0
3DFACE
  8
TIMBER3D
 10
364.06
 20
86.86
 30
-7.27
 11
337.34
 21
166.50
 31
-7.27
 12
343.98
 22
168.73
 32
-7.27
 13
370.69
 23
89.09
 33
-7.27
  0
3DFACE
  8
TIMBER3D
 10
364.06
 20
86.86
 30
-4.36
 11
370.69
 21
89.09
 31
-4.36
 12
370.69
 22
89.09
 32
-7.27
 13
364.06
 23
86.86
 33
-7.27
  0
3DFACE
  8
TIMBER3D
 10
337.34
 20
166.50
 30
-4.36
 11
343.98
 21
168.73
 31
-4.36
 12
343.98
 22
168.73
 32
-7.27
 13
337.34
 23
166.50
 33
-7.27
  0
3DFACE
  8
TIMBER3D
 10
364.06
 20
86.86
 30
-4.36
 11
337.34
 21
166.50
 31
-4.36
 12
337.34
 22
166.50
 32
-7.27
 13
364.06
 23
86.86
 33
-7.27
  0
3DFACE
  8
TIMBER3D
 10
370.69
 20
89.09
 30
-4.36
 11
343.98
 21
168.73
 31
-4.36
 12
343.98
 22
168.73
 32
-7.27
 13
370.69
 23
89.09
 33
-7.27
  0
3DFACE
  8
TIMBER3D
 10
381.06
 20
92.66
 30
-4.36
 11
351.94
 21
175.17
 31
-4.36
 12
358.54
 22
177.50
 32
-4.36
 13
387.66
 23
94.99
 33
-4.36
  0
3DFACE
  8
TIMBER3D
 10
381.06
 20
92.66
 30
-7.27
 11
351.94
 21
175.17
 31
-7.27
 12
358.54
 22
177.50
 32
-7.27
 13
387.66
 23
94.99
 33
-7.27
  0
3DFACE
  8
TIMBER3D
 10
381.06
 20
92.66
 30
-4.36
 11
387.66
 21
94.99
 31
-4.36
 12
387.66
 22
94.99
 32
-7.27
 13
381.06
 23
92.66
 33
-7.27
  0
3DFACE
  8
TIMBER3D
 10
351.94
 20
175.17
 30
-4.36
 11
358.54
 21
177.50
 31
-4.36
 12
358.54
 22
177.50
 32
-7.27
 13
351.94
 23
175.17
 33
-7.27
  0
3DFACE
  8
TIMBER3D
 10
381.06
 20
92.66
 30
-4.36
 11
351.94
 21
175.17
 31
-4.36
 12
351.94
 22
175.17
 32
-7.27
 13
381.06
 23
92.66
 33
-7.27
  0
3DFACE
  8
TIMBER3D
 10
387.66
 20
94.99
 30
-4.36
 11
358.54
 21
177.50
 31
-4.36
 12
358.54
 22
177.50
 32
-7.27
 13
387.66
 23
94.99
 33
-7.27
  0
3DFACE
  8
TIMBER3D
 10
397.97
 20
98.71
 30
-4.36
 11
366.36
 21
184.05
 31
-4.36
 12
372.92
 22
186.48
 32
-4.36
 13
404.53
 23
101.15
 33
-4.36
  0
3DFACE
  8
TIMBER3D
 10
397.97
 20
98.71
 30
-7.27
 11
366.36
 21
184.05
 31
-7.27
 12
372.92
 22
186.48
 32
-7.27
 13
404.53
 23
101.15
 33
-7.27
  0
3DFACE
  8
TIMBER3D
 10
397.97
 20
98.71
 30
-4.36
 11
404.53
 21
101.15
 31
-4.36
 12
404.53
 22
101.15
 32
-7.27
 13
397.97
 23
98.71
 33
-7.27
  0
3DFACE
  8
TIMBER3D
 10
366.36
 20
184.05
 30
-4.36
 11
372.92
 21
186.48
 31
-4.36
 12
372.92
 22
186.48
 32
-7.27
 13
366.36
 23
184.05
 33
-7.27
  0
3DFACE
  8
TIMBER3D
 10
397.97
 20
98.71
 30
-4.36
 11
366.36
 21
184.05
 31
-4.36
 12
366.36
 22
184.05
 32
-7.27
 13
397.97
 23
98.71
 33
-7.27
  0
3DFACE
  8
TIMBER3D
 10
404.53
 20
101.15
 30
-4.36
 11
372.92
 21
186.48
 31
-4.36
 12
372.92
 22
186.48
 32
-7.27
 13
404.53
 23
101.15
 33
-7.27
  0
3DFACE
  8
TIMBER3D
 10
414.78
 20
105.03
 30
-4.36
 11
380.58
 21
193.13
 31
-4.36
 12
387.11
 22
195.66
 32
-4.36
 13
421.31
 23
107.57
 33
-4.36
  0
3DFACE
  8
TIMBER3D
 10
414.78
 20
105.03
 30
-7.27
 11
380.58
 21
193.13
 31
-7.27
 12
387.11
 22
195.66
 32
-7.27
 13
421.31
 23
107.57
 33
-7.27
  0
3DFACE
  8
TIMBER3D
 10
414.78
 20
105.03
 30
-4.36
 11
421.31
 21
107.57
 31
-4.36
 12
421.31
 22
107.57
 32
-7.27
 13
414.78
 23
105.03
 33
-7.27
  0
3DFACE
  8
TIMBER3D
 10
380.58
 20
193.13
 30
-4.36
 11
387.11
 21
195.66
 31
-4.36
 12
387.11
 22
195.66
 32
-7.27
 13
380.58
 23
193.13
 33
-7.27
  0
3DFACE
  8
TIMBER3D
 10
414.78
 20
105.03
 30
-4.36
 11
380.58
 21
193.13
 31
-4.36
 12
380.58
 22
193.13
 32
-7.27
 13
414.78
 23
105.03
 33
-7.27
  0
3DFACE
  8
TIMBER3D
 10
421.31
 20
107.57
 30
-4.36
 11
387.11
 21
195.66
 31
-4.36
 12
387.11
 22
195.66
 32
-7.27
 13
421.31
 23
107.57
 33
-7.27
  0
3DFACE
  8
TIMBER3D
 10
431.50
 20
111.61
 30
-4.36
 11
395.93
 21
199.17
 31
-4.36
 12
402.42
 22
201.80
 32
-4.36
 13
437.98
 23
114.25
 33
-4.36
  0
3DFACE
  8
TIMBER3D
 10
431.50
 20
111.61
 30
-7.27
 11
395.93
 21
199.17
 31
-7.27
 12
402.42
 22
201.80
 32
-7.27
 13
437.98
 23
114.25
 33
-7.27
  0
3DFACE
  8
TIMBER3D
 10
431.50
 20
111.61
 30
-4.36
 11
437.98
 21
114.25
 31
-4.36
 12
437.98
 22
114.25
 32
-7.27
 13
431.50
 23
111.61
 33
-7.27
  0
3DFACE
  8
TIMBER3D
 10
395.93
 20
199.17
 30
-4.36
 11
402.42
 21
201.80
 31
-4.36
 12
402.42
 22
201.80
 32
-7.27
 13
395.93
 23
199.17
 33
-7.27
  0
3DFACE
  8
TIMBER3D
 10
431.50
 20
111.61
 30
-4.36
 11
395.93
 21
199.17
 31
-4.36
 12
395.93
 22
199.17
 32
-7.27
 13
431.50
 23
111.61
 33
-7.27
  0
3DFACE
  8
TIMBER3D
 10
437.98
 20
114.25
 30
-4.36
 11
402.42
 21
201.80
 31
-4.36
 12
402.42
 22
201.80
 32
-7.27
 13
437.98
 23
114.25
 33
-7.27
  0
3DFACE
  8
TIMBER3D
 10
448.11
 20
118.45
 30
-4.36
 11
409.82
 21
208.66
 31
-4.36
 12
416.26
 22
211.40
 32
-4.36
 13
454.55
 23
121.19
 33
-4.36
  0
3DFACE
  8
TIMBER3D
 10
448.11
 20
118.45
 30
-7.27
 11
409.82
 21
208.66
 31
-7.27
 12
416.26
 22
211.40
 32
-7.27
 13
454.55
 23
121.19
 33
-7.27
  0
3DFACE
  8
TIMBER3D
 10
448.11
 20
118.45
 30
-4.36
 11
454.55
 21
121.19
 31
-4.36
 12
454.55
 22
121.19
 32
-7.27
 13
448.11
 23
118.45
 33
-7.27
  0
3DFACE
  8
TIMBER3D
 10
409.82
 20
208.66
 30
-4.36
 11
416.26
 21
211.40
 31
-4.36
 12
416.26
 22
211.40
 32
-7.27
 13
409.82
 23
208.66
 33
-7.27
  0
3DFACE
  8
TIMBER3D
 10
448.11
 20
118.45
 30
-4.36
 11
409.82
 21
208.66
 31
-4.36
 12
409.82
 22
208.66
 32
-7.27
 13
448.11
 23
118.45
 33
-7.27
  0
3DFACE
  8
TIMBER3D
 10
454.55
 20
121.19
 30
-4.36
 11
416.26
 21
211.40
 31
-4.36
 12
416.26
 22
211.40
 32
-7.27
 13
454.55
 23
121.19
 33
-7.27
  0
3DFACE
  8
TIMBER3D
 10
464.61
 20
125.55
 30
-4.36
 11
423.50
 21
218.35
 31
-4.36
 12
429.90
 22
221.19
 32
-4.36
 13
471.01
 23
128.38
 33
-4.36
  0
3DFACE
  8
TIMBER3D
 10
464.61
 20
125.55
 30
-7.27
 11
423.50
 21
218.35
 31
-7.27
 12
429.90
 22
221.19
 32
-7.27
 13
471.01
 23
128.38
 33
-7.27
  0
3DFACE
  8
TIMBER3D
 10
464.61
 20
125.55
 30
-4.36
 11
471.01
 21
128.38
 31
-4.36
 12
471.01
 22
128.38
 32
-7.27
 13
464.61
 23
125.55
 33
-7.27
  0
3DFACE
  8
TIMBER3D
 10
423.50
 20
218.35
 30
-4.36
 11
429.90
 21
221.19
 31
-4.36
 12
429.90
 22
221.19
 32
-7.27
 13
423.50
 23
218.35
 33
-7.27
  0
3DFACE
  8
TIMBER3D
 10
464.61
 20
125.55
 30
-4.36
 11
423.50
 21
218.35
 31
-4.36
 12
423.50
 22
218.35
 32
-7.27
 13
464.61
 23
125.55
 33
-7.27
  0
3DFACE
  8
TIMBER3D
 10
471.01
 20
128.38
 30
-4.36
 11
429.90
 21
221.19
 31
-4.36
 12
429.90
 22
221.19
 32
-7.27
 13
471.01
 23
128.38
 33
-7.27
  0
3DFACE
  8
TIMBER3D
 10
481.00
 20
132.90
 30
-4.36
 11
436.99
 21
228.23
 31
-4.36
 12
443.34
 22
231.17
 32
-4.36
 13
487.35
 23
135.84
 33
-4.36
  0
3DFACE
  8
TIMBER3D
 10
481.00
 20
132.90
 30
-7.27
 11
436.99
 21
228.23
 31
-7.27
 12
443.34
 22
231.17
 32
-7.27
 13
487.35
 23
135.84
 33
-7.27
  0
3DFACE
  8
TIMBER3D
 10
481.00
 20
132.90
 30
-4.36
 11
487.35
 21
135.84
 31
-4.36
 12
487.35
 22
135.84
 32
-7.27
 13
481.00
 23
132.90
 33
-7.27
  0
3DFACE
  8
TIMBER3D
 10
436.99
 20
228.23
 30
-4.36
 11
443.34
 21
231.17
 31
-4.36
 12
443.34
 22
231.17
 32
-7.27
 13
436.99
 23
228.23
 33
-7.27
  0
3DFACE
  8
TIMBER3D
 10
481.00
 20
132.90
 30
-4.36
 11
436.99
 21
228.23
 31
-4.36
 12
436.99
 22
228.23
 32
-7.27
 13
481.00
 23
132.90
 33
-7.27
  0
3DFACE
  8
TIMBER3D
 10
487.35
 20
135.84
 30
-4.36
 11
443.34
 21
231.17
 31
-4.36
 12
443.34
 22
231.17
 32
-7.27
 13
487.35
 23
135.84
 33
-7.27
  0
3DFACE
  8
TIMBER3D
 10
234.61
 20
52.07
 30
-4.36
 11
220.19
 21
120.57
 31
-4.36
 12
227.04
 22
122.01
 32
-4.36
 13
241.46
 23
53.51
 33
-4.36
  0
3DFACE
  8
TIMBER3D
 10
234.61
 20
52.07
 30
-7.27
 11
220.19
 21
120.57
 31
-7.27
 12
227.04
 22
122.01
 32
-7.27
 13
241.46
 23
53.51
 33
-7.27
  0
3DFACE
  8
TIMBER3D
 10
234.61
 20
52.07
 30
-4.36
 11
241.46
 21
53.51
 31
-4.36
 12
241.46
 22
53.51
 32
-7.27
 13
234.61
 23
52.07
 33
-7.27
  0
3DFACE
  8
TIMBER3D
 10
220.19
 20
120.57
 30
-4.36
 11
227.04
 21
122.01
 31
-4.36
 12
227.04
 22
122.01
 32
-7.27
 13
220.19
 23
120.57
 33
-7.27
  0
3DFACE
  8
TIMBER3D
 10
234.61
 20
52.07
 30
-4.36
 11
220.19
 21
120.57
 31
-4.36
 12
220.19
 22
120.57
 32
-7.27
 13
234.61
 23
52.07
 33
-7.27
  0
3DFACE
  8
TIMBER3D
 10
241.46
 20
53.51
 30
-4.36
 11
227.04
 21
122.01
 31
-4.36
 12
227.04
 22
122.01
 32
-7.27
 13
241.46
 23
53.51
 33
-7.27
  0
INSERT
  2
BOLTBOSS
  8
CHBOLTBO
 10
233.58
 20
68.25
 30
0.00
 41
3.5000
 42
3.5000
 43
3.5000
 50
0.000
  0
INSERT
  2
BOLTHEAD
  8
CHBOLTHD
 10
233.58
 20
68.25
 30
0.00
 41
3.5000
 42
3.5000
 43
3.5000
 50
36.000
  0
INSERT
  2
BOLTBOSS
  8
CHBOLTBO
 10
235.89
 20
68.73
 30
0.00
 41
3.5000
 42
3.5000
 43
3.5000
 50
0.000
  0
INSERT
  2
BOLTHEAD
  8
CHBOLTHD
 10
235.89
 20
68.73
 30
0.00
 41
3.5000
 42
3.5000
 43
3.5000
 50
5.000
  0
INSERT
  2
BOLTBOSS
  8
CHBOLTBO
 10
236.06
 20
62.21
 30
0.00
 41
3.5000
 42
3.5000
 43
3.5000
 50
0.000
  0
INSERT
  2
BOLTHEAD
  8
CHBOLTHD
 10
236.06
 20
62.21
 30
0.00
 41
3.5000
 42
3.5000
 43
3.5000
 50
65.000
  0
INSERT
  2
S1L
  8
CHMARKER
 10
235.16
 20
66.50
 30
0.00
 41
3.5000
 42
3.5000
 43
3.5000
 50
11.880
  0
INSERT
  2
BOLTBOSS
  8
CHBOLTBO
 10
227.96
 20
95.08
 30
0.00
 41
3.5000
 42
3.5000
 43
3.5000
 50
0.000
  0
INSERT
  2
BOLTHEAD
  8
CHBOLTHD
 10
227.96
 20
95.08
 30
0.00
 41
3.5000
 42
3.5000
 43
3.5000
 50
14.000
  0
INSERT
  2
BOLTBOSS
  8
CHBOLTBO
 10
230.21
 20
95.56
 30
0.00
 41
3.5000
 42
3.5000
 43
3.5000
 50
0.000
  0
INSERT
  2
BOLTHEAD
  8
CHBOLTHD
 10
230.21
 20
95.56
 30
0.00
 41
3.5000
 42
3.5000
 43
3.5000
 50
21.000
  0
INSERT
  2
BOLTBOSS
  8
CHBOLTBO
 10
227.76
 20
101.60
 30
0.00
 41
3.5000
 42
3.5000
 43
3.5000
 50
0.000
  0
INSERT
  2
BOLTHEAD
  8
CHBOLTHD
 10
227.76
 20
101.60
 30
0.00
 41
3.5000
 42
3.5000
 43
3.5000
 50
31.000
  0
INSERT
  2
S1R
  8
CHMARKER
 10
228.66
 20
97.32
 30
0.00
 41
3.5000
 42
3.5000
 43
3.5000
 50
11.863
  0
INSERT
  2
BOLTBOSS
  8
CHBOLTBO
 10
230.85
 20
75.51
 30
0.00
 41
3.5000
 42
3.5000
 43
3.5000
 50
0.000
  0
INSERT
  2
BOLTHEAD
  8
CHBOLTHD
 10
230.85
 20
75.51
 30
0.00
 41
3.5000
 42
3.5000
 43
3.5000
 50
72.000
  0
INSERT
  2
BOLTBOSS
  8
CHBOLTBO
 10
235.07
 20
76.75
 30
0.00
 41
3.5000
 42
3.5000
 43
3.5000
 50
0.000
  0
INSERT
  2
BOLTHEAD
  8
CHBOLTHD
 10
235.07
 20
76.75
 30
0.00
 41
3.5000
 42
3.5000
 43
3.5000
 50
84.000
  0
INSERT
  2
BOLTBOSS
  8
CHBOLTBO
 10
232.00
 20
71.59
 30
0.00
 41
3.5000
 42
3.5000
 43
3.5000
 50
0.000
  0
INSERT
  2
BOLTHEAD
  8
CHBOLTHD
 10
232.00
 20
71.59
 30
0.00
 41
3.5000
 42
3.5000
 43
3.5000
 50
23.000
  0
INSERT
  2
BOLTBOSS
  8
CHBOLTBO
 10
236.23
 20
72.84
 30
0.00
 41
3.5000
 42
3.5000
 43
3.5000
 50
0.000
  0
INSERT
  2
BOLTHEAD
  8
CHBOLTHD
 10
236.23
 20
72.84
 30
0.00
 41
3.5000
 42
3.5000
 43
3.5000
 50
85.000
  0
INSERT
  2
L1L
  8
CHMARKER
 10
233.25
 20
75.15
 30
0.00
 41
3.5000
 42
3.5000
 43
3.5000
 50
16.375
  0
INSERT
  2
BOLTBOSS
  8
CHBOLTBO
 10
225.13
 20
104.53
 30
0.00
 41
3.5000
 42
3.5000
 43
3.5000
 50
0.000
  0
INSERT
  2
BOLTHEAD
  8
CHBOLTHD
 10
225.13
 20
104.53
 30
0.00
 41
3.5000
 42
3.5000
 43
3.5000
 50
15.000
  0
INSERT
  2
BOLTBOSS
  8
CHBOLTBO
 10
229.23
 20
105.75
 30
0.00
 41
3.5000
 42
3.5000
 43
3.5000
 50
0.000
  0
INSERT
  2
BOLTHEAD
  8
CHBOLTHD
 10
229.23
 20
105.75
 30
0.00
 41
3.5000
 42
3.5000
 43
3.5000
 50
0.000
  0
INSERT
  2
BOLTBOSS
  8
CHBOLTBO
 10
223.99
 20
108.44
 30
0.00
 41
3.5000
 42
3.5000
 43
3.5000
 50
0.000
  0
INSERT
  2
BOLTHEAD
  8
CHBOLTHD
 10
223.99
 20
108.44
 30
0.00
 41
3.5000
 42
3.5000
 43
3.5000
 50
32.000
  0
INSERT
  2
BOLTBOSS
  8
CHBOLTBO
 10
228.07
 20
109.66
 30
0.00
 41
3.5000
 42
3.5000
 43
3.5000
 50
0.000
  0
INSERT
  2
BOLTHEAD
  8
CHBOLTHD
 10
228.07
 20
109.66
 30
0.00
 41
3.5000
 42
3.5000
 43
3.5000
 50
39.000
  0
INSERT
  2
L1R
  8
CHMARKER
 10
226.89
 20
106.12
 30
0.00
 41
3.5000
 42
3.5000
 43
3.5000
 50
16.699
  0
3DFACE
  8
TIMBER3D
 10
251.25
 20
55.65
 30
-4.36
 11
235.82
 21
123.93
 31
-4.36
 12
242.65
 22
125.47
 32
-4.36
 13
258.08
 23
57.19
 33
-4.36
  0
3DFACE
  8
TIMBER3D
 10
251.25
 20
55.65
 30
-7.27
 11
235.82
 21
123.93
 31
-7.27
 12
242.65
 22
125.47
 32
-7.27
 13
258.08
 23
57.19
 33
-7.27
  0
3DFACE
  8
TIMBER3D
 10
251.25
 20
55.65
 30
-4.36
 11
258.08
 21
57.19
 31
-4.36
 12
258.08
 22
57.19
 32
-7.27
 13
251.25
 23
55.65
 33
-7.27
  0
3DFACE
  8
TIMBER3D
 10
235.82
 20
123.93
 30
-4.36
 11
242.65
 21
125.47
 31
-4.36
 12
242.65
 22
125.47
 32
-7.27
 13
235.82
 23
123.93
 33
-7.27
  0
3DFACE
  8
TIMBER3D
 10
251.25
 20
55.65
 30
-4.36
 11
235.82
 21
123.93
 31
-4.36
 12
235.82
 22
123.93
 32
-7.27
 13
251.25
 23
55.65
 33
-7.27
  0
3DFACE
  8
TIMBER3D
 10
258.08
 20
57.19
 30
-4.36
 11
242.65
 21
125.47
 31
-4.36
 12
242.65
 22
125.47
 32
-7.27
 13
258.08
 23
57.19
 33
-7.27
  0
INSERT
  2
BOLTBOSS
  8
CHBOLTBO
 10
249.98
 20
71.81
 30
0.00
 41
3.5000
 42
3.5000
 43
3.5000
 50
0.000
  0
INSERT
  2
BOLTHEAD
  8
CHBOLTHD
 10
249.98
 20
71.81
 30
0.00
 41
3.5000
 42
3.5000
 43
3.5000
 50
53.000
  0
INSERT
  2
BOLTBOSS
  8
CHBOLTBO
 10
252.28
 20
72.34
 30
0.00
 41
3.5000
 42
3.5000
 43
3.5000
 50
0.000
  0
INSERT
  2
BOLTHEAD
  8
CHBOLTHD
 10
252.28
 20
72.34
 30
0.00
 41
3.5000
 42
3.5000
 43
3.5000
 50
6.000
  0
INSERT
  2
BOLTBOSS
  8
CHBOLTBO
 10
252.55
 20
65.82
 30
0.00
 41
3.5000
 42
3.5000
 43
3.5000
 50
0.000
  0
INSERT
  2
BOLTHEAD
  8
CHBOLTHD
 10
252.55
 20
65.82
 30
0.00
 41
3.5000
 42
3.5000
 43
3.5000
 50
46.000
  0
INSERT
  2
S1L
  8
CHMARKER
 10
251.58
 20
70.08
 30
0.00
 41
3.5000
 42
3.5000
 43
3.5000
 50
12.704
  0
INSERT
  2
BOLTBOSS
  8
CHBOLTBO
 10
243.96
 20
98.56
 30
0.00
 41
3.5000
 42
3.5000
 43
3.5000
 50
0.000
  0
INSERT
  2
BOLTHEAD
  8
CHBOLTHD
 10
243.96
 20
98.56
 30
0.00
 41
3.5000
 42
3.5000
 43
3.5000
 50
75.000
  0
INSERT
  2
BOLTBOSS
  8
CHBOLTBO
 10
246.21
 20
99.07
 30
0.00
 41
3.5000
 42
3.5000
 43
3.5000
 50
0.000
  0
INSERT
  2
BOLTHEAD
  8
CHBOLTHD
 10
246.21
 20
99.07
 30
0.00
 41
3.5000
 42
3.5000
 43
3.5000
 50
23.000
  0
INSERT
  2
BOLTBOSS
  8
CHBOLTBO
 10
243.67
 20
105.07
 30
0.00
 41
3.5000
 42
3.5000
 43
3.5000
 50
0.000
  0
INSERT
  2
BOLTHEAD
  8
CHBOLTHD
 10
243.67
 20
105.07
 30
0.00
 41
3.5000
 42
3.5000
 43
3.5000
 50
25.000
  0
INSERT
  2
S1R
  8
CHMARKER
 10
244.64
 20
100.80
 30
0.00
 41
3.5000
 42
3.5000
 43
3.5000
 50
12.709
  0
INSERT
  2
BOLTBOSS
  8
CHBOLTBO
 10
247.49
 20
81.64
 30
0.00
 41
3.5000
 42
3.5000
 43
3.5000
 50
0.000
  0
INSERT
  2
BOLTHEAD
  8
CHBOLTHD
 10
247.49
 20
81.64
 30
0.00
 41
3.5000
 42
3.5000
 43
3.5000
 50
79.000
  0
INSERT
  2
BOLTBOSS
  8
CHBOLTBO
 10
249.72
 20
82.35
 30
0.00
 41
3.5000
 42
3.5000
 43
3.5000
 50
0.000
  0
INSERT
  2
BOLTHEAD
  8
CHBOLTHD
 10
249.72
 20
82.35
 30
0.00
 41
3.5000
 42
3.5000
 43
3.5000
 50
39.000
  0
INSERT
  2
BOLTBOSS
  8
CHBOLTBO
 10
250.56
 20
75.88
 30
0.00
 41
3.5000
 42
3.5000
 43
3.5000
 50
0.000
  0
INSERT
  2
BOLTHEAD
  8
CHBOLTHD
 10
250.56
 20
75.88
 30
0.00
 41
3.5000
 42
3.5000
 43
3.5000
 50
41.000
  0
INSERT
  2
S1L
  8
CHMARKER
 10
249.23
 20
80.05
 30
0.00
 41
3.5000
 42
3.5000
 43
3.5000
 50
17.714
  0
INSERT
  2
BOLTBOSS
  8
CHBOLTBO
 10
241.98
 20
108.66
 30
0.00
 41
3.5000
 42
3.5000
 43
3.5000
 50
0.000
  0
INSERT
  2
BOLTHEAD
  8
CHBOLTHD
 10
241.98
 20
108.66
 30
0.00
 41
3.5000
 42
3.5000
 43
3.5000
 50
24.000
  0
INSERT
  2
BOLTBOSS
  8
CHBOLTBO
 10
244.16
 20
109.36
 30
0.00
 41
3.5000
 42
3.5000
 43
3.5000
 50
0.000
  0
INSERT
  2
BOLTHEAD
  8
CHBOLTHD
 10
244.16
 20
109.36
 30
0.00
 41
3.5000
 42
3.5000
 43
3.5000
 50
76.000
  0
INSERT
  2
BOLTBOSS
  8
CHBOLTBO
 10
241.11
 20
115.12
 30
0.00
 41
3.5000
 42
3.5000
 43
3.5000
 50
0.000
  0
INSERT
  2
BOLTHEAD
  8
CHBOLTHD
 10
241.11
 20
115.12
 30
0.00
 41
3.5000
 42
3.5000
 43
3.5000
 50
17.000
  0
INSERT
  2
S1R
  8
CHMARKER
 10
242.45
 20
110.96
 30
0.00
 41
3.5000
 42
3.5000
 43
3.5000
 50
17.904
  0
3DFACE
  8
TIMBER3D
 10
267.84
 20
59.48
 30
-4.36
 11
250.58
 21
130.92
 31
-4.36
 12
257.38
 22
132.56
 32
-4.36
 13
274.64
 23
61.12
 33
-4.36
  0
3DFACE
  8
TIMBER3D
 10
267.84
 20
59.48
 30
-7.27
 11
250.58
 21
130.92
 31
-7.27
 12
257.38
 22
132.56
 32
-7.27
 13
274.64
 23
61.12
 33
-7.27
  0
3DFACE
  8
TIMBER3D
 10
267.84
 20
59.48
 30
-4.36
 11
274.64
 21
61.12
 31
-4.36
 12
274.64
 22
61.12
 32
-7.27
 13
267.84
 23
59.48
 33
-7.27
  0
3DFACE
  8
TIMBER3D
 10
250.58
 20
130.92
 30
-4.36
 11
257.38
 21
132.56
 31
-4.36
 12
257.38
 22
132.56
 32
-7.27
 13
250.58
 23
130.92
 33
-7.27
  0
3DFACE
  8
TIMBER3D
 10
267.84
 20
59.48
 30
-4.36
 11
250.58
 21
130.92
 31
-4.36
 12
250.58
 22
130.92
 32
-7.27
 13
267.84
 23
59.48
 33
-7.27
  0
3DFACE
  8
TIMBER3D
 10
274.64
 20
61.12
 30
-4.36
 11
257.38
 21
132.56
 31
-4.36
 12
257.38
 22
132.56
 32
-7.27
 13
274.64
 23
61.12
 33
-7.27
  0
INSERT
  2
BOLTBOSS
  8
CHBOLTBO
 10
266.33
 20
75.61
 30
0.00
 41
3.5000
 42
3.5000
 43
3.5000
 50
0.000
  0
INSERT
  2
BOLTHEAD
  8
CHBOLTHD
 10
266.33
 20
75.61
 30
0.00
 41
3.5000
 42
3.5000
 43
3.5000
 50
8.000
  0
INSERT
  2
BOLTBOSS
  8
CHBOLTBO
 10
268.62
 20
76.17
 30
0.00
 41
3.5000
 42
3.5000
 43
3.5000
 50
0.000
  0
INSERT
  2
BOLTHEAD
  8
CHBOLTHD
 10
268.62
 20
76.17
 30
0.00
 41
3.5000
 42
3.5000
 43
3.5000
 50
47.000
  0
INSERT
  2
BOLTBOSS
  8
CHBOLTBO
 10
268.98
 20
69.65
 30
0.00
 41
3.5000
 42
3.5000
 43
3.5000
 50
0.000
  0
INSERT
  2
BOLTHEAD
  8
CHBOLTHD
 10
268.98
 20
69.65
 30
0.00
 41
3.5000
 42
3.5000
 43
3.5000
 50
73.000
  0
INSERT
  2
S1L
  8
CHMARKER
 10
267.96
 20
73.91
 30
0.00
 41
3.5000
 42
3.5000
 43
3.5000
 50
13.527
  0
INSERT
  2
BOLTBOSS
  8
CHBOLTBO
 10
259.92
 20
102.27
 30
0.00
 41
3.5000
 42
3.5000
 43
3.5000
 50
0.000
  0
INSERT
  2
BOLTHEAD
  8
CHBOLTHD
 10
259.92
 20
102.27
 30
0.00
 41
3.5000
 42
3.5000
 43
3.5000
 50
71.000
  0
INSERT
  2
BOLTBOSS
  8
CHBOLTBO
 10
262.16
 20
102.81
 30
0.00
 41
3.5000
 42
3.5000
 43
3.5000
 50
0.000
  0
INSERT
  2
BOLTHEAD
  8
CHBOLTHD
 10
262.16
 20
102.81
 30
0.00
 41
3.5000
 42
3.5000
 43
3.5000
 50
23.000
  0
INSERT
  2
BOLTBOSS
  8
CHBOLTBO
 10
259.53
 20
108.78
 30
0.00
 41
3.5000
 42
3.5000
 43
3.5000
 50
0.000
  0
INSERT
  2
BOLTHEAD
  8
CHBOLTHD
 10
259.53
 20
108.78
 30
0.00
 41
3.5000
 42
3.5000
 43
3.5000
 50
66.000
  0
INSERT
  2
S1R
  8
CHMARKER
 10
260.56
 20
104.53
 30
0.00
 41
3.5000
 42
3.5000
 43
3.5000
 50
13.593
  0
INSERT
  2
BOLTBOSS
  8
CHBOLTBO
 10
263.31
 20
86.87
 30
0.00
 41
3.5000
 42
3.5000
 43
3.5000
 50
0.000
  0
INSERT
  2
BOLTHEAD
  8
CHBOLTHD
 10
263.31
 20
86.87
 30
0.00
 41
3.5000
 42
3.5000
 43
3.5000
 50
88.000
  0
INSERT
  2
BOLTBOSS
  8
CHBOLTBO
 10
265.52
 20
87.64
 30
0.00
 41
3.5000
 42
3.5000
 43
3.5000
 50
0.000
  0
INSERT
  2
BOLTHEAD
  8
CHBOLTHD
 10
265.52
 20
87.64
 30
0.00
 41
3.5000
 42
3.5000
 43
3.5000
 50
60.000
  0
INSERT
  2
BOLTBOSS
  8
CHBOLTBO
 10
266.52
 20
81.19
 30
0.00
 41
3.5000
 42
3.5000
 43
3.5000
 50
0.000
  0
INSERT
  2
BOLTHEAD
  8
CHBOLTHD
 10
266.52
 20
81.19
 30
0.00
 41
3.5000
 42
3.5000
 43
3.5000
 50
81.000
  0
INSERT
  2
S1L
  8
CHMARKER
 10
265.08
 20
85.33
 30
0.00
 41
3.5000
 42
3.5000
 43
3.5000
 50
19.105
  0
INSERT
  2
BOLTBOSS
  8
CHBOLTBO
 10
257.45
 20
113.86
 30
0.00
 41
3.5000
 42
3.5000
 43
3.5000
 50
0.000
  0
INSERT
  2
BOLTHEAD
  8
CHBOLTHD
 10
257.45
 20
113.86
 30
0.00
 41
3.5000
 42
3.5000
 43
3.5000
 50
20.000
  0
INSERT
  2
BOLTBOSS
  8
CHBOLTBO
 10
259.60
 20
114.62
 30
0.00
 41
3.5000
 42
3.5000
 43
3.5000
 50
0.000
  0
INSERT
  2
BOLTHEAD
  8
CHBOLTHD
 10
259.60
 20
114.62
 30
0.00
 41
3.5000
 42
3.5000
 43
3.5000
 50
34.000
  0
INSERT
  2
BOLTBOSS
  8
CHBOLTBO
 10
256.43
 20
120.30
 30
0.00
 41
3.5000
 42
3.5000
 43
3.5000
 50
0.000
  0
INSERT
  2
BOLTHEAD
  8
CHBOLTHD
 10
256.43
 20
120.30
 30
0.00
 41
3.5000
 42
3.5000
 43
3.5000
 50
62.000
  0
INSERT
  2
S1R
  8
CHMARKER
 10
257.86
 20
116.17
 30
0.00
 41
3.5000
 42
3.5000
 43
3.5000
 50
19.338
  0
3DFACE
  8
TIMBER3D
 10
284.37
 20
63.54
 30
-4.36
 11
266.06
 21
134.73
 31
-4.36
 12
272.84
 22
136.47
 32
-4.36
 13
291.14
 23
65.29
 33
-4.36
  0
3DFACE
  8
TIMBER3D
 10
284.37
 20
63.54
 30
-7.27
 11
266.06
 21
134.73
 31
-7.27
 12
272.84
 22
136.47
 32
-7.27
 13
291.14
 23
65.29
 33
-7.27
  0
3DFACE
  8
TIMBER3D
 10
284.37
 20
63.54
 30
-4.36
 11
291.14
 21
65.29
 31
-4.36
 12
291.14
 22
65.29
 32
-7.27
 13
284.37
 23
63.54
 33
-7.27
  0
3DFACE
  8
TIMBER3D
 10
266.06
 20
134.73
 30
-4.36
 11
272.84
 21
136.47
 31
-4.36
 12
272.84
 22
136.47
 32
-7.27
 13
266.06
 23
134.73
 33
-7.27
  0
3DFACE
  8
TIMBER3D
 10
284.37
 20
63.54
 30
-4.36
 11
266.06
 21
134.73
 31
-4.36
 12
266.06
 22
134.73
 32
-7.27
 13
284.37
 23
63.54
 33
-7.27
  0
3DFACE
  8
TIMBER3D
 10
291.14
 20
65.29
 30
-4.36
 11
272.84
 21
136.47
 31
-4.36
 12
272.84
 22
136.47
 32
-7.27
 13
291.14
 23
65.29
 33
-7.27
  0
INSERT
  2
BOLTBOSS
  8
CHBOLTBO
 10
282.62
 20
79.66
 30
0.00
 41
3.5000
 42
3.5000
 43
3.5000
 50
0.000
  0
INSERT
  2
BOLTHEAD
  8
CHBOLTHD
 10
282.62
 20
79.66
 30
0.00
 41
3.5000
 42
3.5000
 43
3.5000
 50
50.000
  0
INSERT
  2
BOLTBOSS
  8
CHBOLTBO
 10
284.91
 20
80.25
 30
0.00
 41
3.5000
 42
3.5000
 43
3.5000
 50
0.000
  0
INSERT
  2
BOLTHEAD
  8
CHBOLTHD
 10
284.91
 20
80.25
 30
0.00
 41
3.5000
 42
3.5000
 43
3.5000
 50
56.000
  0
INSERT
  2
BOLTBOSS
  8
CHBOLTBO
 10
285.36
 20
73.74
 30
0.00
 41
3.5000
 42
3.5000
 43
3.5000
 50
0.000
  0
INSERT
  2
BOLTHEAD
  8
CHBOLTHD
 10
285.36
 20
73.74
 30
0.00
 41
3.5000
 42
3.5000
 43
3.5000
 50
14.000
  0
INSERT
  2
S1L
  8
CHMARKER
 10
284.27
 20
77.98
 30
0.00
 41
3.5000
 42
3.5000
 43
3.5000
 50
14.506
  0
INSERT
  2
BOLTBOSS
  8
CHBOLTBO
 10
275.81
 20
106.22
 30
0.00
 41
3.5000
 42
3.5000
 43
3.5000
 50
0.000
  0
INSERT
  2
BOLTHEAD
  8
CHBOLTHD
 10
275.81
 20
106.22
 30
0.00
 41
3.5000
 42
3.5000
 43
3.5000
 50
21.000
  0
INSERT
  2
BOLTBOSS
  8
CHBOLTBO
 10
278.05
 20
106.79
 30
0.00
 41
3.5000
 42
3.5000
 43
3.5000
 50
0.000
  0
INSERT
  2
BOLTHEAD
  8
CHBOLTHD
 10
278.05
 20
106.79
 30
0.00
 41
3.5000
 42
3.5000
 43
3.5000
 50
29.000
  0
INSERT
  2
BOLTBOSS
  8
CHBOLTBO
 10
275.33
 20
112.72
 30
0.00
 41
3.5000
 42
3.5000
 43
3.5000
 50
0.000
  0
INSERT
  2
BOLTHEAD
  8
CHBOLTHD
 10
275.33
 20
112.72
 30
0.00
 41
3.5000
 42
3.5000
 43
3.5000
 50
26.000
  0
INSERT
  2
S1R
  8
CHMARKER
 10
276.42
 20
108.48
 30
0.00
 41
3.5000
 42
3.5000
 43
3.5000
 50
14.439
  0
INSERT
  2
BOLTBOSS
  8
CHBOLTBO
 10
278.99
 20
92.48
 30
0.00
 41
3.5000
 42
3.5000
 43
3.5000
 50
0.000
  0
INSERT
  2
BOLTHEAD
  8
CHBOLTHD
 10
278.99
 20
92.48
 30
0.00
 41
3.5000
 42
3.5000
 43
3.5000
 50
49.000
  0
INSERT
  2
BOLTBOSS
  8
CHBOLTBO
 10
281.18
 20
93.29
 30
0.00
 41
3.5000
 42
3.5000
 43
3.5000
 50
0.000
  0
INSERT
  2
BOLTHEAD
  8
CHBOLTHD
 10
281.18
 20
93.29
 30
0.00
 41
3.5000
 42
3.5000
 43
3.5000
 50
81.000
  0
INSERT
  2
BOLTBOSS
  8
CHBOLTBO
 10
282.34
 20
86.88
 30
0.00
 41
3.5000
 42
3.5000
 43
3.5000
 50
0.000
  0
INSERT
  2
BOLTHEAD
  8
CHBOLTHD
 10
282.34
 20
86.88
 30
0.00
 41
3.5000
 42
3.5000
 43
3.5000
 50
79.000
  0
INSERT
  2
S1L
  8
CHMARKER
 10
280.80
 20
90.97
 30
0.00
 41
3.5000
 42
3.5000
 43
3.5000
 50
20.346
  0
INSERT
  2
BOLTBOSS
  8
CHBOLTBO
 10
272.79
 20
119.42
 30
0.00
 41
3.5000
 42
3.5000
 43
3.5000
 50
0.000
  0
INSERT
  2
BOLTHEAD
  8
CHBOLTHD
 10
272.79
 20
119.42
 30
0.00
 41
3.5000
 42
3.5000
 43
3.5000
 50
15.000
  0
INSERT
  2
BOLTBOSS
  8
CHBOLTBO
 10
274.92
 20
120.23
 30
0.00
 41
3.5000
 42
3.5000
 43
3.5000
 50
0.000
  0
INSERT
  2
BOLTHEAD
  8
CHBOLTHD
 10
274.92
 20
120.23
 30
0.00
 41
3.5000
 42
3.5000
 43
3.5000
 50
28.000
  0
INSERT
  2
BOLTBOSS
  8
CHBOLTBO
 10
271.62
 20
125.84
 30
0.00
 41
3.5000
 42
3.5000
 43
3.5000
 50
0.000
  0
INSERT
  2
BOLTHEAD
  8
CHBOLTHD
 10
271.62
 20
125.84
 30
0.00
 41
3.5000
 42
3.5000
 43
3.5000
 50
18.000
  0
INSERT
  2
S1R
  8
CHMARKER
 10
273.14
 20
121.74
 30
0.00
 41
3.5000
 42
3.5000
 43
3.5000
 50
20.772
  0
3DFACE
  8
TIMBER3D
 10
300.83
 20
67.85
 30
-4.36
 11
280.55
 21
142.14
 31
-4.36
 12
287.31
 22
143.98
 32
-4.36
 13
307.58
 23
69.70
 33
-4.36
  0
3DFACE
  8
TIMBER3D
 10
300.83
 20
67.85
 30
-7.27
 11
280.55
 21
142.14
 31
-7.27
 12
287.31
 22
143.98
 32
-7.27
 13
307.58
 23
69.70
 33
-7.27
  0
3DFACE
  8
TIMBER3D
 10
300.83
 20
67.85
 30
-4.36
 11
307.58
 21
69.70
 31
-4.36
 12
307.58
 22
69.70
 32
-7.27
 13
300.83
 23
67.85
 33
-7.27
  0
3DFACE
  8
TIMBER3D
 10
280.55
 20
142.14
 30
-4.36
 11
287.31
 21
143.98
 31
-4.36
 12
287.31
 22
143.98
 32
-7.27
 13
280.55
 23
142.14
 33
-7.27
  0
3DFACE
  8
TIMBER3D
 10
300.83
 20
67.85
 30
-4.36
 11
280.55
 21
142.14
 31
-4.36
 12
280.55
 22
142.14
 32
-7.27
 13
300.83
 23
67.85
 33
-7.27
  0
3DFACE
  8
TIMBER3D
 10
307.58
 20
69.70
 30
-4.36
 11
287.31
 21
143.98
 31
-4.36
 12
287.31
 22
143.98
 32
-7.27
 13
307.58
 23
69.70
 33
-7.27
  0
INSERT
  2
BOLTBOSS
  8
CHBOLTBO
 10
298.85
 20
83.94
 30
0.00
 41
3.5000
 42
3.5000
 43
3.5000
 50
0.000
  0
INSERT
  2
BOLTHEAD
  8
CHBOLTHD
 10
298.85
 20
83.94
 30
0.00
 41
3.5000
 42
3.5000
 43
3.5000
 50
4.000
  0
INSERT
  2
BOLTBOSS
  8
CHBOLTBO
 10
301.13
 20
84.57
 30
0.00
 41
3.5000
 42
3.5000
 43
3.5000
 50
0.000
  0
INSERT
  2
BOLTHEAD
  8
CHBOLTHD
 10
301.13
 20
84.57
 30
0.00
 41
3.5000
 42
3.5000
 43
3.5000
 50
14.000
  0
INSERT
  2
BOLTBOSS
  8
CHBOLTBO
 10
301.68
 20
78.06
 30
0.00
 41
3.5000
 42
3.5000
 43
3.5000
 50
0.000
  0
INSERT
  2
BOLTHEAD
  8
CHBOLTHD
 10
301.68
 20
78.06
 30
0.00
 41
3.5000
 42
3.5000
 43
3.5000
 50
36.000
  0
INSERT
  2
S1L
  8
CHMARKER
 10
300.52
 20
82.29
 30
0.00
 41
3.5000
 42
3.5000
 43
3.5000
 50
15.213
  0
INSERT
  2
BOLTBOSS
  8
CHBOLTBO
 10
291.65
 20
110.40
 30
0.00
 41
3.5000
 42
3.5000
 43
3.5000
 50
0.000
  0
INSERT
  2
BOLTHEAD
  8
CHBOLTHD
 10
291.65
 20
110.40
 30
0.00
 41
3.5000
 42
3.5000
 43
3.5000
 50
60.000
  0
INSERT
  2
BOLTBOSS
  8
CHBOLTBO
 10
293.88
 20
111.01
 30
0.00
 41
3.5000
 42
3.5000
 43
3.5000
 50
0.000
  0
INSERT
  2
BOLTHEAD
  8
CHBOLTHD
 10
293.88
 20
111.01
 30
0.00
 41
3.5000
 42
3.5000
 43
3.5000
 50
20.000
  0
INSERT
  2
BOLTBOSS
  8
CHBOLTBO
 10
291.08
 20
116.90
 30
0.00
 41
3.5000
 42
3.5000
 43
3.5000
 50
0.000
  0
INSERT
  2
BOLTHEAD
  8
CHBOLTHD
 10
291.08
 20
116.90
 30
0.00
 41
3.5000
 42
3.5000
 43
3.5000
 50
16.000
  0
INSERT
  2
S1R
  8
CHMARKER
 10
292.23
 20
112.68
 30
0.00
 41
3.5000
 42
3.5000
 43
3.5000
 50
15.284
  0
INSERT
  2
BOLTBOSS
  8
CHBOLTBO
 10
294.53
 20
98.45
 30
0.00
 41
3.5000
 42
3.5000
 43
3.5000
 50
0.000
  0
INSERT
  2
BOLTHEAD
  8
CHBOLTHD
 10
294.53
 20
98.45
 30
0.00
 41
3.5000
 42
3.5000
 43
3.5000
 50
14.000
  0
INSERT
  2
BOLTBOSS
  8
CHBOLTBO
 10
296.69
 20
99.32
 30
0.00
 41
3.5000
 42
3.5000
 43
3.5000
 50
0.000
  0
INSERT
  2
BOLTHEAD
  8
CHBOLTHD
 10
296.69
 20
99.32
 30
0.00
 41
3.5000
 42
3.5000
 43
3.5000
 50
45.000
  0
INSERT
  2
BOLTBOSS
  8
CHBOLTBO
 10
298.00
 20
92.93
 30
0.00
 41
3.5000
 42
3.5000
 43
3.5000
 50
0.000
  0
INSERT
  2
BOLTHEAD
  8
CHBOLTHD
 10
298.00
 20
92.93
 30
0.00
 41
3.5000
 42
3.5000
 43
3.5000
 50
66.000
  0
INSERT
  2
S1L
  8
CHMARKER
 10
296.37
 20
96.99
 30
0.00
 41
3.5000
 42
3.5000
 43
3.5000
 50
21.801
  0
INSERT
  2
BOLTBOSS
  8
CHBOLTBO
 10
287.97
 20
125.36
 30
0.00
 41
3.5000
 42
3.5000
 43
3.5000
 50
0.000
  0
INSERT
  2
BOLTHEAD
  8
CHBOLTHD
 10
287.97
 20
125.36
 30
0.00
 41
3.5000
 42
3.5000
 43
3.5000
 50
36.000
  0
INSERT
  2
BOLTBOSS
  8
CHBOLTBO
 10
290.08
 20
126.22
 30
0.00
 41
3.5000
 42
3.5000
 43
3.5000
 50
0.000
  0
INSERT
  2
BOLTHEAD
  8
CHBOLTHD
 10
290.08
 20
126.22
 30
0.00
 41
3.5000
 42
3.5000
 43
3.5000
 50
34.000
  0
INSERT
  2
BOLTBOSS
  8
CHBOLTBO
 10
286.65
 20
131.74
 30
0.00
 41
3.5000
 42
3.5000
 43
3.5000
 50
0.000
  0
INSERT
  2
BOLTHEAD
  8
CHBOLTHD
 10
286.65
 20
131.74
 30
0.00
 41
3.5000
 42
3.5000
 43
3.5000
 50
60.000
  0
INSERT
  2
S1R
  8
CHMARKER
 10
288.27
 20
127.68
 30
0.00
 41
3.5000
 42
3.5000
 43
3.5000
 50
22.114
  0
3DFACE
  8
TIMBER3D
 10
317.23
 20
72.41
 30
-4.36
 11
295.86
 21
146.38
 31
-4.36
 12
302.58
 22
148.33
 32
-4.36
 13
323.96
 23
74.35
 33
-4.36
  0
3DFACE
  8
TIMBER3D
 10
317.23
 20
72.41
 30
-7.27
 11
295.86
 21
146.38
 31
-7.27
 12
302.58
 22
148.33
 32
-7.27
 13
323.96
 23
74.35
 33
-7.27
  0
3DFACE
  8
TIMBER3D
 10
317.23
 20
72.41
 30
-4.36
 11
323.96
 21
74.35
 31
-4.36
 12
323.96
 22
74.35
 32
-7.27
 13
317.23
 23
72.41
 33
-7.27
  0
3DFACE
  8
TIMBER3D
 10
295.86
 20
146.38
 30
-4.36
 11
302.58
 21
148.33
 31
-4.36
 12
302.58
 22
148.33
 32
-7.27
 13
295.86
 23
146.38
 33
-7.27
  0
3DFACE
  8
TIMBER3D
 10
317.23
 20
72.41
 30
-4.36
 11
295.86
 21
146.38
 31
-4.36
 12
295.86
 22
146.38
 32
-7.27
 13
317.23
 23
72.41
 33
-7.27
  0
3DFACE
  8
TIMBER3D
 10
323.96
 20
74.35
 30
-4.36
 11
302.58
 21
148.33
 31
-4.36
 12
302.58
 22
148.33
 32
-7.27
 13
323.96
 23
74.35
 33
-7.27
  0
INSERT
  2
BOLTBOSS
  8
CHBOLTBO
 10
315.01
 20
88.47
 30
0.00
 41
3.5000
 42
3.5000
 43
3.5000
 50
0.000
  0
INSERT
  2
BOLTHEAD
  8
CHBOLTHD
 10
315.01
 20
88.47
 30
0.00
 41
3.5000
 42
3.5000
 43
3.5000
 50
79.000
  0
INSERT
  2
BOLTBOSS
  8
CHBOLTBO
 10
317.28
 20
89.12
 30
0.00
 41
3.5000
 42
3.5000
 43
3.5000
 50
0.000
  0
INSERT
  2
BOLTHEAD
  8
CHBOLTHD
 10
317.28
 20
89.12
 30
0.00
 41
3.5000
 42
3.5000
 43
3.5000
 50
30.000
  0
INSERT
  2
BOLTBOSS
  8
CHBOLTBO
 10
317.93
 20
82.63
 30
0.00
 41
3.5000
 42
3.5000
 43
3.5000
 50
0.000
  0
INSERT
  2
BOLTHEAD
  8
CHBOLTHD
 10
317.93
 20
82.63
 30
0.00
 41
3.5000
 42
3.5000
 43
3.5000
 50
89.000
  0
INSERT
  2
S1L
  8
CHMARKER
 10
316.71
 20
86.83
 30
0.00
 41
3.5000
 42
3.5000
 43
3.5000
 50
16.034
  0
INSERT
  2
BOLTBOSS
  8
CHBOLTBO
 10
307.43
 20
114.81
 30
0.00
 41
3.5000
 42
3.5000
 43
3.5000
 50
0.000
  0
INSERT
  2
BOLTHEAD
  8
CHBOLTHD
 10
307.43
 20
114.81
 30
0.00
 41
3.5000
 42
3.5000
 43
3.5000
 50
80.000
  0
INSERT
  2
BOLTBOSS
  8
CHBOLTBO
 10
309.64
 20
115.45
 30
0.00
 41
3.5000
 42
3.5000
 43
3.5000
 50
0.000
  0
INSERT
  2
BOLTHEAD
  8
CHBOLTHD
 10
309.64
 20
115.45
 30
0.00
 41
3.5000
 42
3.5000
 43
3.5000
 50
22.000
  0
INSERT
  2
BOLTBOSS
  8
CHBOLTBO
 10
306.76
 20
121.30
 30
0.00
 41
3.5000
 42
3.5000
 43
3.5000
 50
0.000
  0
INSERT
  2
BOLTHEAD
  8
CHBOLTHD
 10
306.76
 20
121.30
 30
0.00
 41
3.5000
 42
3.5000
 43
3.5000
 50
86.000
  0
INSERT
  2
S1R
  8
CHMARKER
 10
307.97
 20
117.09
 30
0.00
 41
3.5000
 42
3.5000
 43
3.5000
 50
16.174
  0
INSERT
  2
BOLTBOSS
  8
CHBOLTBO
 10
309.91
 20
104.79
 30
0.00
 41
3.5000
 42
3.5000
 43
3.5000
 50
0.000
  0
INSERT
  2
BOLTHEAD
  8
CHBOLTHD
 10
309.91
 20
104.79
 30
0.00
 41
3.5000
 42
3.5000
 43
3.5000
 50
20.000
  0
INSERT
  2
BOLTBOSS
  8
CHBOLTBO
 10
312.05
 20
105.71
 30
0.00
 41
3.5000
 42
3.5000
 43
3.5000
 50
0.000
  0
INSERT
  2
BOLTHEAD
  8
CHBOLTHD
 10
312.05
 20
105.71
 30
0.00
 41
3.5000
 42
3.5000
 43
3.5000
 50
7.000
  0
INSERT
  2
BOLTBOSS
  8
CHBOLTBO
 10
313.50
 20
99.35
 30
0.00
 41
3.5000
 42
3.5000
 43
3.5000
 50
0.000
  0
INSERT
  2
BOLTHEAD
  8
CHBOLTHD
 10
313.50
 20
99.35
 30
0.00
 41
3.5000
 42
3.5000
 43
3.5000
 50
51.000
  0
INSERT
  2
S1L
  8
CHMARKER
 10
311.78
 20
103.37
 30
0.00
 41
3.5000
 42
3.5000
 43
3.5000
 50
23.199
  0
INSERT
  2
BOLTBOSS
  8
CHBOLTBO
 10
302.99
 20
131.66
 30
0.00
 41
3.5000
 42
3.5000
 43
3.5000
 50
0.000
  0
INSERT
  2
BOLTHEAD
  8
CHBOLTHD
 10
302.99
 20
131.66
 30
0.00
 41
3.5000
 42
3.5000
 43
3.5000
 50
74.000
  0
INSERT
  2
BOLTBOSS
  8
CHBOLTBO
 10
305.07
 20
132.56
 30
0.00
 41
3.5000
 42
3.5000
 43
3.5000
 50
0.000
  0
INSERT
  2
BOLTHEAD
  8
CHBOLTHD
 10
305.07
 20
132.56
 30
0.00
 41
3.5000
 42
3.5000
 43
3.5000
 50
35.000
  0
INSERT
  2
BOLTBOSS
  8
CHBOLTBO
 10
301.52
 20
138.01
 30
0.00
 41
3.5000
 42
3.5000
 43
3.5000
 50
0.000
  0
INSERT
  2
BOLTHEAD
  8
CHBOLTHD
 10
301.52
 20
138.01
 30
0.00
 41
3.5000
 42
3.5000
 43
3.5000
 50
21.000
  0
INSERT
  2
S1R
  8
CHMARKER
 10
303.23
 20
133.99
 30
0.00
 41
3.5000
 42
3.5000
 43
3.5000
 50
23.398
  0
3DFACE
  8
TIMBER3D
 10
333.56
 20
77.20
 30
-4.36
 11
310.08
 21
154.20
 31
-4.36
 12
316.78
 22
156.24
 32
-4.36
 13
340.26
 23
79.24
 33
-4.36
  0
3DFACE
  8
TIMBER3D
 10
333.56
 20
77.20
 30
-7.27
 11
310.08
 21
154.20
 31
-7.27
 12
316.78
 22
156.24
 32
-7.27
 13
340.26
 23
79.24
 33
-7.27
  0
3DFACE
  8
TIMBER3D
 10
333.56
 20
77.20
 30
-4.36
 11
340.26
 21
79.24
 31
-4.36
 12
340.26
 22
79.24
 32
-7.27
 13
333.56
 23
77.20
 33
-7.27
  0
3DFACE
  8
TIMBER3D
 10
310.08
 20
154.20
 30
-4.36
 11
316.78
 21
156.24
 31
-4.36
 12
316.78
 22
156.24
 32
-7.27
 13
310.08
 23
154.20
 33
-7.27
  0
3DFACE
  8
TIMBER3D
 10
333.56
 20
77.20
 30
-4.36
 11
310.08
 21
154.20
 31
-4.36
 12
310.08
 22
154.20
 32
-7.27
 13
333.56
 23
77.20
 33
-7.27
  0
3DFACE
  8
TIMBER3D
 10
340.26
 20
79.24
 30
-4.36
 11
316.78
 21
156.24
 31
-4.36
 12
316.78
 22
156.24
 32
-7.27
 13
340.26
 23
79.24
 33
-7.27
  0
INSERT
  2
BOLTBOSS
  8
CHBOLTBO
 10
331.10
 20
93.23
 30
0.00
 41
3.5000
 42
3.5000
 43
3.5000
 50
0.000
  0
INSERT
  2
BOLTHEAD
  8
CHBOLTHD
 10
331.10
 20
93.23
 30
0.00
 41
3.5000
 42
3.5000
 43
3.5000
 50
18.000
  0
INSERT
  2
BOLTBOSS
  8
CHBOLTBO
 10
333.36
 20
93.92
 30
0.00
 41
3.5000
 42
3.5000
 43
3.5000
 50
0.000
  0
INSERT
  2
BOLTHEAD
  8
CHBOLTHD
 10
333.36
 20
93.92
 30
0.00
 41
3.5000
 42
3.5000
 43
3.5000
 50
80.000
  0
INSERT
  2
BOLTBOSS
  8
CHBOLTBO
 10
334.11
 20
87.43
 30
0.00
 41
3.5000
 42
3.5000
 43
3.5000
 50
0.000
  0
INSERT
  2
BOLTHEAD
  8
CHBOLTHD
 10
334.11
 20
87.43
 30
0.00
 41
3.5000
 42
3.5000
 43
3.5000
 50
76.000
  0
INSERT
  2
S1L
  8
CHMARKER
 10
332.83
 20
91.62
 30
0.00
 41
3.5000
 42
3.5000
 43
3.5000
 50
16.901
  0
INSERT
  2
BOLTBOSS
  8
CHBOLTBO
 10
323.14
 20
119.46
 30
0.00
 41
3.5000
 42
3.5000
 43
3.5000
 50
0.000
  0
INSERT
  2
BOLTHEAD
  8
CHBOLTHD
 10
323.14
 20
119.46
 30
0.00
 41
3.5000
 42
3.5000
 43
3.5000
 50
57.000
  0
INSERT
  2
BOLTBOSS
  8
CHBOLTBO
 10
325.34
 20
120.13
 30
0.00
 41
3.5000
 42
3.5000
 43
3.5000
 50
0.000
  0
INSERT
  2
BOLTHEAD
  8
CHBOLTHD
 10
325.34
 20
120.13
 30
0.00
 41
3.5000
 42
3.5000
 43
3.5000
 50
85.000
  0
INSERT
  2
BOLTBOSS
  8
CHBOLTBO
 10
322.37
 20
125.93
 30
0.00
 41
3.5000
 42
3.5000
 43
3.5000
 50
0.000
  0
INSERT
  2
BOLTHEAD
  8
CHBOLTHD
 10
322.37
 20
125.93
 30
0.00
 41
3.5000
 42
3.5000
 43
3.5000
 50
60.000
  0
INSERT
  2
S1R
  8
CHMARKER
 10
323.64
 20
121.75
 30
0.00
 41
3.5000
 42
3.5000
 43
3.5000
 50
17.017
  0
INSERT
  2
BOLTBOSS
  8
CHBOLTBO
 10
325.13
 20
111.49
 30
0.00
 41
3.5000
 42
3.5000
 43
3.5000
 50
0.000
  0
INSERT
  2
BOLTHEAD
  8
CHBOLTHD
 10
325.13
 20
111.49
 30
0.00
 41
3.5000
 42
3.5000
 43
3.5000
 50
59.000
  0
INSERT
  2
BOLTBOSS
  8
CHBOLTBO
 10
327.24
 20
112.46
 30
0.00
 41
3.5000
 42
3.5000
 43
3.5000
 50
0.000
  0
INSERT
  2
BOLTHEAD
  8
CHBOLTHD
 10
327.24
 20
112.46
 30
0.00
 41
3.5000
 42
3.5000
 43
3.5000
 50
85.000
  0
INSERT
  2
BOLTBOSS
  8
CHBOLTBO
 10
328.85
 20
106.14
 30
0.00
 41
3.5000
 42
3.5000
 43
3.5000
 50
0.000
  0
INSERT
  2
BOLTHEAD
  8
CHBOLTHD
 10
328.85
 20
106.14
 30
0.00
 41
3.5000
 42
3.5000
 43
3.5000
 50
78.000
  0
INSERT
  2
S1L
  8
CHMARKER
 10
327.03
 20
110.12
 30
0.00
 41
3.5000
 42
3.5000
 43
3.5000
 50
24.580
  0
INSERT
  2
BOLTBOSS
  8
CHBOLTBO
 10
317.85
 20
138.31
 30
0.00
 41
3.5000
 42
3.5000
 43
3.5000
 50
0.000
  0
INSERT
  2
BOLTHEAD
  8
CHBOLTHD
 10
317.85
 20
138.31
 30
0.00
 41
3.5000
 42
3.5000
 43
3.5000
 50
62.000
  0
INSERT
  2
BOLTBOSS
  8
CHBOLTBO
 10
319.91
 20
139.26
 30
0.00
 41
3.5000
 42
3.5000
 43
3.5000
 50
0.000
  0
INSERT
  2
BOLTHEAD
  8
CHBOLTHD
 10
319.91
 20
139.26
 30
0.00
 41
3.5000
 42
3.5000
 43
3.5000
 50
85.000
  0
INSERT
  2
BOLTBOSS
  8
CHBOLTBO
 10
316.23
 20
144.63
 30
0.00
 41
3.5000
 42
3.5000
 43
3.5000
 50
0.000
  0
INSERT
  2
BOLTHEAD
  8
CHBOLTHD
 10
316.23
 20
144.63
 30
0.00
 41
3.5000
 42
3.5000
 43
3.5000
 50
70.000
  0
INSERT
  2
S1R
  8
CHMARKER
 10
318.03
 20
140.65
 30
0.00
 41
3.5000
 42
3.5000
 43
3.5000
 50
24.905
  0
3DFACE
  8
TIMBER3D
 10
349.82
 20
82.24
 30
-4.36
 11
325.21
 21
158.88
 31
-4.36
 12
331.87
 22
161.02
 32
-4.36
 13
356.48
 23
84.38
 33
-4.36
  0
3DFACE
  8
TIMBER3D
 10
349.82
 20
82.24
 30
-7.27
 11
325.21
 21
158.88
 31
-7.27
 12
331.87
 22
161.02
 32
-7.27
 13
356.48
 23
84.38
 33
-7.27
  0
3DFACE
  8
TIMBER3D
 10
349.82
 20
82.24
 30
-4.36
 11
356.48
 21
84.38
 31
-4.36
 12
356.48
 22
84.38
 32
-7.27
 13
349.82
 23
82.24
 33
-7.27
  0
3DFACE
  8
TIMBER3D
 10
325.21
 20
158.88
 30
-4.36
 11
331.87
 21
161.02
 31
-4.36
 12
331.87
 22
161.02
 32
-7.27
 13
325.21
 23
158.88
 33
-7.27
  0
3DFACE
  8
TIMBER3D
 10
349.82
 20
82.24
 30
-4.36
 11
325.21
 21
158.88
 31
-4.36
 12
325.21
 22
158.88
 32
-7.27
 13
349.82
 23
82.24
 33
-7.27
  0
3DFACE
  8
TIMBER3D
 10
356.48
 20
84.38
 30
-4.36
 11
331.87
 21
161.02
 31
-4.36
 12
331.87
 22
161.02
 32
-7.27
 13
356.48
 23
84.38
 33
-7.27
  0
INSERT
  2
BOLTBOSS
  8
CHBOLTBO
 10
347.12
 20
98.22
 30
0.00
 41
3.5000
 42
3.5000
 43
3.5000
 50
0.000
  0
INSERT
  2
BOLTHEAD
  8
CHBOLTHD
 10
347.12
 20
98.22
 30
0.00
 41
3.5000
 42
3.5000
 43
3.5000
 50
28.000
  0
INSERT
  2
BOLTBOSS
  8
CHBOLTBO
 10
349.37
 20
98.94
 30
0.00
 41
3.5000
 42
3.5000
 43
3.5000
 50
0.000
  0
INSERT
  2
BOLTHEAD
  8
CHBOLTHD
 10
349.37
 20
98.94
 30
0.00
 41
3.5000
 42
3.5000
 43
3.5000
 50
52.000
  0
INSERT
  2
BOLTBOSS
  8
CHBOLTBO
 10
350.21
 20
92.47
 30
0.00
 41
3.5000
 42
3.5000
 43
3.5000
 50
0.000
  0
INSERT
  2
BOLTHEAD
  8
CHBOLTHD
 10
350.21
 20
92.47
 30
0.00
 41
3.5000
 42
3.5000
 43
3.5000
 50
12.000
  0
INSERT
  2
S1L
  8
CHMARKER
 10
348.87
 20
96.64
 30
0.00
 41
3.5000
 42
3.5000
 43
3.5000
 50
17.720
  0
INSERT
  2
BOLTBOSS
  8
CHBOLTBO
 10
338.77
 20
124.34
 30
0.00
 41
3.5000
 42
3.5000
 43
3.5000
 50
0.000
  0
INSERT
  2
BOLTHEAD
  8
CHBOLTHD
 10
338.77
 20
124.34
 30
0.00
 41
3.5000
 42
3.5000
 43
3.5000
 50
34.000
  0
INSERT
  2
BOLTBOSS
  8
CHBOLTBO
 10
340.97
 20
125.04
 30
0.00
 41
3.5000
 42
3.5000
 43
3.5000
 50
0.000
  0
INSERT
  2
BOLTHEAD
  8
CHBOLTHD
 10
340.97
 20
125.04
 30
0.00
 41
3.5000
 42
3.5000
 43
3.5000
 50
25.000
  0
INSERT
  2
BOLTBOSS
  8
CHBOLTBO
 10
337.91
 20
130.80
 30
0.00
 41
3.5000
 42
3.5000
 43
3.5000
 50
0.000
  0
INSERT
  2
BOLTHEAD
  8
CHBOLTHD
 10
337.91
 20
130.80
 30
0.00
 41
3.5000
 42
3.5000
 43
3.5000
 50
16.000
  0
INSERT
  2
S1R
  8
CHMARKER
 10
339.24
 20
126.63
 30
0.00
 41
3.5000
 42
3.5000
 43
3.5000
 50
17.909
  0
INSERT
  2
BOLTBOSS
  8
CHBOLTBO
 10
340.16
 20
118.55
 30
0.00
 41
3.5000
 42
3.5000
 43
3.5000
 50
0.000
  0
INSERT
  2
BOLTHEAD
  8
CHBOLTHD
 10
340.16
 20
118.55
 30
0.00
 41
3.5000
 42
3.5000
 43
3.5000
 50
39.000
  0
INSERT
  2
BOLTBOSS
  8
CHBOLTBO
 10
342.25
 20
119.57
 30
0.00
 41
3.5000
 42
3.5000
 43
3.5000
 50
0.000
  0
INSERT
  2
BOLTHEAD
  8
CHBOLTHD
 10
342.25
 20
119.57
 30
0.00
 41
3.5000
 42
3.5000
 43
3.5000
 50
83.000
  0
INSERT
  2
BOLTBOSS
  8
CHBOLTBO
 10
344.00
 20
113.28
 30
0.00
 41
3.5000
 42
3.5000
 43
3.5000
 50
0.000
  0
INSERT
  2
BOLTHEAD
  8
CHBOLTHD
 10
344.00
 20
113.28
 30
0.00
 41
3.5000
 42
3.5000
 43
3.5000
 50
68.000
  0
INSERT
  2
S1L
  8
CHMARKER
 10
342.10
 20
117.22
 30
0.00
 41
3.5000
 42
3.5000
 43
3.5000
 50
25.902
  0
INSERT
  2
BOLTBOSS
  8
CHBOLTBO
 10
332.53
 20
145.33
 30
0.00
 41
3.5000
 42
3.5000
 43
3.5000
 50
0.000
  0
INSERT
  2
BOLTHEAD
  8
CHBOLTHD
 10
332.53
 20
145.33
 30
0.00
 41
3.5000
 42
3.5000
 43
3.5000
 50
37.000
  0
INSERT
  2
BOLTBOSS
  8
CHBOLTBO
 10
334.56
 20
146.33
 30
0.00
 41
3.5000
 42
3.5000
 43
3.5000
 50
0.000
  0
INSERT
  2
BOLTHEAD
  8
CHBOLTHD
 10
334.56
 20
146.33
 30
0.00
 41
3.5000
 42
3.5000
 43
3.5000
 50
26.000
  0
INSERT
  2
BOLTBOSS
  8
CHBOLTBO
 10
330.76
 20
151.60
 30
0.00
 41
3.5000
 42
3.5000
 43
3.5000
 50
0.000
  0
INSERT
  2
BOLTHEAD
  8
CHBOLTHD
 10
330.76
 20
151.60
 30
0.00
 41
3.5000
 42
3.5000
 43
3.5000
 50
30.000
  0
INSERT
  2
S1R
  8
CHMARKER
 10
332.66
 20
147.66
 30
0.00
 41
3.5000
 42
3.5000
 43
3.5000
 50
26.338
  0
3DFACE
  8
TIMBER3D
 10
494.82
 20
139.35
 30
-4.36
 11
469.20
 21
193.05
 31
-4.36
 12
474.46
 22
195.56
 32
-4.36
 13
500.09
 23
141.86
 33
-4.36
  0
3DFACE
  8
TIMBER3D
 10
494.82
 20
139.35
 30
-7.27
 11
469.20
 21
193.05
 31
-7.27
 12
474.46
 22
195.56
 32
-7.27
 13
500.09
 23
141.86
 33
-7.27
  0
3DFACE
  8
TIMBER3D
 10
494.82
 20
139.35
 30
-4.36
 11
500.09
 21
141.86
 31
-4.36
 12
500.09
 22
141.86
 32
-7.27
 13
494.82
 23
139.35
 33
-7.27
  0
3DFACE
  8
TIMBER3D
 10
469.20
 20
193.05
 30
-4.36
 11
474.46
 21
195.56
 31
-4.36
 12
474.46
 22
195.56
 32
-7.27
 13
469.20
 23
193.05
 33
-7.27
  0
3DFACE
  8
TIMBER3D
 10
494.82
 20
139.35
 30
-4.36
 11
469.20
 21
193.05
 31
-4.36
 12
469.20
 22
193.05
 32
-7.27
 13
494.82
 23
139.35
 33
-7.27
  0
3DFACE
  8
TIMBER3D
 10
500.09
 20
141.86
 30
-4.36
 11
474.46
 21
195.56
 31
-4.36
 12
474.46
 22
195.56
 32
-7.27
 13
500.09
 23
141.86
 33
-7.27
  0
INSERT
  2
BOLTBOSS
  8
CHBOLTBO
 10
489.48
 20
154.57
 30
0.00
 41
3.5000
 42
3.5000
 43
3.5000
 50
0.000
  0
INSERT
  2
BOLTHEAD
  8
CHBOLTHD
 10
489.48
 20
154.57
 30
0.00
 41
3.5000
 42
3.5000
 43
3.5000
 50
72.000
  0
INSERT
  2
BOLTBOSS
  8
CHBOLTBO
 10
491.61
 20
155.59
 30
0.00
 41
3.5000
 42
3.5000
 43
3.5000
 50
0.000
  0
INSERT
  2
BOLTHEAD
  8
CHBOLTHD
 10
491.61
 20
155.59
 30
0.00
 41
3.5000
 42
3.5000
 43
3.5000
 50
89.000
  0
INSERT
  2
BOLTBOSS
  8
CHBOLTBO
 10
493.31
 20
149.29
 30
0.00
 41
3.5000
 42
3.5000
 43
3.5000
 50
0.000
  0
INSERT
  2
BOLTHEAD
  8
CHBOLTHD
 10
493.31
 20
149.29
 30
0.00
 41
3.5000
 42
3.5000
 43
3.5000
 50
64.000
  0
INSERT
  2
S1L
  8
CHMARKER
 10
491.43
 20
153.24
 30
0.00
 41
3.5000
 42
3.5000
 43
3.5000
 50
25.484
  0
INSERT
  2
BOLTBOSS
  8
CHBOLTBO
 10
477.70
 20
179.33
 30
0.00
 41
3.5000
 42
3.5000
 43
3.5000
 50
0.000
  0
INSERT
  2
BOLTHEAD
  8
CHBOLTHD
 10
477.70
 20
179.33
 30
0.00
 41
3.5000
 42
3.5000
 43
3.5000
 50
60.000
  0
INSERT
  2
BOLTBOSS
  8
CHBOLTBO
 10
479.78
 20
180.32
 30
0.00
 41
3.5000
 42
3.5000
 43
3.5000
 50
0.000
  0
INSERT
  2
BOLTHEAD
  8
CHBOLTHD
 10
479.78
 20
180.32
 30
0.00
 41
3.5000
 42
3.5000
 43
3.5000
 50
44.000
  0
INSERT
  2
BOLTBOSS
  8
CHBOLTBO
 10
475.98
 20
185.62
 30
0.00
 41
3.5000
 42
3.5000
 43
3.5000
 50
0.000
  0
INSERT
  2
BOLTHEAD
  8
CHBOLTHD
 10
475.98
 20
185.62
 30
0.00
 41
3.5000
 42
3.5000
 43
3.5000
 50
7.000
  0
INSERT
  2
S1R
  8
CHMARKER
 10
477.86
 20
181.67
 30
0.00
 41
3.5000
 42
3.5000
 43
3.5000
 50
25.527
  0
3DFACE
  8
TIMBER3D
 10
509.11
 20
146.24
 30
-4.36
 11
482.75
 21
199.58
 31
-4.36
 12
487.98
 22
202.17
 32
-4.36
 13
514.34
 23
148.82
 33
-4.36
  0
3DFACE
  8
TIMBER3D
 10
509.11
 20
146.24
 30
-7.27
 11
482.75
 21
199.58
 31
-7.27
 12
487.98
 22
202.17
 32
-7.27
 13
514.34
 23
148.82
 33
-7.27
  0
3DFACE
  8
TIMBER3D
 10
509.11
 20
146.24
 30
-4.36
 11
514.34
 21
148.82
 31
-4.36
 12
514.34
 22
148.82
 32
-7.27
 13
509.11
 23
146.24
 33
-7.27
  0
3DFACE
  8
TIMBER3D
 10
482.75
 20
199.58
 30
-4.36
 11
487.98
 21
202.17
 31
-4.36
 12
487.98
 22
202.17
 32
-7.27
 13
482.75
 23
199.58
 33
-7.27
  0
3DFACE
  8
TIMBER3D
 10
509.11
 20
146.24
 30
-4.36
 11
482.75
 21
199.58
 31
-4.36
 12
482.75
 22
199.58
 32
-7.27
 13
509.11
 23
146.24
 33
-7.27
  0
3DFACE
  8
TIMBER3D
 10
514.34
 20
148.82
 30
-4.36
 11
487.98
 21
202.17
 31
-4.36
 12
487.98
 22
202.17
 32
-7.27
 13
514.34
 23
148.82
 33
-7.27
  0
INSERT
  2
BOLTBOSS
  8
CHBOLTBO
 10
503.57
 20
161.39
 30
0.00
 41
3.5000
 42
3.5000
 43
3.5000
 50
0.000
  0
INSERT
  2
BOLTHEAD
  8
CHBOLTHD
 10
503.57
 20
161.39
 30
0.00
 41
3.5000
 42
3.5000
 43
3.5000
 50
56.000
  0
INSERT
  2
BOLTBOSS
  8
CHBOLTBO
 10
505.68
 20
162.44
 30
0.00
 41
3.5000
 42
3.5000
 43
3.5000
 50
0.000
  0
INSERT
  2
BOLTHEAD
  8
CHBOLTHD
 10
505.68
 20
162.44
 30
0.00
 41
3.5000
 42
3.5000
 43
3.5000
 50
53.000
  0
INSERT
  2
BOLTBOSS
  8
CHBOLTBO
 10
507.47
 20
156.16
 30
0.00
 41
3.5000
 42
3.5000
 43
3.5000
 50
0.000
  0
INSERT
  2
BOLTHEAD
  8
CHBOLTHD
 10
507.47
 20
156.16
 30
0.00
 41
3.5000
 42
3.5000
 43
3.5000
 50
79.000
  0
INSERT
  2
S1L
  8
CHMARKER
 10
505.52
 20
160.09
 30
0.00
 41
3.5000
 42
3.5000
 43
3.5000
 50
26.276
  0
INSERT
  2
BOLTBOSS
  8
CHBOLTBO
 10
491.44
 20
185.99
 30
0.00
 41
3.5000
 42
3.5000
 43
3.5000
 50
0.000
  0
INSERT
  2
BOLTHEAD
  8
CHBOLTHD
 10
491.44
 20
185.99
 30
0.00
 41
3.5000
 42
3.5000
 43
3.5000
 50
46.000
  0
INSERT
  2
BOLTBOSS
  8
CHBOLTBO
 10
493.51
 20
187.01
 30
0.00
 41
3.5000
 42
3.5000
 43
3.5000
 50
0.000
  0
INSERT
  2
BOLTHEAD
  8
CHBOLTHD
 10
493.51
 20
187.01
 30
0.00
 41
3.5000
 42
3.5000
 43
3.5000
 50
64.000
  0
INSERT
  2
BOLTBOSS
  8
CHBOLTBO
 10
489.64
 20
192.25
 30
0.00
 41
3.5000
 42
3.5000
 43
3.5000
 50
0.000
  0
INSERT
  2
BOLTHEAD
  8
CHBOLTHD
 10
489.64
 20
192.25
 30
0.00
 41
3.5000
 42
3.5000
 43
3.5000
 50
18.000
  0
INSERT
  2
S1R
  8
CHMARKER
 10
491.57
 20
188.33
 30
0.00
 41
3.5000
 42
3.5000
 43
3.5000
 50
26.269
  0
ENDSEC
  0
EOF
