  0
SECTION
  2
HEADER
  0
ENDSEC
  0
SECTION
  2
TABLES
  0
TABLE
  2
LTYPE
 70
10
  0
LTYPE
  2
CONTINUOUS
 70
64
  3
solid line
 72
65
 73
0
 40
0.0
  0
LTYPE
  2
DASHED
 70
0
  3
__ __ __ __ __ __ __ __ __ __ __ __ __ __ __
 72
65
 73
2
 40
0.75
 49
0.5
 49
-0.25
  0
LTYPE
  2
HIDDEN
 70
0
  3
_ _ _ _ _ _ _ _ _ _ _ _ _ _ _ _ _ _ _ _ _ _
 72
65
 73
2
 40
0.375
 49
0.25
 49
-0.125
  0
LTYPE
  2
CENTER
 70
0
  3
____ _ ____ _ ____ _ ____ _ ____ _ ____ _ __
 72
65
 73
4
 40
2.0
 49
1.25
 49
-0.25
 49
0.25
 49
-0.25
  0
LTYPE
  2
PHANTOM
 70
0
  3
_____ _ _ _____ _ _ _____ _ _ _____ _ _ ____
 72
65
 73
6
 40
2.5
 49
1.25
 49
-0.25
 49
0.25
 49
-0.25
 49
0.25
 49
-0.25
  0
LTYPE
  2
DOT
 70
0
  3
............................................
 72
65
 73
2
 40
0.25
 49
0.0
 49
-0.25
  0
LTYPE
  2
DASHDOT
 70
0
  3
__ . __ . __ . __ . __ . __ . __ . __ . __ .
 72
65
 73
4
 40
1.0
 49
0.5
 49
-0.25
 49
0.0
 49
-0.25
  0
LTYPE
  2
BORDER
 70
0
  3
__ __ . __ __ . __ __ . __ __ . __ __ . __ _
 72
65
 73
6
 40
1.75
 49
0.5
 49
-0.25
 49
0.5
 49
-0.25
 49
0.0
 49
-0.25
  0
LTYPE
  2
DIVIDE
 70
0
  3
__ . . __ . . __ . . __ . . __ . . __ . . __
 72
65
 73
6
 40
1.25
 49
0.5
 49
-0.25
 49
0.0
 49
-0.25
 49
0.0
 49
-0.25
  0
LTYPE
  2
DIVIDE2
 70
0
  3
__..__..__..__..__..__..__..__..__..__..__..__.
 72
65
 73
8
 40
0.9
 49
0.25
 49
-0.1
 49
0.25
 49
-0.1
 49
0.0
 49
-0.1
 49
0.0
 49
-0.1
  0
ENDTAB
  0
TABLE
  2
LAYER
 70
23
  0
LAYER
  2
ADJTRACK
 70
0
  6
CONTINUOUS
 62
8
  0
LAYER
  2
CENTLINE
 70
0
  6
CENTER
 62
6
  0
LAYER
  2
TIMBOUTL
 70
0
  6
CONTINUOUS
 62
5
  0
LAYER
  2
SLEEPEND
 70
0
  6
CONTINUOUS
 62
1
  0
LAYER
  2
TIMBCENT
 70
0
  6
CENTER
 62
4
  0
LAYER
  2
GDMARKS
 70
0
  6
CONTINUOUS
 62
1
  0
LAYER
  2
RADMARKS
 70
0
  6
CONTINUOUS
 62
3
  0
LAYER
  2
JOINTS
 70
0
  6
CONTINUOUS
 62
7
  0
LAYER
  2
SBGSHAPE
 70
0
  6
CONTINUOUS
 62
1
  0
LAYER
  2
DBGSHAPE
 70
0
  6
HIDDEN
 62
1
  0
LAYER
  2
INFOTEXT
 70
0
  6
CONTINUOUS
 62
5
  0
LAYER
  2
TIMBNUMB
 70
0
  6
CONTINUOUS
 62
3
  0
LAYER
  2
RLSIDE3D
 70
0
  6
CONTINUOUS
 62
141
  0
LAYER
  2
CHBOLTHD
 70
0
  6
CONTINUOUS
 62
9
  0
LAYER
  2
CHAIRS
 70
0
  6
CONTINUOUS
 62
30
  0
LAYER
  2
TIMBER3D
 70
0
  6
CONTINUOUS
 62
8
  0
LAYER
  2
CHMARKER
 70
0
  6
CONTINUOUS
 62
30
  0
LAYER
  2
CHBOLTBO
 70
0
  6
CONTINUOUS
 62
30
  0
LAYER
  2
CHINJAW
 70
0
  6
CONTINUOUS
 62
30
  0
LAYER
  2
CHOUTJAW
 70
0
  6
CONTINUOUS
 62
30
  0
LAYER
  2
CHKEYS
 70
0
  6
CONTINUOUS
 62
64
  0
ENDTAB
  0
ENDSEC
  0
SECTION
  2
BLOCKS
  0
BLOCK
  2
S1L
  0
3DFACE
  8
CHMARKER
 10
-3.9375
 20
0.0000
 30
1.7500
 11
3.9375
 21
0.0000
 31
1.7500
 12
3.9375
 22
-2.7500
 32
1.7500
 13
-3.9375
 23
-2.7500
 33
1.7500
  0
3DFACE
  8
CHMARKER
 10
-2.0000
 20
-2.7500
 30
1.7500
 11
2.0000
 21
-2.7500
 31
1.7500
 12
2.0000
 22
-3.9375
 32
1.7500
 13
-2.0000
 23
-3.9375
 33
1.7500
  0
3DFACE
  8
CHMARKER
 10
-2.0000
 20
-3.9375
 30
1.7500
 11
-3.0000
 21
-3.9375
 31
0.8750
 12
3.0000
 22
-3.9375
 32
0.8750
 13
2.0000
 23
-3.9375
 33
1.7500
  0
3DFACE
  8
CHMARKER
 10
-3.9375
 20
0.0000
 30
1.7500
 11
-3.9375
 21
0.0000
 31
0.3750
 12
-3.9375
 22
-2.7500
 32
0.3750
 13
-3.9375
 23
-2.7500
 33
1.7500
  0
3DFACE
  8
CHMARKER
 10
3.9375
 20
0.0000
 30
1.7500
 11
3.9375
 21
0.0000
 31
0.3750
 12
3.9375
 22
-2.7500
 32
0.3750
 13
3.9375
 23
-2.7500
 33
1.7500
  0
3DFACE
  8
CHMARKER
 10
-2.0000
 20
1.2500
 30
0.8750
 11
-2.0000
 21
0.0000
 31
1.7500
 12
-2.0000
 22
0.0000
 32
0.8750
 13
-2.0000
 23
1.2500
 33
0.8750
  0
3DFACE
  8
CHMARKER
 10
-2.0000
 20
0.0000
 30
1.7500
 11
2.0000
 21
0.0000
 31
1.7500
 12
2.0000
 22
0.0000
 32
0.8750
 13
-2.0000
 23
0.0000
 33
0.8750
  0
3DFACE
  8
CHMARKER
 10
2.0000
 20
1.2500
 30
0.8750
 11
2.0000
 21
0.0000
 31
1.7500
 12
2.0000
 22
0.0000
 32
0.8750
 13
2.0000
 23
1.2500
 33
0.8750
  0
3DFACE
  8
CHMARKER
 10
-3.9375
 20
0.0000
 30
0.3750
 11
-3.9375
 21
0.0000
 31
1.7500
 12
-3.0000
 22
1.2500
 32
0.8750
 13
-3.9375
 23
0.0000
 33
0.3750
  0
3DFACE
  8
CHMARKER
 10
-3.9375
 20
0.0000
 30
1.7500
 11
-2.0000
 21
0.0000
 31
1.7500
 12
-2.0000
 22
1.2500
 32
0.8750
 13
-3.0000
 23
1.2500
 33
0.8750
  0
3DFACE
  8
CHMARKER
 10
3.9375
 20
0.0000
 30
0.3750
 11
3.9375
 21
0.0000
 31
1.7500
 12
3.0000
 22
1.2500
 32
0.8750
 13
3.9375
 23
0.0000
 33
0.3750
  0
3DFACE
  8
CHMARKER
 10
3.9375
 20
0.0000
 30
1.7500
 11
2.0000
 21
0.0000
 31
1.7500
 12
2.0000
 22
1.2500
 32
0.8750
 13
3.0000
 23
1.2500
 33
0.8750
  0
3DFACE
  8
CHMARKER
 10
3.9375
 20
-2.7500
 30
0.3750
 11
3.9375
 21
-2.7500
 31
1.7500
 12
3.0000
 22
-3.9375
 32
0.8750
 13
3.9375
 23
-2.7500
 33
0.3750
  0
3DFACE
  8
CHMARKER
 10
3.9375
 20
-2.7500
 30
1.7500
 11
2.0000
 21
-2.7500
 31
1.7500
 12
2.0000
 22
-3.9375
 32
1.7500
 13
3.0000
 23
-3.9375
 33
0.8750
  0
3DFACE
  8
CHMARKER
 10
-3.9375
 20
-2.7500
 30
0.3750
 11
-3.9375
 21
-2.7500
 31
1.7500
 12
-3.0000
 22
-3.9375
 32
0.8750
 13
-3.9375
 23
-2.7500
 33
0.3750
  0
3DFACE
  8
CHMARKER
 10
-3.9375
 20
-2.7500
 30
1.7500
 11
-2.0000
 21
-2.7500
 31
1.7500
 12
-2.0000
 22
-3.9375
 32
1.7500
 13
-3.0000
 23
-3.9375
 33
0.8750
  0
ENDBLK
  0
BLOCK
  2
S1R
  0
3DFACE
  8
CHMARKER
 10
-3.9375
 20
0.0000
 30
1.7500
 11
3.9375
 21
0.0000
 31
1.7500
 12
3.9375
 22
2.7500
 32
1.7500
 13
-3.9375
 23
2.7500
 33
1.7500
  0
3DFACE
  8
CHMARKER
 10
-2.0000
 20
2.7500
 30
1.7500
 11
2.0000
 21
2.7500
 31
1.7500
 12
2.0000
 22
3.9375
 32
1.7500
 13
-2.0000
 23
3.9375
 33
1.7500
  0
3DFACE
  8
CHMARKER
 10
-2.0000
 20
3.9375
 30
1.7500
 11
-3.0000
 21
3.9375
 31
0.8750
 12
3.0000
 22
3.9375
 32
0.8750
 13
2.0000
 23
3.9375
 33
1.7500
  0
3DFACE
  8
CHMARKER
 10
-3.9375
 20
0.0000
 30
1.7500
 11
-3.9375
 21
0.0000
 31
0.3750
 12
-3.9375
 22
2.7500
 32
0.3750
 13
-3.9375
 23
2.7500
 33
1.7500
  0
3DFACE
  8
CHMARKER
 10
3.9375
 20
0.0000
 30
1.7500
 11
3.9375
 21
0.0000
 31
0.3750
 12
3.9375
 22
2.7500
 32
0.3750
 13
3.9375
 23
2.7500
 33
1.7500
  0
3DFACE
  8
CHMARKER
 10
-2.0000
 20
-1.2500
 30
0.8750
 11
-2.0000
 21
0.0000
 31
1.7500
 12
-2.0000
 22
0.0000
 32
0.8750
 13
-2.0000
 23
-1.2500
 33
0.8750
  0
3DFACE
  8
CHMARKER
 10
-2.0000
 20
0.0000
 30
1.7500
 11
2.0000
 21
0.0000
 31
1.7500
 12
2.0000
 22
0.0000
 32
0.8750
 13
-2.0000
 23
0.0000
 33
0.8750
  0
3DFACE
  8
CHMARKER
 10
2.0000
 20
-1.2500
 30
0.8750
 11
2.0000
 21
0.0000
 31
1.7500
 12
2.0000
 22
0.0000
 32
0.8750
 13
2.0000
 23
-1.2500
 33
0.8750
  0
3DFACE
  8
CHMARKER
 10
-3.9375
 20
0.0000
 30
0.3750
 11
-3.9375
 21
0.0000
 31
1.7500
 12
-3.0000
 22
-1.2500
 32
0.8750
 13
-3.9375
 23
0.0000
 33
0.3750
  0
3DFACE
  8
CHMARKER
 10
-3.9375
 20
0.0000
 30
1.7500
 11
-2.0000
 21
0.0000
 31
1.7500
 12
-2.0000
 22
-1.2500
 32
0.8750
 13
-3.0000
 23
-1.2500
 33
0.8750
  0
3DFACE
  8
CHMARKER
 10
3.9375
 20
0.0000
 30
0.3750
 11
3.9375
 21
0.0000
 31
1.7500
 12
3.0000
 22
-1.2500
 32
0.8750
 13
3.9375
 23
0.0000
 33
0.3750
  0
3DFACE
  8
CHMARKER
 10
3.9375
 20
0.0000
 30
1.7500
 11
2.0000
 21
0.0000
 31
1.7500
 12
2.0000
 22
-1.2500
 32
0.8750
 13
3.0000
 23
-1.2500
 33
0.8750
  0
3DFACE
  8
CHMARKER
 10
3.9375
 20
2.7500
 30
0.3750
 11
3.9375
 21
2.7500
 31
1.7500
 12
3.0000
 22
3.9375
 32
0.8750
 13
3.9375
 23
2.7500
 33
0.3750
  0
3DFACE
  8
CHMARKER
 10
3.9375
 20
2.7500
 30
1.7500
 11
2.0000
 21
2.7500
 31
1.7500
 12
2.0000
 22
3.9375
 32
1.7500
 13
3.0000
 23
3.9375
 33
0.8750
  0
3DFACE
  8
CHMARKER
 10
-3.9375
 20
2.7500
 30
0.3750
 11
-3.9375
 21
2.7500
 31
1.7500
 12
-3.0000
 22
3.9375
 32
0.8750
 13
-3.9375
 23
2.7500
 33
0.3750
  0
3DFACE
  8
CHMARKER
 10
-3.9375
 20
2.7500
 30
1.7500
 11
-2.0000
 21
2.7500
 31
1.7500
 12
-2.0000
 22
3.9375
 32
1.7500
 13
-3.0000
 23
3.9375
 33
0.8750
  0
ENDBLK
  0
BLOCK
  2
L1L
  0
3DFACE
  8
CHMARKER
 10
-3.9375
 20
0.0000
 30
1.7500
 11
3.9375
 21
0.0000
 31
1.7500
 12
3.9375
 22
-2.7500
 32
1.7500
 13
-3.9375
 23
-2.7500
 33
1.7500
  0
3DFACE
  8
CHMARKER
 10
-2.0000
 20
-2.7500
 30
1.7500
 11
2.0000
 21
-2.7500
 31
1.7500
 12
2.0000
 22
-3.9375
 32
1.7500
 13
-2.0000
 23
-3.9375
 33
1.7500
  0
3DFACE
  8
CHMARKER
 10
-2.0000
 20
-3.9375
 30
1.7500
 11
-3.7500
 21
-3.9375
 31
0.8750
 12
3.7500
 22
-3.9375
 32
0.8750
 13
2.0000
 23
-3.9375
 33
1.7500
  0
3DFACE
  8
CHMARKER
 10
-3.9375
 20
0.0000
 30
1.7500
 11
-5.4375
 21
0.0000
 31
0.3750
 12
-5.4375
 22
-2.7500
 32
0.3750
 13
-3.9375
 23
-2.7500
 33
1.7500
  0
3DFACE
  8
CHMARKER
 10
3.9375
 20
0.0000
 30
1.7500
 11
5.4375
 21
0.0000
 31
0.3750
 12
5.4375
 22
-2.7500
 32
0.3750
 13
3.9375
 23
-2.7500
 33
1.7500
  0
3DFACE
  8
CHMARKER
 10
-2.0000
 20
1.2500
 30
0.8750
 11
-2.0000
 21
0.0000
 31
1.7500
 12
-2.0000
 22
0.0000
 32
0.8750
 13
-2.0000
 23
1.2500
 33
0.8750
  0
3DFACE
  8
CHMARKER
 10
-2.0000
 20
0.0000
 30
1.7500
 11
2.0000
 21
0.0000
 31
1.7500
 12
2.0000
 22
0.0000
 32
0.8750
 13
-2.0000
 23
0.0000
 33
0.8750
  0
3DFACE
  8
CHMARKER
 10
2.0000
 20
1.2500
 30
0.8750
 11
2.0000
 21
0.0000
 31
1.7500
 12
2.0000
 22
0.0000
 32
0.8750
 13
2.0000
 23
1.2500
 33
0.8750
  0
3DFACE
  8
CHMARKER
 10
-5.4375
 20
0.0000
 30
0.3750
 11
-3.9375
 21
0.0000
 31
1.7500
 12
-3.7500
 22
1.2500
 32
0.8750
 13
-5.4375
 23
0.0000
 33
0.3750
  0
3DFACE
  8
CHMARKER
 10
-3.9375
 20
0.0000
 30
1.7500
 11
-2.0000
 21
0.0000
 31
1.7500
 12
-2.0000
 22
1.2500
 32
0.8750
 13
-3.7500
 23
1.2500
 33
0.8750
  0
3DFACE
  8
CHMARKER
 10
5.4375
 20
0.0000
 30
0.3750
 11
3.9375
 21
0.0000
 31
1.7500
 12
3.7500
 22
1.2500
 32
0.8750
 13
5.4375
 23
0.0000
 33
0.3750
  0
3DFACE
  8
CHMARKER
 10
3.9375
 20
0.0000
 30
1.7500
 11
2.0000
 21
0.0000
 31
1.7500
 12
2.0000
 22
1.2500
 32
0.8750
 13
3.7500
 23
1.2500
 33
0.8750
  0
3DFACE
  8
CHMARKER
 10
5.4375
 20
-2.7500
 30
0.3750
 11
3.9375
 21
-2.7500
 31
1.7500
 12
3.7500
 22
-3.9375
 32
0.8750
 13
5.4375
 23
-2.7500
 33
0.3750
  0
3DFACE
  8
CHMARKER
 10
3.9375
 20
-2.7500
 30
1.7500
 11
2.0000
 21
-2.7500
 31
1.7500
 12
2.0000
 22
-3.9375
 32
1.7500
 13
3.7500
 23
-3.9375
 33
0.8750
  0
3DFACE
  8
CHMARKER
 10
-5.4375
 20
-2.7500
 30
0.3750
 11
-3.9375
 21
-2.7500
 31
1.7500
 12
-3.7500
 22
-3.9375
 32
0.8750
 13
-5.4375
 23
-2.7500
 33
0.3750
  0
3DFACE
  8
CHMARKER
 10
-3.9375
 20
-2.7500
 30
1.7500
 11
-2.0000
 21
-2.7500
 31
1.7500
 12
-2.0000
 22
-3.9375
 32
1.7500
 13
-3.7500
 23
-3.9375
 33
0.8750
  0
ENDBLK
  0
BLOCK
  2
L1R
  0
3DFACE
  8
CHMARKER
 10
-3.9375
 20
0.0000
 30
1.7500
 11
3.9375
 21
0.0000
 31
1.7500
 12
3.9375
 22
2.7500
 32
1.7500
 13
-3.9375
 23
2.7500
 33
1.7500
  0
3DFACE
  8
CHMARKER
 10
-2.0000
 20
2.7500
 30
1.7500
 11
2.0000
 21
2.7500
 31
1.7500
 12
2.0000
 22
3.9375
 32
1.7500
 13
-2.0000
 23
3.9375
 33
1.7500
  0
3DFACE
  8
CHMARKER
 10
-2.0000
 20
3.9375
 30
1.7500
 11
-3.7500
 21
3.9375
 31
0.8750
 12
3.7500
 22
3.9375
 32
0.8750
 13
2.0000
 23
3.9375
 33
1.7500
  0
3DFACE
  8
CHMARKER
 10
-3.9375
 20
0.0000
 30
1.7500
 11
-5.4375
 21
0.0000
 31
0.3750
 12
-5.4375
 22
2.7500
 32
0.3750
 13
-3.9375
 23
2.7500
 33
1.7500
  0
3DFACE
  8
CHMARKER
 10
3.9375
 20
0.0000
 30
1.7500
 11
5.4375
 21
0.0000
 31
0.3750
 12
5.4375
 22
2.7500
 32
0.3750
 13
3.9375
 23
2.7500
 33
1.7500
  0
3DFACE
  8
CHMARKER
 10
-2.0000
 20
-1.2500
 30
0.8750
 11
-2.0000
 21
0.0000
 31
1.7500
 12
-2.0000
 22
0.0000
 32
0.8750
 13
-2.0000
 23
-1.2500
 33
0.8750
  0
3DFACE
  8
CHMARKER
 10
-2.0000
 20
0.0000
 30
1.7500
 11
2.0000
 21
0.0000
 31
1.7500
 12
2.0000
 22
0.0000
 32
0.8750
 13
-2.0000
 23
0.0000
 33
0.8750
  0
3DFACE
  8
CHMARKER
 10
2.0000
 20
-1.2500
 30
0.8750
 11
2.0000
 21
0.0000
 31
1.7500
 12
2.0000
 22
0.0000
 32
0.8750
 13
2.0000
 23
-1.2500
 33
0.8750
  0
3DFACE
  8
CHMARKER
 10
-5.4375
 20
0.0000
 30
0.3750
 11
-3.9375
 21
0.0000
 31
1.7500
 12
-3.7500
 22
-1.2500
 32
0.8750
 13
-5.4375
 23
0.0000
 33
0.3750
  0
3DFACE
  8
CHMARKER
 10
-3.9375
 20
0.0000
 30
1.7500
 11
-2.0000
 21
0.0000
 31
1.7500
 12
-2.0000
 22
-1.2500
 32
0.8750
 13
-3.7500
 23
-1.2500
 33
0.8750
  0
3DFACE
  8
CHMARKER
 10
5.4375
 20
0.0000
 30
0.3750
 11
3.9375
 21
0.0000
 31
1.7500
 12
3.7500
 22
-1.2500
 32
0.8750
 13
5.4375
 23
0.0000
 33
0.3750
  0
3DFACE
  8
CHMARKER
 10
3.9375
 20
0.0000
 30
1.7500
 11
2.0000
 21
0.0000
 31
1.7500
 12
2.0000
 22
-1.2500
 32
0.8750
 13
3.7500
 23
-1.2500
 33
0.8750
  0
3DFACE
  8
CHMARKER
 10
5.4375
 20
2.7500
 30
0.3750
 11
3.9375
 21
2.7500
 31
1.7500
 12
3.7500
 22
3.9375
 32
0.8750
 13
5.4375
 23
2.7500
 33
0.3750
  0
3DFACE
  8
CHMARKER
 10
3.9375
 20
2.7500
 30
1.7500
 11
2.0000
 21
2.7500
 31
1.7500
 12
2.0000
 22
3.9375
 32
1.7500
 13
3.7500
 23
3.9375
 33
0.8750
  0
3DFACE
  8
CHMARKER
 10
-5.4375
 20
2.7500
 30
0.3750
 11
-3.9375
 21
2.7500
 31
1.7500
 12
-3.7500
 22
3.9375
 32
0.8750
 13
-5.4375
 23
2.7500
 33
0.3750
  0
3DFACE
  8
CHMARKER
 10
-3.9375
 20
2.7500
 30
1.7500
 11
-2.0000
 21
2.7500
 31
1.7500
 12
-2.0000
 22
3.9375
 32
1.7500
 13
-3.7500
 23
3.9375
 33
0.8750
  0
ENDBLK
  0
BLOCK
  2
BOLTBOSS
  0
ENDBLK
  0
BLOCK
  2
BOLTHEAD
  0
ENDBLK
  0
ENDSEC
  0
SECTION
  2
ENTITIES
  0
3DFACE
  8
TIMBER3D
 10
0.4528
 20
0.6339
 30
-0.0980
 11
0.4528
 21
1.8937
 31
-0.0980
 12
0.6102
 22
1.8937
 32
-0.0980
 13
0.6102
 23
0.6339
 33
-0.0980
  0
3DFACE
  8
TIMBER3D
 10
0.4528
 20
0.6339
 30
-0.1636
 11
0.4528
 21
1.8937
 31
-0.1636
 12
0.6102
 22
1.8937
 32
-0.1636
 13
0.6102
 23
0.6339
 33
-0.1636
  0
3DFACE
  8
TIMBER3D
 10
0.4528
 20
0.6339
 30
-0.0980
 11
0.6102
 21
0.6339
 31
-0.0980
 12
0.6102
 22
0.6339
 32
-0.1636
 13
0.4528
 23
0.6339
 33
-0.1636
  0
3DFACE
  8
TIMBER3D
 10
0.4528
 20
1.8937
 30
-0.0980
 11
0.6102
 21
1.8937
 31
-0.0980
 12
0.6102
 22
1.8937
 32
-0.1636
 13
0.4528
 23
1.8937
 33
-0.1636
  0
3DFACE
  8
TIMBER3D
 10
0.4528
 20
0.6339
 30
-0.0980
 11
0.4528
 21
1.8937
 31
-0.0980
 12
0.4528
 22
1.8937
 32
-0.1636
 13
0.4528
 23
0.6339
 33
-0.1636
  0
3DFACE
  8
TIMBER3D
 10
0.6102
 20
0.6339
 30
-0.0980
 11
0.6102
 21
1.8937
 31
-0.0980
 12
0.6102
 22
1.8937
 32
-0.1636
 13
0.6102
 23
0.6339
 33
-0.1636
  0
INSERT
  2
BOLTBOSS
  8
CHBOLTBO
 10
0.5053
 20
0.9909
 30
0.0000
 41
0.0131
 42
0.0131
 43
0.0131
 50
0.000
  0
INSERT
  2
BOLTHEAD
  8
CHBOLTHD
 10
0.5053
 20
0.9909
 30
0.0000
 41
0.0131
 42
0.0131
 43
0.0131
 50
48.000
  0
INSERT
  2
BOLTBOSS
  8
CHBOLTBO
 10
0.5577
 20
0.9909
 30
0.0000
 41
0.0131
 42
0.0131
 43
0.0131
 50
0.000
  0
INSERT
  2
BOLTHEAD
  8
CHBOLTHD
 10
0.5577
 20
0.9909
 30
0.0000
 41
0.0131
 42
0.0131
 43
0.0131
 50
71.000
  0
INSERT
  2
BOLTBOSS
  8
CHBOLTBO
 10
0.5315
 20
0.8465
 30
0.0000
 41
0.0131
 42
0.0131
 43
0.0131
 50
0.000
  0
INSERT
  2
BOLTHEAD
  8
CHBOLTHD
 10
0.5315
 20
0.8465
 30
0.0000
 41
0.0131
 42
0.0131
 43
0.0131
 50
34.000
  0
INSERT
  2
S1L
  8
CHMARKER
 10
0.5315
 20
0.9449
 30
-0.0980
 41
0.0131
 42
0.0131
 43
0.0131
 50
0.000
  0
INSERT
  2
BOLTBOSS
  8
CHBOLTBO
 10
0.5053
 20
1.5366
 30
0.0000
 41
0.0131
 42
0.0131
 43
0.0131
 50
0.000
  0
INSERT
  2
BOLTHEAD
  8
CHBOLTHD
 10
0.5053
 20
1.5366
 30
0.0000
 41
0.0131
 42
0.0131
 43
0.0131
 50
61.000
  0
INSERT
  2
BOLTBOSS
  8
CHBOLTBO
 10
0.5577
 20
1.5366
 30
0.0000
 41
0.0131
 42
0.0131
 43
0.0131
 50
0.000
  0
INSERT
  2
BOLTHEAD
  8
CHBOLTHD
 10
0.5577
 20
1.5366
 30
0.0000
 41
0.0131
 42
0.0131
 43
0.0131
 50
48.000
  0
INSERT
  2
BOLTBOSS
  8
CHBOLTBO
 10
0.5315
 20
1.6811
 30
0.0000
 41
0.0131
 42
0.0131
 43
0.0131
 50
0.000
  0
INSERT
  2
BOLTHEAD
  8
CHBOLTHD
 10
0.5315
 20
1.6811
 30
0.0000
 41
0.0131
 42
0.0131
 43
0.0131
 50
79.000
  0
INSERT
  2
S1R
  8
CHMARKER
 10
0.5315
 20
1.5827
 30
-0.0980
 41
0.0131
 42
0.0131
 43
0.0131
 50
0.000
  0
3DFACE
  8
TIMBER3D
 10
0.0854
 20
0.6339
 30
-0.0980
 11
0.0854
 21
1.8937
 31
-0.0980
 12
0.2429
 22
1.8937
 32
-0.0980
 13
0.2429
 23
0.6339
 33
-0.0980
  0
3DFACE
  8
TIMBER3D
 10
0.0854
 20
0.6339
 30
-0.1636
 11
0.0854
 21
1.8937
 31
-0.1636
 12
0.2429
 22
1.8937
 32
-0.1636
 13
0.2429
 23
0.6339
 33
-0.1636
  0
3DFACE
  8
TIMBER3D
 10
0.0854
 20
0.6339
 30
-0.0980
 11
0.2429
 21
0.6339
 31
-0.0980
 12
0.2429
 22
0.6339
 32
-0.1636
 13
0.0854
 23
0.6339
 33
-0.1636
  0
3DFACE
  8
TIMBER3D
 10
0.0854
 20
1.8937
 30
-0.0980
 11
0.2429
 21
1.8937
 31
-0.0980
 12
0.2429
 22
1.8937
 32
-0.1636
 13
0.0854
 23
1.8937
 33
-0.1636
  0
3DFACE
  8
TIMBER3D
 10
0.0854
 20
0.6339
 30
-0.0980
 11
0.0854
 21
1.8937
 31
-0.0980
 12
0.0854
 22
1.8937
 32
-0.1636
 13
0.0854
 23
0.6339
 33
-0.1636
  0
3DFACE
  8
TIMBER3D
 10
0.2429
 20
0.6339
 30
-0.0980
 11
0.2429
 21
1.8937
 31
-0.0980
 12
0.2429
 22
1.8937
 32
-0.1636
 13
0.2429
 23
0.6339
 33
-0.1636
  0
INSERT
  2
BOLTBOSS
  8
CHBOLTBO
 10
0.1378
 20
0.9909
 30
0.0000
 41
0.0131
 42
0.0131
 43
0.0131
 50
0.000
  0
INSERT
  2
BOLTHEAD
  8
CHBOLTHD
 10
0.1378
 20
0.9909
 30
0.0000
 41
0.0131
 42
0.0131
 43
0.0131
 50
85.000
  0
INSERT
  2
BOLTBOSS
  8
CHBOLTBO
 10
0.1904
 20
0.9909
 30
0.0000
 41
0.0131
 42
0.0131
 43
0.0131
 50
0.000
  0
INSERT
  2
BOLTHEAD
  8
CHBOLTHD
 10
0.1904
 20
0.9909
 30
0.0000
 41
0.0131
 42
0.0131
 43
0.0131
 50
53.000
  0
INSERT
  2
BOLTBOSS
  8
CHBOLTBO
 10
0.1640
 20
0.8465
 30
0.0000
 41
0.0131
 42
0.0131
 43
0.0131
 50
0.000
  0
INSERT
  2
BOLTHEAD
  8
CHBOLTHD
 10
0.1640
 20
0.8465
 30
0.0000
 41
0.0131
 42
0.0131
 43
0.0131
 50
17.000
  0
INSERT
  2
S1L
  8
CHMARKER
 10
0.1642
 20
0.9449
 30
-0.0980
 41
0.0131
 42
0.0131
 43
0.0131
 50
0.000
  0
INSERT
  2
BOLTBOSS
  8
CHBOLTBO
 10
0.1378
 20
1.5366
 30
0.0000
 41
0.0131
 42
0.0131
 43
0.0131
 50
0.000
  0
INSERT
  2
BOLTHEAD
  8
CHBOLTHD
 10
0.1378
 20
1.5366
 30
0.0000
 41
0.0131
 42
0.0131
 43
0.0131
 50
85.000
  0
INSERT
  2
BOLTBOSS
  8
CHBOLTBO
 10
0.1904
 20
1.5366
 30
0.0000
 41
0.0131
 42
0.0131
 43
0.0131
 50
0.000
  0
INSERT
  2
BOLTHEAD
  8
CHBOLTHD
 10
0.1904
 20
1.5366
 30
0.0000
 41
0.0131
 42
0.0131
 43
0.0131
 50
21.000
  0
INSERT
  2
BOLTBOSS
  8
CHBOLTBO
 10
0.1640
 20
1.6811
 30
0.0000
 41
0.0131
 42
0.0131
 43
0.0131
 50
0.000
  0
INSERT
  2
BOLTHEAD
  8
CHBOLTHD
 10
0.1640
 20
1.6811
 30
0.0000
 41
0.0131
 42
0.0131
 43
0.0131
 50
3.000
  0
INSERT
  2
S1R
  8
CHMARKER
 10
0.1642
 20
1.5827
 30
-0.0980
 41
0.0131
 42
0.0131
 43
0.0131
 50
0.000
  0
3DFACE
  8
TIMBER3D
 10
0.8201
 20
0.6339
 30
-0.0980
 11
0.8201
 21
1.8937
 31
-0.0980
 12
0.9776
 22
1.8937
 32
-0.0980
 13
0.9776
 23
0.6339
 33
-0.0980
  0
3DFACE
  8
TIMBER3D
 10
0.8201
 20
0.6339
 30
-0.1636
 11
0.8201
 21
1.8937
 31
-0.1636
 12
0.9776
 22
1.8937
 32
-0.1636
 13
0.9776
 23
0.6339
 33
-0.1636
  0
3DFACE
  8
TIMBER3D
 10
0.8201
 20
0.6339
 30
-0.0980
 11
0.9776
 21
0.6339
 31
-0.0980
 12
0.9776
 22
0.6339
 32
-0.1636
 13
0.8201
 23
0.6339
 33
-0.1636
  0
3DFACE
  8
TIMBER3D
 10
0.8201
 20
1.8937
 30
-0.0980
 11
0.9776
 21
1.8937
 31
-0.0980
 12
0.9776
 22
1.8937
 32
-0.1636
 13
0.8201
 23
1.8937
 33
-0.1636
  0
3DFACE
  8
TIMBER3D
 10
0.8201
 20
0.6339
 30
-0.0980
 11
0.8201
 21
1.8937
 31
-0.0980
 12
0.8201
 22
1.8937
 32
-0.1636
 13
0.8201
 23
0.6339
 33
-0.1636
  0
3DFACE
  8
TIMBER3D
 10
0.9776
 20
0.6339
 30
-0.0980
 11
0.9776
 21
1.8937
 31
-0.0980
 12
0.9776
 22
1.8937
 32
-0.1636
 13
0.9776
 23
0.6339
 33
-0.1636
  0
INSERT
  2
BOLTBOSS
  8
CHBOLTBO
 10
0.8726
 20
1.0366
 30
0.0000
 41
0.0131
 42
0.0131
 43
0.0131
 50
0.000
  0
INSERT
  2
BOLTHEAD
  8
CHBOLTHD
 10
0.8726
 20
1.0366
 30
0.0000
 41
0.0131
 42
0.0131
 43
0.0131
 50
25.000
  0
INSERT
  2
BOLTBOSS
  8
CHBOLTBO
 10
0.9252
 20
1.0366
 30
0.0000
 41
0.0131
 42
0.0131
 43
0.0131
 50
0.000
  0
INSERT
  2
BOLTHEAD
  8
CHBOLTHD
 10
0.9252
 20
1.0366
 30
0.0000
 41
0.0131
 42
0.0131
 43
0.0131
 50
53.000
  0
INSERT
  2
BOLTBOSS
  8
CHBOLTBO
 10
0.8990
 20
0.8465
 30
0.0000
 41
0.0131
 42
0.0131
 43
0.0131
 50
0.000
  0
INSERT
  2
BOLTHEAD
  8
CHBOLTHD
 10
0.8990
 20
0.8465
 30
0.0000
 41
0.0131
 42
0.0131
 43
0.0131
 50
19.000
  0
INSERT
  2
S1L
  8
CHMARKER
 10
0.8988
 20
0.9449
 30
-0.0980
 41
0.0131
 42
0.0131
 43
0.0131
 50
0.000
  0
INSERT
  2
BOLTBOSS
  8
CHBOLTBO
 10
0.8758
 20
1.4919
 30
0.0000
 41
0.0131
 42
0.0131
 43
0.0131
 50
0.000
  0
INSERT
  2
BOLTHEAD
  8
CHBOLTHD
 10
0.8758
 20
1.4919
 30
0.0000
 41
0.0131
 42
0.0131
 43
0.0131
 50
87.000
  0
INSERT
  2
BOLTBOSS
  8
CHBOLTBO
 10
0.9281
 20
1.4935
 30
0.0000
 41
0.0131
 42
0.0131
 43
0.0131
 50
0.000
  0
INSERT
  2
BOLTHEAD
  8
CHBOLTHD
 10
0.9281
 20
1.4935
 30
0.0000
 41
0.0131
 42
0.0131
 43
0.0131
 50
66.000
  0
INSERT
  2
BOLTBOSS
  8
CHBOLTBO
 10
0.8959
 20
1.6829
 30
0.0000
 41
0.0131
 42
0.0131
 43
0.0131
 50
0.000
  0
INSERT
  2
BOLTHEAD
  8
CHBOLTHD
 10
0.8959
 20
1.6829
 30
0.0000
 41
0.0131
 42
0.0131
 43
0.0131
 50
64.000
  0
INSERT
  2
S1R
  8
CHMARKER
 10
0.8992
 20
1.5844
 30
-0.0980
 41
0.0131
 42
0.0131
 43
0.0131
 50
2.005
  0
3DFACE
  8
TIMBER3D
 10
1.1878
 20
0.6339
 30
-0.0980
 11
1.1878
 21
1.8937
 31
-0.0980
 12
1.3453
 22
1.8937
 32
-0.0980
 13
1.3453
 23
0.6339
 33
-0.0980
  0
3DFACE
  8
TIMBER3D
 10
1.1878
 20
0.6339
 30
-0.1636
 11
1.1878
 21
1.8937
 31
-0.1636
 12
1.3453
 22
1.8937
 32
-0.1636
 13
1.3453
 23
0.6339
 33
-0.1636
  0
3DFACE
  8
TIMBER3D
 10
1.1878
 20
0.6339
 30
-0.0980
 11
1.3453
 21
0.6339
 31
-0.0980
 12
1.3453
 22
0.6339
 32
-0.1636
 13
1.1878
 23
0.6339
 33
-0.1636
  0
3DFACE
  8
TIMBER3D
 10
1.1878
 20
1.8937
 30
-0.0980
 11
1.3453
 21
1.8937
 31
-0.0980
 12
1.3453
 22
1.8937
 32
-0.1636
 13
1.1878
 23
1.8937
 33
-0.1636
  0
3DFACE
  8
TIMBER3D
 10
1.1878
 20
0.6339
 30
-0.0980
 11
1.1878
 21
1.8937
 31
-0.0980
 12
1.1878
 22
1.8937
 32
-0.1636
 13
1.1878
 23
0.6339
 33
-0.1636
  0
3DFACE
  8
TIMBER3D
 10
1.3453
 20
0.6339
 30
-0.0980
 11
1.3453
 21
1.8937
 31
-0.0980
 12
1.3453
 22
1.8937
 32
-0.1636
 13
1.3453
 23
0.6339
 33
-0.1636
  0
INSERT
  2
BOLTBOSS
  8
CHBOLTBO
 10
1.2402
 20
1.0366
 30
0.0000
 41
0.0131
 42
0.0131
 43
0.0131
 50
0.000
  0
INSERT
  2
BOLTHEAD
  8
CHBOLTHD
 10
1.2402
 20
1.0366
 30
0.0000
 41
0.0131
 42
0.0131
 43
0.0131
 50
52.000
  0
INSERT
  2
BOLTBOSS
  8
CHBOLTBO
 10
1.2927
 20
1.0366
 30
0.0000
 41
0.0131
 42
0.0131
 43
0.0131
 50
0.000
  0
INSERT
  2
BOLTHEAD
  8
CHBOLTHD
 10
1.2927
 20
1.0366
 30
0.0000
 41
0.0131
 42
0.0131
 43
0.0131
 50
26.000
  0
INSERT
  2
BOLTBOSS
  8
CHBOLTBO
 10
1.2663
 20
0.8465
 30
0.0000
 41
0.0131
 42
0.0131
 43
0.0131
 50
0.000
  0
INSERT
  2
BOLTHEAD
  8
CHBOLTHD
 10
1.2663
 20
0.8465
 30
0.0000
 41
0.0131
 42
0.0131
 43
0.0131
 50
75.000
  0
INSERT
  2
S1L
  8
CHMARKER
 10
1.2665
 20
0.9449
 30
-0.0980
 41
0.0131
 42
0.0131
 43
0.0131
 50
0.000
  0
INSERT
  2
BOLTBOSS
  8
CHBOLTBO
 10
1.2431
 20
1.5033
 30
0.0000
 41
0.0131
 42
0.0131
 43
0.0131
 50
0.000
  0
INSERT
  2
BOLTHEAD
  8
CHBOLTHD
 10
1.2431
 20
1.5033
 30
0.0000
 41
0.0131
 42
0.0131
 43
0.0131
 50
27.000
  0
INSERT
  2
BOLTBOSS
  8
CHBOLTBO
 10
1.2957
 20
1.5049
 30
0.0000
 41
0.0131
 42
0.0131
 43
0.0131
 50
0.000
  0
INSERT
  2
BOLTHEAD
  8
CHBOLTHD
 10
1.2957
 20
1.5049
 30
0.0000
 41
0.0131
 42
0.0131
 43
0.0131
 50
84.000
  0
INSERT
  2
BOLTBOSS
  8
CHBOLTBO
 10
1.2634
 20
1.6943
 30
0.0000
 41
0.0131
 42
0.0131
 43
0.0131
 50
0.000
  0
INSERT
  2
BOLTHEAD
  8
CHBOLTHD
 10
1.2634
 20
1.6943
 30
0.0000
 41
0.0131
 42
0.0131
 43
0.0131
 50
79.000
  0
INSERT
  2
S1R
  8
CHMARKER
 10
1.2665
 20
1.5959
 30
-0.0980
 41
0.0131
 42
0.0131
 43
0.0131
 50
2.005
  0
3DFACE
  8
TIMBER3D
 10
1.5551
 20
0.6339
 30
-0.0980
 11
1.5551
 21
1.8937
 31
-0.0980
 12
1.7126
 22
1.8937
 32
-0.0980
 13
1.7126
 23
0.6339
 33
-0.0980
  0
3DFACE
  8
TIMBER3D
 10
1.5551
 20
0.6339
 30
-0.1636
 11
1.5551
 21
1.8937
 31
-0.1636
 12
1.7126
 22
1.8937
 32
-0.1636
 13
1.7126
 23
0.6339
 33
-0.1636
  0
3DFACE
  8
TIMBER3D
 10
1.5551
 20
0.6339
 30
-0.0980
 11
1.7126
 21
0.6339
 31
-0.0980
 12
1.7126
 22
0.6339
 32
-0.1636
 13
1.5551
 23
0.6339
 33
-0.1636
  0
3DFACE
  8
TIMBER3D
 10
1.5551
 20
1.8937
 30
-0.0980
 11
1.7126
 21
1.8937
 31
-0.0980
 12
1.7126
 22
1.8937
 32
-0.1636
 13
1.5551
 23
1.8937
 33
-0.1636
  0
3DFACE
  8
TIMBER3D
 10
1.5551
 20
0.6339
 30
-0.0980
 11
1.5551
 21
1.8937
 31
-0.0980
 12
1.5551
 22
1.8937
 32
-0.1636
 13
1.5551
 23
0.6339
 33
-0.1636
  0
3DFACE
  8
TIMBER3D
 10
1.7126
 20
0.6339
 30
-0.0980
 11
1.7126
 21
1.8937
 31
-0.0980
 12
1.7126
 22
1.8937
 32
-0.1636
 13
1.7126
 23
0.6339
 33
-0.1636
  0
INSERT
  2
BOLTBOSS
  8
CHBOLTBO
 10
1.6077
 20
1.0366
 30
0.0000
 41
0.0131
 42
0.0131
 43
0.0131
 50
0.000
  0
INSERT
  2
BOLTHEAD
  8
CHBOLTHD
 10
1.6077
 20
1.0366
 30
0.0000
 41
0.0131
 42
0.0131
 43
0.0131
 50
20.000
  0
INSERT
  2
BOLTBOSS
  8
CHBOLTBO
 10
1.6600
 20
1.0366
 30
0.0000
 41
0.0131
 42
0.0131
 43
0.0131
 50
0.000
  0
INSERT
  2
BOLTHEAD
  8
CHBOLTHD
 10
1.6600
 20
1.0366
 30
0.0000
 41
0.0131
 42
0.0131
 43
0.0131
 50
14.000
  0
INSERT
  2
BOLTBOSS
  8
CHBOLTBO
 10
1.6339
 20
0.8465
 30
0.0000
 41
0.0131
 42
0.0131
 43
0.0131
 50
0.000
  0
INSERT
  2
BOLTHEAD
  8
CHBOLTHD
 10
1.6339
 20
0.8465
 30
0.0000
 41
0.0131
 42
0.0131
 43
0.0131
 50
69.000
  0
INSERT
  2
S1L
  8
CHMARKER
 10
1.6339
 20
0.9449
 30
-0.0980
 41
0.0131
 42
0.0131
 43
0.0131
 50
0.000
  0
INSERT
  2
BOLTBOSS
  8
CHBOLTBO
 10
1.6106
 20
1.5148
 30
0.0000
 41
0.0131
 42
0.0131
 43
0.0131
 50
0.000
  0
INSERT
  2
BOLTHEAD
  8
CHBOLTHD
 10
1.6106
 20
1.5148
 30
0.0000
 41
0.0131
 42
0.0131
 43
0.0131
 50
70.000
  0
INSERT
  2
BOLTBOSS
  8
CHBOLTBO
 10
1.6632
 20
1.5163
 30
0.0000
 41
0.0131
 42
0.0131
 43
0.0131
 50
0.000
  0
INSERT
  2
BOLTHEAD
  8
CHBOLTHD
 10
1.6632
 20
1.5163
 30
0.0000
 41
0.0131
 42
0.0131
 43
0.0131
 50
12.000
  0
INSERT
  2
BOLTBOSS
  8
CHBOLTBO
 10
1.6309
 20
1.7057
 30
0.0000
 41
0.0131
 42
0.0131
 43
0.0131
 50
0.000
  0
INSERT
  2
BOLTHEAD
  8
CHBOLTHD
 10
1.6309
 20
1.7057
 30
0.0000
 41
0.0131
 42
0.0131
 43
0.0131
 50
56.000
  0
INSERT
  2
S1R
  8
CHMARKER
 10
1.6339
 20
1.6075
 30
-0.0980
 41
0.0131
 42
0.0131
 43
0.0131
 50
1.718
  0
3DFACE
  8
TIMBER3D
 10
1.9224
 20
0.6339
 30
-0.0980
 11
1.9224
 21
1.9724
 31
-0.0980
 12
2.0799
 22
1.9724
 32
-0.0980
 13
2.0799
 23
0.6339
 33
-0.0980
  0
3DFACE
  8
TIMBER3D
 10
1.9224
 20
0.6339
 30
-0.1636
 11
1.9224
 21
1.9724
 31
-0.1636
 12
2.0799
 22
1.9724
 32
-0.1636
 13
2.0799
 23
0.6339
 33
-0.1636
  0
3DFACE
  8
TIMBER3D
 10
1.9224
 20
0.6339
 30
-0.0980
 11
2.0799
 21
0.6339
 31
-0.0980
 12
2.0799
 22
0.6339
 32
-0.1636
 13
1.9224
 23
0.6339
 33
-0.1636
  0
3DFACE
  8
TIMBER3D
 10
1.9224
 20
1.9724
 30
-0.0980
 11
2.0799
 21
1.9724
 31
-0.0980
 12
2.0799
 22
1.9724
 32
-0.1636
 13
1.9224
 23
1.9724
 33
-0.1636
  0
3DFACE
  8
TIMBER3D
 10
1.9224
 20
0.6339
 30
-0.0980
 11
1.9224
 21
1.9724
 31
-0.0980
 12
1.9224
 22
1.9724
 32
-0.1636
 13
1.9224
 23
0.6339
 33
-0.1636
  0
3DFACE
  8
TIMBER3D
 10
2.0799
 20
0.6339
 30
-0.0980
 11
2.0799
 21
1.9724
 31
-0.0980
 12
2.0799
 22
1.9724
 32
-0.1636
 13
2.0799
 23
0.6339
 33
-0.1636
  0
INSERT
  2
BOLTBOSS
  8
CHBOLTBO
 10
1.9750
 20
1.0366
 30
0.0000
 41
0.0131
 42
0.0131
 43
0.0131
 50
0.000
  0
INSERT
  2
BOLTHEAD
  8
CHBOLTHD
 10
1.9750
 20
1.0366
 30
0.0000
 41
0.0131
 42
0.0131
 43
0.0131
 50
77.000
  0
INSERT
  2
BOLTBOSS
  8
CHBOLTBO
 10
2.0276
 20
1.0366
 30
0.0000
 41
0.0131
 42
0.0131
 43
0.0131
 50
0.000
  0
INSERT
  2
BOLTHEAD
  8
CHBOLTHD
 10
2.0276
 20
1.0366
 30
0.0000
 41
0.0131
 42
0.0131
 43
0.0131
 50
45.000
  0
INSERT
  2
BOLTBOSS
  8
CHBOLTBO
 10
2.0014
 20
0.8465
 30
0.0000
 41
0.0131
 42
0.0131
 43
0.0131
 50
0.000
  0
INSERT
  2
BOLTHEAD
  8
CHBOLTHD
 10
2.0014
 20
0.8465
 30
0.0000
 41
0.0131
 42
0.0131
 43
0.0131
 50
44.000
  0
INSERT
  2
S1L
  8
CHMARKER
 10
2.0012
 20
0.9449
 30
-0.0980
 41
0.0131
 42
0.0131
 43
0.0131
 50
0.000
  0
INSERT
  2
BOLTBOSS
  8
CHBOLTBO
 10
1.9781
 20
1.5262
 30
0.0000
 41
0.0131
 42
0.0131
 43
0.0131
 50
0.000
  0
INSERT
  2
BOLTHEAD
  8
CHBOLTHD
 10
1.9781
 20
1.5262
 30
0.0000
 41
0.0131
 42
0.0131
 43
0.0131
 50
82.000
  0
INSERT
  2
BOLTBOSS
  8
CHBOLTBO
 10
2.0305
 20
1.5278
 30
0.0000
 41
0.0131
 42
0.0131
 43
0.0131
 50
0.000
  0
INSERT
  2
BOLTHEAD
  8
CHBOLTHD
 10
2.0305
 20
1.5278
 30
0.0000
 41
0.0131
 42
0.0131
 43
0.0131
 50
83.000
  0
INSERT
  2
BOLTBOSS
  8
CHBOLTBO
 10
1.9982
 20
1.7171
 30
0.0000
 41
0.0131
 42
0.0131
 43
0.0131
 50
0.000
  0
INSERT
  2
BOLTHEAD
  8
CHBOLTHD
 10
1.9982
 20
1.7171
 30
0.0000
 41
0.0131
 42
0.0131
 43
0.0131
 50
18.000
  0
INSERT
  2
S1R
  8
CHMARKER
 10
2.0016
 20
1.6189
 30
-0.0980
 41
0.0131
 42
0.0131
 43
0.0131
 50
1.718
  0
3DFACE
  8
TIMBER3D
 10
2.2902
 20
0.6339
 30
-0.0980
 11
2.2902
 21
1.9724
 31
-0.0980
 12
2.4476
 22
1.9724
 32
-0.0980
 13
2.4476
 23
0.6339
 33
-0.0980
  0
3DFACE
  8
TIMBER3D
 10
2.2902
 20
0.6339
 30
-0.1636
 11
2.2902
 21
1.9724
 31
-0.1636
 12
2.4476
 22
1.9724
 32
-0.1636
 13
2.4476
 23
0.6339
 33
-0.1636
  0
3DFACE
  8
TIMBER3D
 10
2.2902
 20
0.6339
 30
-0.0980
 11
2.4476
 21
0.6339
 31
-0.0980
 12
2.4476
 22
0.6339
 32
-0.1636
 13
2.2902
 23
0.6339
 33
-0.1636
  0
3DFACE
  8
TIMBER3D
 10
2.2902
 20
1.9724
 30
-0.0980
 11
2.4476
 21
1.9724
 31
-0.0980
 12
2.4476
 22
1.9724
 32
-0.1636
 13
2.2902
 23
1.9724
 33
-0.1636
  0
3DFACE
  8
TIMBER3D
 10
2.2902
 20
0.6339
 30
-0.0980
 11
2.2902
 21
1.9724
 31
-0.0980
 12
2.2902
 22
1.9724
 32
-0.1636
 13
2.2902
 23
0.6339
 33
-0.1636
  0
3DFACE
  8
TIMBER3D
 10
2.4476
 20
0.6339
 30
-0.0980
 11
2.4476
 21
1.9724
 31
-0.0980
 12
2.4476
 22
1.9724
 32
-0.1636
 13
2.4476
 23
0.6339
 33
-0.1636
  0
INSERT
  2
BOLTBOSS
  8
CHBOLTBO
 10
2.3425
 20
1.0366
 30
0.0000
 41
0.0131
 42
0.0131
 43
0.0131
 50
0.000
  0
INSERT
  2
BOLTHEAD
  8
CHBOLTHD
 10
2.3425
 20
1.0366
 30
0.0000
 41
0.0131
 42
0.0131
 43
0.0131
 50
71.000
  0
INSERT
  2
BOLTBOSS
  8
CHBOLTBO
 10
2.3951
 20
1.0366
 30
0.0000
 41
0.0131
 42
0.0131
 43
0.0131
 50
0.000
  0
INSERT
  2
BOLTHEAD
  8
CHBOLTHD
 10
2.3951
 20
1.0366
 30
0.0000
 41
0.0131
 42
0.0131
 43
0.0131
 50
27.000
  0
INSERT
  2
BOLTBOSS
  8
CHBOLTBO
 10
2.3687
 20
0.8465
 30
0.0000
 41
0.0131
 42
0.0131
 43
0.0131
 50
0.000
  0
INSERT
  2
BOLTHEAD
  8
CHBOLTHD
 10
2.3687
 20
0.8465
 30
0.0000
 41
0.0131
 42
0.0131
 43
0.0131
 50
38.000
  0
INSERT
  2
S1L
  8
CHMARKER
 10
2.3689
 20
0.9449
 30
-0.0980
 41
0.0131
 42
0.0131
 43
0.0131
 50
0.000
  0
INSERT
  2
BOLTBOSS
  8
CHBOLTBO
 10
2.3459
 20
1.5384
 30
0.0000
 41
0.0131
 42
0.0131
 43
0.0131
 50
0.000
  0
INSERT
  2
BOLTHEAD
  8
CHBOLTHD
 10
2.3459
 20
1.5384
 30
0.0000
 41
0.0131
 42
0.0131
 43
0.0131
 50
5.000
  0
INSERT
  2
BOLTBOSS
  8
CHBOLTBO
 10
2.3982
 20
1.5404
 30
0.0000
 41
0.0131
 42
0.0131
 43
0.0131
 50
0.000
  0
INSERT
  2
BOLTHEAD
  8
CHBOLTHD
 10
2.3982
 20
1.5404
 30
0.0000
 41
0.0131
 42
0.0131
 43
0.0131
 50
8.000
  0
INSERT
  2
BOLTBOSS
  8
CHBOLTBO
 10
2.3656
 20
1.7293
 30
0.0000
 41
0.0131
 42
0.0131
 43
0.0131
 50
0.000
  0
INSERT
  2
BOLTHEAD
  8
CHBOLTHD
 10
2.3656
 20
1.7293
 30
0.0000
 41
0.0131
 42
0.0131
 43
0.0131
 50
32.000
  0
INSERT
  2
S1R
  8
CHMARKER
 10
2.3689
 20
1.6313
 30
-0.0980
 41
0.0131
 42
0.0131
 43
0.0131
 50
2.005
  0
3DFACE
  8
TIMBER3D
 10
2.6575
 20
0.6339
 30
-0.0980
 11
2.6575
 21
1.9724
 31
-0.0980
 12
2.8150
 22
1.9724
 32
-0.0980
 13
2.8150
 23
0.6339
 33
-0.0980
  0
3DFACE
  8
TIMBER3D
 10
2.6575
 20
0.6339
 30
-0.1636
 11
2.6575
 21
1.9724
 31
-0.1636
 12
2.8150
 22
1.9724
 32
-0.1636
 13
2.8150
 23
0.6339
 33
-0.1636
  0
3DFACE
  8
TIMBER3D
 10
2.6575
 20
0.6339
 30
-0.0980
 11
2.8150
 21
0.6339
 31
-0.0980
 12
2.8150
 22
0.6339
 32
-0.1636
 13
2.6575
 23
0.6339
 33
-0.1636
  0
3DFACE
  8
TIMBER3D
 10
2.6575
 20
1.9724
 30
-0.0980
 11
2.8150
 21
1.9724
 31
-0.0980
 12
2.8150
 22
1.9724
 32
-0.1636
 13
2.6575
 23
1.9724
 33
-0.1636
  0
3DFACE
  8
TIMBER3D
 10
2.6575
 20
0.6339
 30
-0.0980
 11
2.6575
 21
1.9724
 31
-0.0980
 12
2.6575
 22
1.9724
 32
-0.1636
 13
2.6575
 23
0.6339
 33
-0.1636
  0
3DFACE
  8
TIMBER3D
 10
2.8150
 20
0.6339
 30
-0.0980
 11
2.8150
 21
1.9724
 31
-0.0980
 12
2.8150
 22
1.9724
 32
-0.1636
 13
2.8150
 23
0.6339
 33
-0.1636
  0
INSERT
  2
BOLTBOSS
  8
CHBOLTBO
 10
2.7100
 20
1.0366
 30
0.0000
 41
0.0131
 42
0.0131
 43
0.0131
 50
0.000
  0
INSERT
  2
BOLTHEAD
  8
CHBOLTHD
 10
2.7100
 20
1.0366
 30
0.0000
 41
0.0131
 42
0.0131
 43
0.0131
 50
86.000
  0
INSERT
  2
BOLTBOSS
  8
CHBOLTBO
 10
2.7624
 20
1.0366
 30
0.0000
 41
0.0131
 42
0.0131
 43
0.0131
 50
0.000
  0
INSERT
  2
BOLTHEAD
  8
CHBOLTHD
 10
2.7624
 20
1.0366
 30
0.0000
 41
0.0131
 42
0.0131
 43
0.0131
 50
32.000
  0
INSERT
  2
BOLTBOSS
  8
CHBOLTBO
 10
2.7362
 20
0.8465
 30
0.0000
 41
0.0131
 42
0.0131
 43
0.0131
 50
0.000
  0
INSERT
  2
BOLTHEAD
  8
CHBOLTHD
 10
2.7362
 20
0.8465
 30
0.0000
 41
0.0131
 42
0.0131
 43
0.0131
 50
22.000
  0
INSERT
  2
S1L
  8
CHMARKER
 10
2.7362
 20
0.9449
 30
-0.0980
 41
0.0131
 42
0.0131
 43
0.0131
 50
0.000
  0
INSERT
  2
BOLTBOSS
  8
CHBOLTBO
 10
2.7136
 20
1.5520
 30
0.0000
 41
0.0131
 42
0.0131
 43
0.0131
 50
0.000
  0
INSERT
  2
BOLTHEAD
  8
CHBOLTHD
 10
2.7136
 20
1.5520
 30
0.0000
 41
0.0131
 42
0.0131
 43
0.0131
 50
14.000
  0
INSERT
  2
BOLTBOSS
  8
CHBOLTBO
 10
2.7661
 20
1.5541
 30
0.0000
 41
0.0131
 42
0.0131
 43
0.0131
 50
0.000
  0
INSERT
  2
BOLTHEAD
  8
CHBOLTHD
 10
2.7661
 20
1.5541
 30
0.0000
 41
0.0131
 42
0.0131
 43
0.0131
 50
63.000
  0
INSERT
  2
BOLTBOSS
  8
CHBOLTBO
 10
2.7325
 20
1.7431
 30
0.0000
 41
0.0131
 42
0.0131
 43
0.0131
 50
0.000
  0
INSERT
  2
BOLTHEAD
  8
CHBOLTHD
 10
2.7325
 20
1.7431
 30
0.0000
 41
0.0131
 42
0.0131
 43
0.0131
 50
89.000
  0
INSERT
  2
S1R
  8
CHMARKER
 10
2.7362
 20
1.6449
 30
-0.0980
 41
0.0131
 42
0.0131
 43
0.0131
 50
2.291
  0
3DFACE
  8
TIMBER3D
 10
3.0248
 20
0.6339
 30
-0.0980
 11
3.0248
 21
1.9724
 31
-0.0980
 12
3.1823
 22
1.9724
 32
-0.0980
 13
3.1823
 23
0.6339
 33
-0.0980
  0
3DFACE
  8
TIMBER3D
 10
3.0248
 20
0.6339
 30
-0.1636
 11
3.0248
 21
1.9724
 31
-0.1636
 12
3.1823
 22
1.9724
 32
-0.1636
 13
3.1823
 23
0.6339
 33
-0.1636
  0
3DFACE
  8
TIMBER3D
 10
3.0248
 20
0.6339
 30
-0.0980
 11
3.1823
 21
0.6339
 31
-0.0980
 12
3.1823
 22
0.6339
 32
-0.1636
 13
3.0248
 23
0.6339
 33
-0.1636
  0
3DFACE
  8
TIMBER3D
 10
3.0248
 20
1.9724
 30
-0.0980
 11
3.1823
 21
1.9724
 31
-0.0980
 12
3.1823
 22
1.9724
 32
-0.1636
 13
3.0248
 23
1.9724
 33
-0.1636
  0
3DFACE
  8
TIMBER3D
 10
3.0248
 20
0.6339
 30
-0.0980
 11
3.0248
 21
1.9724
 31
-0.0980
 12
3.0248
 22
1.9724
 32
-0.1636
 13
3.0248
 23
0.6339
 33
-0.1636
  0
3DFACE
  8
TIMBER3D
 10
3.1823
 20
0.6339
 30
-0.0980
 11
3.1823
 21
1.9724
 31
-0.0980
 12
3.1823
 22
1.9724
 32
-0.1636
 13
3.1823
 23
0.6339
 33
-0.1636
  0
INSERT
  2
BOLTBOSS
  8
CHBOLTBO
 10
3.0774
 20
1.0606
 30
0.0000
 41
0.0131
 42
0.0131
 43
0.0131
 50
0.000
  0
INSERT
  2
BOLTHEAD
  8
CHBOLTHD
 10
3.0774
 20
1.0606
 30
0.0000
 41
0.0131
 42
0.0131
 43
0.0131
 50
25.000
  0
INSERT
  2
BOLTBOSS
  8
CHBOLTBO
 10
3.1299
 20
1.0606
 30
0.0000
 41
0.0131
 42
0.0131
 43
0.0131
 50
0.000
  0
INSERT
  2
BOLTHEAD
  8
CHBOLTHD
 10
3.1299
 20
1.0606
 30
0.0000
 41
0.0131
 42
0.0131
 43
0.0131
 50
75.000
  0
INSERT
  2
BOLTBOSS
  8
CHBOLTBO
 10
3.1037
 20
0.8465
 30
0.0000
 41
0.0131
 42
0.0131
 43
0.0131
 50
0.000
  0
INSERT
  2
BOLTHEAD
  8
CHBOLTHD
 10
3.1037
 20
0.8465
 30
0.0000
 41
0.0131
 42
0.0131
 43
0.0131
 50
68.000
  0
INSERT
  2
S1L
  8
CHMARKER
 10
3.1035
 20
0.9449
 30
-0.0980
 41
0.0131
 42
0.0131
 43
0.0131
 50
0.000
  0
INSERT
  2
BOLTBOSS
  8
CHBOLTBO
 10
3.0821
 20
1.5429
 30
0.0000
 41
0.0131
 42
0.0131
 43
0.0131
 50
0.000
  0
INSERT
  2
BOLTHEAD
  8
CHBOLTHD
 10
3.0821
 20
1.5429
 30
0.0000
 41
0.0131
 42
0.0131
 43
0.0131
 50
27.000
  0
INSERT
  2
BOLTBOSS
  8
CHBOLTBO
 10
3.1344
 20
1.5451
 30
0.0000
 41
0.0131
 42
0.0131
 43
0.0131
 50
0.000
  0
INSERT
  2
BOLTHEAD
  8
CHBOLTHD
 10
3.1344
 20
1.5451
 30
0.0000
 41
0.0131
 42
0.0131
 43
0.0131
 50
73.000
  0
INSERT
  2
BOLTBOSS
  8
CHBOLTBO
 10
3.0990
 20
1.7581
 30
0.0000
 41
0.0131
 42
0.0131
 43
0.0131
 50
0.000
  0
INSERT
  2
BOLTHEAD
  8
CHBOLTHD
 10
3.0990
 20
1.7581
 30
0.0000
 41
0.0131
 42
0.0131
 43
0.0131
 50
16.000
  0
INSERT
  2
S1R
  8
CHMARKER
 10
3.1031
 20
1.6598
 30
-0.0980
 41
0.0131
 42
0.0131
 43
0.0131
 50
2.291
  0
3DFACE
  8
TIMBER3D
 10
3.3988
 20
0.6339
 30
-0.0980
 11
3.3988
 21
1.9724
 31
-0.0980
 12
3.5563
 22
1.9724
 32
-0.0980
 13
3.5563
 23
0.6339
 33
-0.0980
  0
3DFACE
  8
TIMBER3D
 10
3.3988
 20
0.6339
 30
-0.1636
 11
3.3988
 21
1.9724
 31
-0.1636
 12
3.5563
 22
1.9724
 32
-0.1636
 13
3.5563
 23
0.6339
 33
-0.1636
  0
3DFACE
  8
TIMBER3D
 10
3.3988
 20
0.6339
 30
-0.0980
 11
3.5563
 21
0.6339
 31
-0.0980
 12
3.5563
 22
0.6339
 32
-0.1636
 13
3.3988
 23
0.6339
 33
-0.1636
  0
3DFACE
  8
TIMBER3D
 10
3.3988
 20
1.9724
 30
-0.0980
 11
3.5563
 21
1.9724
 31
-0.0980
 12
3.5563
 22
1.9724
 32
-0.1636
 13
3.3988
 23
1.9724
 33
-0.1636
  0
3DFACE
  8
TIMBER3D
 10
3.3988
 20
0.6339
 30
-0.0980
 11
3.3988
 21
1.9724
 31
-0.0980
 12
3.3988
 22
1.9724
 32
-0.1636
 13
3.3988
 23
0.6339
 33
-0.1636
  0
3DFACE
  8
TIMBER3D
 10
3.5563
 20
0.6339
 30
-0.0980
 11
3.5563
 21
1.9724
 31
-0.0980
 12
3.5563
 22
1.9724
 32
-0.1636
 13
3.5563
 23
0.6339
 33
-0.1636
  0
INSERT
  2
BOLTBOSS
  8
CHBOLTBO
 10
3.4514
 20
1.0776
 30
0.0000
 41
0.0131
 42
0.0131
 43
0.0131
 50
0.000
  0
INSERT
  2
BOLTHEAD
  8
CHBOLTHD
 10
3.4514
 20
1.0776
 30
0.0000
 41
0.0131
 42
0.0131
 43
0.0131
 50
39.000
  0
INSERT
  2
BOLTBOSS
  8
CHBOLTBO
 10
3.5039
 20
1.0776
 30
0.0000
 41
0.0131
 42
0.0131
 43
0.0131
 50
0.000
  0
INSERT
  2
BOLTHEAD
  8
CHBOLTHD
 10
3.5039
 20
1.0776
 30
0.0000
 41
0.0131
 42
0.0131
 43
0.0131
 50
61.000
  0
INSERT
  2
BOLTBOSS
  8
CHBOLTBO
 10
3.4778
 20
0.8465
 30
0.0000
 41
0.0131
 42
0.0131
 43
0.0131
 50
0.000
  0
INSERT
  2
BOLTHEAD
  8
CHBOLTHD
 10
3.4778
 20
0.8465
 30
0.0000
 41
0.0131
 42
0.0131
 43
0.0131
 50
50.000
  0
INSERT
  2
S1L
  8
CHMARKER
 10
3.4776
 20
0.9449
 30
-0.0980
 41
0.0131
 42
0.0131
 43
0.0131
 50
0.000
  0
INSERT
  2
BOLTBOSS
  8
CHBOLTBO
 10
3.4569
 20
1.5429
 30
0.0000
 41
0.0131
 42
0.0131
 43
0.0131
 50
0.000
  0
INSERT
  2
BOLTHEAD
  8
CHBOLTHD
 10
3.4569
 20
1.5429
 30
0.0000
 41
0.0131
 42
0.0131
 43
0.0131
 50
0.000
  0
INSERT
  2
BOLTBOSS
  8
CHBOLTBO
 10
3.5093
 20
1.5453
 30
0.0000
 41
0.0131
 42
0.0131
 43
0.0131
 50
0.000
  0
INSERT
  2
BOLTHEAD
  8
CHBOLTHD
 10
3.5093
 20
1.5453
 30
0.0000
 41
0.0131
 42
0.0131
 43
0.0131
 50
66.000
  0
INSERT
  2
BOLTBOSS
  8
CHBOLTBO
 10
3.4722
 20
1.7748
 30
0.0000
 41
0.0131
 42
0.0131
 43
0.0131
 50
0.000
  0
INSERT
  2
BOLTHEAD
  8
CHBOLTHD
 10
3.4722
 20
1.7748
 30
0.0000
 41
0.0131
 42
0.0131
 43
0.0131
 50
9.000
  0
INSERT
  2
S1R
  8
CHMARKER
 10
3.4768
 20
1.6766
 30
-0.0980
 41
0.0131
 42
0.0131
 43
0.0131
 50
2.577
  0
3DFACE
  8
TIMBER3D
 10
3.7728
 20
0.6339
 30
-0.0980
 11
3.7728
 21
2.0512
 31
-0.0980
 12
3.9303
 22
2.0512
 32
-0.0980
 13
3.9303
 23
0.6339
 33
-0.0980
  0
3DFACE
  8
TIMBER3D
 10
3.7728
 20
0.6339
 30
-0.1636
 11
3.7728
 21
2.0512
 31
-0.1636
 12
3.9303
 22
2.0512
 32
-0.1636
 13
3.9303
 23
0.6339
 33
-0.1636
  0
3DFACE
  8
TIMBER3D
 10
3.7728
 20
0.6339
 30
-0.0980
 11
3.9303
 21
0.6339
 31
-0.0980
 12
3.9303
 22
0.6339
 32
-0.1636
 13
3.7728
 23
0.6339
 33
-0.1636
  0
3DFACE
  8
TIMBER3D
 10
3.7728
 20
2.0512
 30
-0.0980
 11
3.9303
 21
2.0512
 31
-0.0980
 12
3.9303
 22
2.0512
 32
-0.1636
 13
3.7728
 23
2.0512
 33
-0.1636
  0
3DFACE
  8
TIMBER3D
 10
3.7728
 20
0.6339
 30
-0.0980
 11
3.7728
 21
2.0512
 31
-0.0980
 12
3.7728
 22
2.0512
 32
-0.1636
 13
3.7728
 23
0.6339
 33
-0.1636
  0
3DFACE
  8
TIMBER3D
 10
3.9303
 20
0.6339
 30
-0.0980
 11
3.9303
 21
2.0512
 31
-0.0980
 12
3.9303
 22
2.0512
 32
-0.1636
 13
3.9303
 23
0.6339
 33
-0.1636
  0
INSERT
  2
BOLTBOSS
  8
CHBOLTBO
 10
3.8254
 20
1.1024
 30
0.0000
 41
0.0131
 42
0.0131
 43
0.0131
 50
0.000
  0
INSERT
  2
BOLTHEAD
  8
CHBOLTHD
 10
3.8254
 20
1.1024
 30
0.0000
 41
0.0131
 42
0.0131
 43
0.0131
 50
45.000
  0
INSERT
  2
BOLTBOSS
  8
CHBOLTBO
 10
3.8780
 20
1.1024
 30
0.0000
 41
0.0131
 42
0.0131
 43
0.0131
 50
0.000
  0
INSERT
  2
BOLTHEAD
  8
CHBOLTHD
 10
3.8780
 20
1.1024
 30
0.0000
 41
0.0131
 42
0.0131
 43
0.0131
 50
50.000
  0
INSERT
  2
BOLTBOSS
  8
CHBOLTBO
 10
3.8518
 20
0.8465
 30
0.0000
 41
0.0131
 42
0.0131
 43
0.0131
 50
0.000
  0
INSERT
  2
BOLTHEAD
  8
CHBOLTHD
 10
3.8518
 20
0.8465
 30
0.0000
 41
0.0131
 42
0.0131
 43
0.0131
 50
54.000
  0
INSERT
  2
S1L
  8
CHMARKER
 10
3.8516
 20
0.9449
 30
-0.0980
 41
0.0131
 42
0.0131
 43
0.0131
 50
0.000
  0
INSERT
  2
BOLTBOSS
  8
CHBOLTBO
 10
3.8321
 20
1.5364
 30
0.0000
 41
0.0131
 42
0.0131
 43
0.0131
 50
0.000
  0
INSERT
  2
BOLTHEAD
  8
CHBOLTHD
 10
3.8321
 20
1.5364
 30
0.0000
 41
0.0131
 42
0.0131
 43
0.0131
 50
67.000
  0
INSERT
  2
BOLTBOSS
  8
CHBOLTBO
 10
3.8844
 20
1.5390
 30
0.0000
 41
0.0131
 42
0.0131
 43
0.0131
 50
0.000
  0
INSERT
  2
BOLTHEAD
  8
CHBOLTHD
 10
3.8844
 20
1.5390
 30
0.0000
 41
0.0131
 42
0.0131
 43
0.0131
 50
21.000
  0
INSERT
  2
BOLTBOSS
  8
CHBOLTBO
 10
3.8453
 20
1.7931
 30
0.0000
 41
0.0131
 42
0.0131
 43
0.0131
 50
0.000
  0
INSERT
  2
BOLTHEAD
  8
CHBOLTHD
 10
3.8453
 20
1.7931
 30
0.0000
 41
0.0131
 42
0.0131
 43
0.0131
 50
15.000
  0
INSERT
  2
S1R
  8
CHMARKER
 10
3.8502
 20
1.6949
 30
-0.0980
 41
0.0131
 42
0.0131
 43
0.0131
 50
2.877
  0
3DFACE
  8
TIMBER3D
 10
4.1469
 20
0.6339
 30
-0.0980
 11
4.1469
 21
2.0512
 31
-0.0980
 12
4.3043
 22
2.0512
 32
-0.0980
 13
4.3043
 23
0.6339
 33
-0.0980
  0
3DFACE
  8
TIMBER3D
 10
4.1469
 20
0.6339
 30
-0.1636
 11
4.1469
 21
2.0512
 31
-0.1636
 12
4.3043
 22
2.0512
 32
-0.1636
 13
4.3043
 23
0.6339
 33
-0.1636
  0
3DFACE
  8
TIMBER3D
 10
4.1469
 20
0.6339
 30
-0.0980
 11
4.3043
 21
0.6339
 31
-0.0980
 12
4.3043
 22
0.6339
 32
-0.1636
 13
4.1469
 23
0.6339
 33
-0.1636
  0
3DFACE
  8
TIMBER3D
 10
4.1469
 20
2.0512
 30
-0.0980
 11
4.3043
 21
2.0512
 31
-0.0980
 12
4.3043
 22
2.0512
 32
-0.1636
 13
4.1469
 23
2.0512
 33
-0.1636
  0
3DFACE
  8
TIMBER3D
 10
4.1469
 20
0.6339
 30
-0.0980
 11
4.1469
 21
2.0512
 31
-0.0980
 12
4.1469
 22
2.0512
 32
-0.1636
 13
4.1469
 23
0.6339
 33
-0.1636
  0
3DFACE
  8
TIMBER3D
 10
4.3043
 20
0.6339
 30
-0.0980
 11
4.3043
 21
2.0512
 31
-0.0980
 12
4.3043
 22
2.0512
 32
-0.1636
 13
4.3043
 23
0.6339
 33
-0.1636
  0
INSERT
  2
BOLTBOSS
  8
CHBOLTBO
 10
4.1994
 20
1.1217
 30
0.0000
 41
0.0131
 42
0.0131
 43
0.0131
 50
0.000
  0
INSERT
  2
BOLTHEAD
  8
CHBOLTHD
 10
4.1994
 20
1.1217
 30
0.0000
 41
0.0131
 42
0.0131
 43
0.0131
 50
67.000
  0
INSERT
  2
BOLTBOSS
  8
CHBOLTBO
 10
4.2520
 20
1.1217
 30
0.0000
 41
0.0131
 42
0.0131
 43
0.0131
 50
0.000
  0
INSERT
  2
BOLTHEAD
  8
CHBOLTHD
 10
4.2520
 20
1.1217
 30
0.0000
 41
0.0131
 42
0.0131
 43
0.0131
 50
17.000
  0
INSERT
  2
BOLTBOSS
  8
CHBOLTBO
 10
4.2258
 20
0.8465
 30
0.0000
 41
0.0131
 42
0.0131
 43
0.0131
 50
0.000
  0
INSERT
  2
BOLTHEAD
  8
CHBOLTHD
 10
4.2258
 20
0.8465
 30
0.0000
 41
0.0131
 42
0.0131
 43
0.0131
 50
55.000
  0
INSERT
  2
S1L
  8
CHMARKER
 10
4.2256
 20
0.9449
 30
-0.0980
 41
0.0131
 42
0.0131
 43
0.0131
 50
0.000
  0
INSERT
  2
BOLTBOSS
  8
CHBOLTBO
 10
4.2071
 20
1.5364
 30
0.0000
 41
0.0131
 42
0.0131
 43
0.0131
 50
0.000
  0
INSERT
  2
BOLTHEAD
  8
CHBOLTHD
 10
4.2071
 20
1.5364
 30
0.0000
 41
0.0131
 42
0.0131
 43
0.0131
 50
78.000
  0
INSERT
  2
BOLTBOSS
  8
CHBOLTBO
 10
4.2596
 20
1.5394
 30
0.0000
 41
0.0131
 42
0.0131
 43
0.0131
 50
0.000
  0
INSERT
  2
BOLTHEAD
  8
CHBOLTHD
 10
4.2596
 20
1.5394
 30
0.0000
 41
0.0131
 42
0.0131
 43
0.0131
 50
10.000
  0
INSERT
  2
BOLTBOSS
  8
CHBOLTBO
 10
4.2181
 20
1.8126
 30
0.0000
 41
0.0131
 42
0.0131
 43
0.0131
 50
0.000
  0
INSERT
  2
BOLTHEAD
  8
CHBOLTHD
 10
4.2181
 20
1.8126
 30
0.0000
 41
0.0131
 42
0.0131
 43
0.0131
 50
82.000
  0
INSERT
  2
S1R
  8
CHMARKER
 10
4.2236
 20
1.7144
 30
-0.0980
 41
0.0131
 42
0.0131
 43
0.0131
 50
3.148
  0
3DFACE
  8
TIMBER3D
 10
4.4882
 20
0.6339
 30
-0.0980
 11
4.4882
 21
2.0512
 31
-0.0980
 12
4.6457
 22
2.0512
 32
-0.0980
 13
4.6457
 23
0.6339
 33
-0.0980
  0
3DFACE
  8
TIMBER3D
 10
4.4882
 20
0.6339
 30
-0.1636
 11
4.4882
 21
2.0512
 31
-0.1636
 12
4.6457
 22
2.0512
 32
-0.1636
 13
4.6457
 23
0.6339
 33
-0.1636
  0
3DFACE
  8
TIMBER3D
 10
4.4882
 20
0.6339
 30
-0.0980
 11
4.6457
 21
0.6339
 31
-0.0980
 12
4.6457
 22
0.6339
 32
-0.1636
 13
4.4882
 23
0.6339
 33
-0.1636
  0
3DFACE
  8
TIMBER3D
 10
4.4882
 20
2.0512
 30
-0.0980
 11
4.6457
 21
2.0512
 31
-0.0980
 12
4.6457
 22
2.0512
 32
-0.1636
 13
4.4882
 23
2.0512
 33
-0.1636
  0
3DFACE
  8
TIMBER3D
 10
4.4882
 20
0.6339
 30
-0.0980
 11
4.4882
 21
2.0512
 31
-0.0980
 12
4.4882
 22
2.0512
 32
-0.1636
 13
4.4882
 23
0.6339
 33
-0.1636
  0
3DFACE
  8
TIMBER3D
 10
4.6457
 20
0.6339
 30
-0.0980
 11
4.6457
 21
2.0512
 31
-0.0980
 12
4.6457
 22
2.0512
 32
-0.1636
 13
4.6457
 23
0.6339
 33
-0.1636
  0
INSERT
  2
BOLTBOSS
  8
CHBOLTBO
 10
4.5177
 20
0.9677
 30
0.0000
 41
0.0131
 42
0.0131
 43
0.0131
 50
0.000
  0
INSERT
  2
BOLTHEAD
  8
CHBOLTHD
 10
4.5177
 20
0.9677
 30
0.0000
 41
0.0131
 42
0.0131
 43
0.0131
 50
59.000
  0
INSERT
  2
BOLTBOSS
  8
CHBOLTBO
 10
4.6161
 20
0.9677
 30
0.0000
 41
0.0131
 42
0.0131
 43
0.0131
 50
0.000
  0
INSERT
  2
BOLTHEAD
  8
CHBOLTHD
 10
4.6161
 20
0.9677
 30
0.0000
 41
0.0131
 42
0.0131
 43
0.0131
 50
68.000
  0
INSERT
  2
BOLTBOSS
  8
CHBOLTBO
 10
4.5177
 20
0.8760
 30
0.0000
 41
0.0131
 42
0.0131
 43
0.0131
 50
0.000
  0
INSERT
  2
BOLTHEAD
  8
CHBOLTHD
 10
4.5177
 20
0.8760
 30
0.0000
 41
0.0131
 42
0.0131
 43
0.0131
 50
19.000
  0
INSERT
  2
BOLTBOSS
  8
CHBOLTBO
 10
4.6161
 20
0.8760
 30
0.0000
 41
0.0131
 42
0.0131
 43
0.0131
 50
0.000
  0
INSERT
  2
BOLTHEAD
  8
CHBOLTHD
 10
4.6161
 20
0.8760
 30
0.0000
 41
0.0131
 42
0.0131
 43
0.0131
 50
18.000
  0
INSERT
  2
L1L
  8
CHMARKER
 10
4.5669
 20
0.9449
 30
-0.0980
 41
0.0131
 42
0.0131
 43
0.0131
 50
0.000
  0
INSERT
  2
BOLTBOSS
  8
CHBOLTBO
 10
4.5177
 20
1.5598
 30
0.0000
 41
0.0131
 42
0.0131
 43
0.0131
 50
0.000
  0
INSERT
  2
BOLTHEAD
  8
CHBOLTHD
 10
4.5177
 20
1.5598
 30
0.0000
 41
0.0131
 42
0.0131
 43
0.0131
 50
22.000
  0
INSERT
  2
BOLTBOSS
  8
CHBOLTBO
 10
4.6161
 20
1.5598
 30
0.0000
 41
0.0131
 42
0.0131
 43
0.0131
 50
0.000
  0
INSERT
  2
BOLTHEAD
  8
CHBOLTHD
 10
4.6161
 20
1.5598
 30
0.0000
 41
0.0131
 42
0.0131
 43
0.0131
 50
26.000
  0
INSERT
  2
BOLTBOSS
  8
CHBOLTBO
 10
4.5177
 20
1.6516
 30
0.0000
 41
0.0131
 42
0.0131
 43
0.0131
 50
0.000
  0
INSERT
  2
BOLTHEAD
  8
CHBOLTHD
 10
4.5177
 20
1.6516
 30
0.0000
 41
0.0131
 42
0.0131
 43
0.0131
 50
83.000
  0
INSERT
  2
BOLTBOSS
  8
CHBOLTBO
 10
4.6161
 20
1.6516
 30
0.0000
 41
0.0131
 42
0.0131
 43
0.0131
 50
0.000
  0
INSERT
  2
BOLTHEAD
  8
CHBOLTHD
 10
4.6161
 20
1.6516
 30
0.0000
 41
0.0131
 42
0.0131
 43
0.0131
 50
38.000
  0
INSERT
  2
L1R
  8
CHMARKER
 10
4.5669
 20
1.5827
 30
-0.0980
 41
0.0131
 42
0.0131
 43
0.0131
 50
0.000
  0
INSERT
  2
BOLTBOSS
  8
CHBOLTBO
 10
4.5148
 20
1.1157
 30
0.0000
 41
0.0131
 42
0.0131
 43
0.0131
 50
0.000
  0
INSERT
  2
BOLTHEAD
  8
CHBOLTHD
 10
4.5148
 20
1.1157
 30
0.0000
 41
0.0131
 42
0.0131
 43
0.0131
 50
29.000
  0
INSERT
  2
BOLTBOSS
  8
CHBOLTBO
 10
4.6132
 20
1.1220
 30
0.0000
 41
0.0131
 42
0.0131
 43
0.0131
 50
0.000
  0
INSERT
  2
BOLTHEAD
  8
CHBOLTHD
 10
4.6132
 20
1.1220
 30
0.0000
 41
0.0131
 42
0.0131
 43
0.0131
 50
72.000
  0
INSERT
  2
BOLTBOSS
  8
CHBOLTBO
 10
4.5207
 20
1.0240
 30
0.0000
 41
0.0131
 42
0.0131
 43
0.0131
 50
0.000
  0
INSERT
  2
BOLTHEAD
  8
CHBOLTHD
 10
4.5207
 20
1.0240
 30
0.0000
 41
0.0131
 42
0.0131
 43
0.0131
 50
55.000
  0
INSERT
  2
BOLTBOSS
  8
CHBOLTBO
 10
4.6191
 20
1.0303
 30
0.0000
 41
0.0131
 42
0.0131
 43
0.0131
 50
0.000
  0
INSERT
  2
BOLTHEAD
  8
CHBOLTHD
 10
4.6191
 20
1.0303
 30
0.0000
 41
0.0131
 42
0.0131
 43
0.0131
 50
46.000
  0
INSERT
  2
L1L
  8
CHMARKER
 10
4.5656
 20
1.0961
 30
-0.0980
 41
0.0131
 42
0.0131
 43
0.0131
 50
3.677
  0
INSERT
  2
BOLTBOSS
  8
CHBOLTBO
 10
4.5207
 20
1.7091
 30
0.0000
 41
0.0131
 42
0.0131
 43
0.0131
 50
0.000
  0
INSERT
  2
BOLTHEAD
  8
CHBOLTHD
 10
4.5207
 20
1.7091
 30
0.0000
 41
0.0131
 42
0.0131
 43
0.0131
 50
41.000
  0
INSERT
  2
BOLTBOSS
  8
CHBOLTBO
 10
4.6191
 20
1.7156
 30
0.0000
 41
0.0131
 42
0.0131
 43
0.0131
 50
0.000
  0
INSERT
  2
BOLTHEAD
  8
CHBOLTHD
 10
4.6191
 20
1.7156
 30
0.0000
 41
0.0131
 42
0.0131
 43
0.0131
 50
79.000
  0
INSERT
  2
BOLTBOSS
  8
CHBOLTBO
 10
4.5148
 20
1.8008
 30
0.0000
 41
0.0131
 42
0.0131
 43
0.0131
 50
0.000
  0
INSERT
  2
BOLTHEAD
  8
CHBOLTHD
 10
4.5148
 20
1.8008
 30
0.0000
 41
0.0131
 42
0.0131
 43
0.0131
 50
39.000
  0
INSERT
  2
BOLTBOSS
  8
CHBOLTBO
 10
4.6132
 20
1.8071
 30
0.0000
 41
0.0131
 42
0.0131
 43
0.0131
 50
0.000
  0
INSERT
  2
BOLTHEAD
  8
CHBOLTHD
 10
4.6132
 20
1.8071
 30
0.0000
 41
0.0131
 42
0.0131
 43
0.0131
 50
3.000
  0
INSERT
  2
L1R
  8
CHMARKER
 10
4.5685
 20
1.7352
 30
-0.0980
 41
0.0131
 42
0.0131
 43
0.0131
 50
3.890
  0
3DFACE
  8
TIMBER3D
 10
4.8031
 20
0.6339
 30
-0.0980
 11
4.8031
 21
2.0512
 31
-0.0980
 12
4.9606
 22
2.0512
 32
-0.0980
 13
4.9606
 23
0.6339
 33
-0.0980
  0
3DFACE
  8
TIMBER3D
 10
4.8031
 20
0.6339
 30
-0.1636
 11
4.8031
 21
2.0512
 31
-0.1636
 12
4.9606
 22
2.0512
 32
-0.1636
 13
4.9606
 23
0.6339
 33
-0.1636
  0
3DFACE
  8
TIMBER3D
 10
4.8031
 20
0.6339
 30
-0.0980
 11
4.9606
 21
0.6339
 31
-0.0980
 12
4.9606
 22
0.6339
 32
-0.1636
 13
4.8031
 23
0.6339
 33
-0.1636
  0
3DFACE
  8
TIMBER3D
 10
4.8031
 20
2.0512
 30
-0.0980
 11
4.9606
 21
2.0512
 31
-0.0980
 12
4.9606
 22
2.0512
 32
-0.1636
 13
4.8031
 23
2.0512
 33
-0.1636
  0
3DFACE
  8
TIMBER3D
 10
4.8031
 20
0.6339
 30
-0.0980
 11
4.8031
 21
2.0512
 31
-0.0980
 12
4.8031
 22
2.0512
 32
-0.1636
 13
4.8031
 23
0.6339
 33
-0.1636
  0
3DFACE
  8
TIMBER3D
 10
4.9606
 20
0.6339
 30
-0.0980
 11
4.9606
 21
2.0512
 31
-0.0980
 12
4.9606
 22
2.0512
 32
-0.1636
 13
4.9606
 23
0.6339
 33
-0.1636
  0
INSERT
  2
BOLTBOSS
  8
CHBOLTBO
 10
4.8327
 20
0.9677
 30
0.0000
 41
0.0131
 42
0.0131
 43
0.0131
 50
0.000
  0
INSERT
  2
BOLTHEAD
  8
CHBOLTHD
 10
4.8327
 20
0.9677
 30
0.0000
 41
0.0131
 42
0.0131
 43
0.0131
 50
75.000
  0
INSERT
  2
BOLTBOSS
  8
CHBOLTBO
 10
4.9311
 20
0.9677
 30
0.0000
 41
0.0131
 42
0.0131
 43
0.0131
 50
0.000
  0
INSERT
  2
BOLTHEAD
  8
CHBOLTHD
 10
4.9311
 20
0.9677
 30
0.0000
 41
0.0131
 42
0.0131
 43
0.0131
 50
43.000
  0
INSERT
  2
BOLTBOSS
  8
CHBOLTBO
 10
4.8327
 20
0.8760
 30
0.0000
 41
0.0131
 42
0.0131
 43
0.0131
 50
0.000
  0
INSERT
  2
BOLTHEAD
  8
CHBOLTHD
 10
4.8327
 20
0.8760
 30
0.0000
 41
0.0131
 42
0.0131
 43
0.0131
 50
30.000
  0
INSERT
  2
BOLTBOSS
  8
CHBOLTBO
 10
4.9311
 20
0.8760
 30
0.0000
 41
0.0131
 42
0.0131
 43
0.0131
 50
0.000
  0
INSERT
  2
BOLTHEAD
  8
CHBOLTHD
 10
4.9311
 20
0.8760
 30
0.0000
 41
0.0131
 42
0.0131
 43
0.0131
 50
15.000
  0
INSERT
  2
L1L
  8
CHMARKER
 10
4.8819
 20
0.9449
 30
-0.0980
 41
0.0131
 42
0.0131
 43
0.0131
 50
0.000
  0
INSERT
  2
BOLTBOSS
  8
CHBOLTBO
 10
4.8327
 20
1.5598
 30
0.0000
 41
0.0131
 42
0.0131
 43
0.0131
 50
0.000
  0
INSERT
  2
BOLTHEAD
  8
CHBOLTHD
 10
4.8327
 20
1.5598
 30
0.0000
 41
0.0131
 42
0.0131
 43
0.0131
 50
37.000
  0
INSERT
  2
BOLTBOSS
  8
CHBOLTBO
 10
4.9311
 20
1.5598
 30
0.0000
 41
0.0131
 42
0.0131
 43
0.0131
 50
0.000
  0
INSERT
  2
BOLTHEAD
  8
CHBOLTHD
 10
4.9311
 20
1.5598
 30
0.0000
 41
0.0131
 42
0.0131
 43
0.0131
 50
79.000
  0
INSERT
  2
BOLTBOSS
  8
CHBOLTBO
 10
4.8327
 20
1.6516
 30
0.0000
 41
0.0131
 42
0.0131
 43
0.0131
 50
0.000
  0
INSERT
  2
BOLTHEAD
  8
CHBOLTHD
 10
4.8327
 20
1.6516
 30
0.0000
 41
0.0131
 42
0.0131
 43
0.0131
 50
16.000
  0
INSERT
  2
BOLTBOSS
  8
CHBOLTBO
 10
4.9311
 20
1.6516
 30
0.0000
 41
0.0131
 42
0.0131
 43
0.0131
 50
0.000
  0
INSERT
  2
BOLTHEAD
  8
CHBOLTHD
 10
4.9311
 20
1.6516
 30
0.0000
 41
0.0131
 42
0.0131
 43
0.0131
 50
46.000
  0
INSERT
  2
L1R
  8
CHMARKER
 10
4.8819
 20
1.5827
 30
-0.0980
 41
0.0131
 42
0.0131
 43
0.0131
 50
0.000
  0
INSERT
  2
BOLTBOSS
  8
CHBOLTBO
 10
4.8293
 20
1.1368
 30
0.0000
 41
0.0131
 42
0.0131
 43
0.0131
 50
0.000
  0
INSERT
  2
BOLTHEAD
  8
CHBOLTHD
 10
4.8293
 20
1.1368
 30
0.0000
 41
0.0131
 42
0.0131
 43
0.0131
 50
50.000
  0
INSERT
  2
BOLTBOSS
  8
CHBOLTBO
 10
4.9278
 20
1.1439
 30
0.0000
 41
0.0131
 42
0.0131
 43
0.0131
 50
0.000
  0
INSERT
  2
BOLTHEAD
  8
CHBOLTHD
 10
4.9278
 20
1.1439
 30
0.0000
 41
0.0131
 42
0.0131
 43
0.0131
 50
69.000
  0
INSERT
  2
BOLTBOSS
  8
CHBOLTBO
 10
4.8360
 20
1.0453
 30
0.0000
 41
0.0131
 42
0.0131
 43
0.0131
 50
0.000
  0
INSERT
  2
BOLTHEAD
  8
CHBOLTHD
 10
4.8360
 20
1.0453
 30
0.0000
 41
0.0131
 42
0.0131
 43
0.0131
 50
68.000
  0
INSERT
  2
BOLTBOSS
  8
CHBOLTBO
 10
4.9344
 20
1.0524
 30
0.0000
 41
0.0131
 42
0.0131
 43
0.0131
 50
0.000
  0
INSERT
  2
BOLTHEAD
  8
CHBOLTHD
 10
4.9344
 20
1.0524
 30
0.0000
 41
0.0131
 42
0.0131
 43
0.0131
 50
45.000
  0
INSERT
  2
L1L
  8
CHMARKER
 10
4.8801
 20
1.1173
 30
-0.0980
 41
0.0131
 42
0.0131
 43
0.0131
 50
4.135
  0
INSERT
  2
BOLTBOSS
  8
CHBOLTBO
 10
4.8362
 20
1.7307
 30
0.0000
 41
0.0131
 42
0.0131
 43
0.0131
 50
0.000
  0
INSERT
  2
BOLTHEAD
  8
CHBOLTHD
 10
4.8362
 20
1.7307
 30
0.0000
 41
0.0131
 42
0.0131
 43
0.0131
 50
23.000
  0
INSERT
  2
BOLTBOSS
  8
CHBOLTBO
 10
4.9344
 20
1.7380
 30
0.0000
 41
0.0131
 42
0.0131
 43
0.0131
 50
0.000
  0
INSERT
  2
BOLTHEAD
  8
CHBOLTHD
 10
4.9344
 20
1.7380
 30
0.0000
 41
0.0131
 42
0.0131
 43
0.0131
 50
17.000
  0
INSERT
  2
BOLTBOSS
  8
CHBOLTBO
 10
4.8293
 20
1.8222
 30
0.0000
 41
0.0131
 42
0.0131
 43
0.0131
 50
0.000
  0
INSERT
  2
BOLTHEAD
  8
CHBOLTHD
 10
4.8293
 20
1.8222
 30
0.0000
 41
0.0131
 42
0.0131
 43
0.0131
 50
78.000
  0
INSERT
  2
BOLTBOSS
  8
CHBOLTBO
 10
4.9276
 20
1.8295
 30
0.0000
 41
0.0131
 42
0.0131
 43
0.0131
 50
0.000
  0
INSERT
  2
BOLTHEAD
  8
CHBOLTHD
 10
4.9276
 20
1.8295
 30
0.0000
 41
0.0131
 42
0.0131
 43
0.0131
 50
75.000
  0
INSERT
  2
L1R
  8
CHMARKER
 10
4.8837
 20
1.7573
 30
-0.0980
 41
0.0131
 42
0.0131
 43
0.0131
 50
4.364
  0
3DFACE
  8
TIMBER3D
 10
5.1874
 20
0.6339
 30
-0.0980
 11
5.1874
 21
2.1299
 31
-0.0980
 12
5.3449
 22
2.1299
 32
-0.0980
 13
5.3449
 23
0.6339
 33
-0.0980
  0
3DFACE
  8
TIMBER3D
 10
5.1874
 20
0.6339
 30
-0.1636
 11
5.1874
 21
2.1299
 31
-0.1636
 12
5.3449
 22
2.1299
 32
-0.1636
 13
5.3449
 23
0.6339
 33
-0.1636
  0
3DFACE
  8
TIMBER3D
 10
5.1874
 20
0.6339
 30
-0.0980
 11
5.3449
 21
0.6339
 31
-0.0980
 12
5.3449
 22
0.6339
 32
-0.1636
 13
5.1874
 23
0.6339
 33
-0.1636
  0
3DFACE
  8
TIMBER3D
 10
5.1874
 20
2.1299
 30
-0.0980
 11
5.3449
 21
2.1299
 31
-0.0980
 12
5.3449
 22
2.1299
 32
-0.1636
 13
5.1874
 23
2.1299
 33
-0.1636
  0
3DFACE
  8
TIMBER3D
 10
5.1874
 20
0.6339
 30
-0.0980
 11
5.1874
 21
2.1299
 31
-0.0980
 12
5.1874
 22
2.1299
 32
-0.1636
 13
5.1874
 23
0.6339
 33
-0.1636
  0
3DFACE
  8
TIMBER3D
 10
5.3449
 20
0.6339
 30
-0.0980
 11
5.3449
 21
2.1299
 31
-0.0980
 12
5.3449
 22
2.1299
 32
-0.1636
 13
5.3449
 23
0.6339
 33
-0.1636
  0
INSERT
  2
BOLTBOSS
  8
CHBOLTBO
 10
5.2400
 20
0.9909
 30
0.0000
 41
0.0131
 42
0.0131
 43
0.0131
 50
0.000
  0
INSERT
  2
BOLTHEAD
  8
CHBOLTHD
 10
5.2400
 20
0.9909
 30
0.0000
 41
0.0131
 42
0.0131
 43
0.0131
 50
17.000
  0
INSERT
  2
BOLTBOSS
  8
CHBOLTBO
 10
5.2925
 20
0.9909
 30
0.0000
 41
0.0131
 42
0.0131
 43
0.0131
 50
0.000
  0
INSERT
  2
BOLTHEAD
  8
CHBOLTHD
 10
5.2925
 20
0.9909
 30
0.0000
 41
0.0131
 42
0.0131
 43
0.0131
 50
10.000
  0
INSERT
  2
BOLTBOSS
  8
CHBOLTBO
 10
5.2663
 20
0.8465
 30
0.0000
 41
0.0131
 42
0.0131
 43
0.0131
 50
0.000
  0
INSERT
  2
BOLTHEAD
  8
CHBOLTHD
 10
5.2663
 20
0.8465
 30
0.0000
 41
0.0131
 42
0.0131
 43
0.0131
 50
58.000
  0
INSERT
  2
S1L
  8
CHMARKER
 10
5.2661
 20
0.9449
 30
-0.0980
 41
0.0131
 42
0.0131
 43
0.0131
 50
0.000
  0
INSERT
  2
BOLTBOSS
  8
CHBOLTBO
 10
5.2400
 20
1.5366
 30
0.0000
 41
0.0131
 42
0.0131
 43
0.0131
 50
0.000
  0
INSERT
  2
BOLTHEAD
  8
CHBOLTHD
 10
5.2400
 20
1.5366
 30
0.0000
 41
0.0131
 42
0.0131
 43
0.0131
 50
25.000
  0
INSERT
  2
BOLTBOSS
  8
CHBOLTBO
 10
5.2925
 20
1.5366
 30
0.0000
 41
0.0131
 42
0.0131
 43
0.0131
 50
0.000
  0
INSERT
  2
BOLTHEAD
  8
CHBOLTHD
 10
5.2925
 20
1.5366
 30
0.0000
 41
0.0131
 42
0.0131
 43
0.0131
 50
68.000
  0
INSERT
  2
BOLTBOSS
  8
CHBOLTBO
 10
5.2663
 20
1.6811
 30
0.0000
 41
0.0131
 42
0.0131
 43
0.0131
 50
0.000
  0
INSERT
  2
BOLTHEAD
  8
CHBOLTHD
 10
5.2663
 20
1.6811
 30
0.0000
 41
0.0131
 42
0.0131
 43
0.0131
 50
70.000
  0
INSERT
  2
S1R
  8
CHMARKER
 10
5.2661
 20
1.5827
 30
-0.0980
 41
0.0131
 42
0.0131
 43
0.0131
 50
0.000
  0
INSERT
  2
BOLTBOSS
  8
CHBOLTBO
 10
5.2134
 20
1.1663
 30
0.0000
 41
0.0131
 42
0.0131
 43
0.0131
 50
0.000
  0
INSERT
  2
BOLTHEAD
  8
CHBOLTHD
 10
5.2134
 20
1.1663
 30
0.0000
 41
0.0131
 42
0.0131
 43
0.0131
 50
65.000
  0
INSERT
  2
BOLTBOSS
  8
CHBOLTBO
 10
5.3116
 20
1.1746
 30
0.0000
 41
0.0131
 42
0.0131
 43
0.0131
 50
0.000
  0
INSERT
  2
BOLTHEAD
  8
CHBOLTHD
 10
5.3116
 20
1.1746
 30
0.0000
 41
0.0131
 42
0.0131
 43
0.0131
 50
66.000
  0
INSERT
  2
BOLTBOSS
  8
CHBOLTBO
 10
5.2211
 20
1.0748
 30
0.0000
 41
0.0131
 42
0.0131
 43
0.0131
 50
0.000
  0
INSERT
  2
BOLTHEAD
  8
CHBOLTHD
 10
5.2211
 20
1.0748
 30
0.0000
 41
0.0131
 42
0.0131
 43
0.0131
 50
11.000
  0
INSERT
  2
BOLTBOSS
  8
CHBOLTBO
 10
5.3191
 20
1.0831
 30
0.0000
 41
0.0131
 42
0.0131
 43
0.0131
 50
0.000
  0
INSERT
  2
BOLTHEAD
  8
CHBOLTHD
 10
5.3191
 20
1.0831
 30
0.0000
 41
0.0131
 42
0.0131
 43
0.0131
 50
16.000
  0
INSERT
  2
L1L
  8
CHMARKER
 10
5.2644
 20
1.1474
 30
-0.0980
 41
0.0131
 42
0.0131
 43
0.0131
 50
4.821
  0
INSERT
  2
BOLTBOSS
  8
CHBOLTBO
 10
5.2211
 20
1.7608
 30
0.0000
 41
0.0131
 42
0.0131
 43
0.0131
 50
0.000
  0
INSERT
  2
BOLTHEAD
  8
CHBOLTHD
 10
5.2211
 20
1.7608
 30
0.0000
 41
0.0131
 42
0.0131
 43
0.0131
 50
88.000
  0
INSERT
  2
BOLTBOSS
  8
CHBOLTBO
 10
5.3191
 20
1.7695
 30
0.0000
 41
0.0131
 42
0.0131
 43
0.0131
 50
0.000
  0
INSERT
  2
BOLTHEAD
  8
CHBOLTHD
 10
5.3191
 20
1.7695
 30
0.0000
 41
0.0131
 42
0.0131
 43
0.0131
 50
32.000
  0
INSERT
  2
BOLTBOSS
  8
CHBOLTBO
 10
5.2132
 20
1.8526
 30
0.0000
 41
0.0131
 42
0.0131
 43
0.0131
 50
0.000
  0
INSERT
  2
BOLTHEAD
  8
CHBOLTHD
 10
5.2132
 20
1.8526
 30
0.0000
 41
0.0131
 42
0.0131
 43
0.0131
 50
77.000
  0
INSERT
  2
BOLTBOSS
  8
CHBOLTBO
 10
5.3114
 20
1.8608
 30
0.0000
 41
0.0131
 42
0.0131
 43
0.0131
 50
0.000
  0
INSERT
  2
BOLTHEAD
  8
CHBOLTHD
 10
5.3114
 20
1.8608
 30
0.0000
 41
0.0131
 42
0.0131
 43
0.0131
 50
22.000
  0
INSERT
  2
L1R
  8
CHMARKER
 10
5.2683
 20
1.7880
 30
-0.0980
 41
0.0131
 42
0.0131
 43
0.0131
 50
4.821
  0
3DFACE
  8
TIMBER3D
 10
5.5720
 20
0.6339
 30
-0.0980
 11
5.5720
 21
2.1299
 31
-0.0980
 12
5.7295
 22
2.1299
 32
-0.0980
 13
5.7295
 23
0.6339
 33
-0.0980
  0
3DFACE
  8
TIMBER3D
 10
5.5720
 20
0.6339
 30
-0.1636
 11
5.5720
 21
2.1299
 31
-0.1636
 12
5.7295
 22
2.1299
 32
-0.1636
 13
5.7295
 23
0.6339
 33
-0.1636
  0
3DFACE
  8
TIMBER3D
 10
5.5720
 20
0.6339
 30
-0.0980
 11
5.7295
 21
0.6339
 31
-0.0980
 12
5.7295
 22
0.6339
 32
-0.1636
 13
5.5720
 23
0.6339
 33
-0.1636
  0
3DFACE
  8
TIMBER3D
 10
5.5720
 20
2.1299
 30
-0.0980
 11
5.7295
 21
2.1299
 31
-0.0980
 12
5.7295
 22
2.1299
 32
-0.1636
 13
5.5720
 23
2.1299
 33
-0.1636
  0
3DFACE
  8
TIMBER3D
 10
5.5720
 20
0.6339
 30
-0.0980
 11
5.5720
 21
2.1299
 31
-0.0980
 12
5.5720
 22
2.1299
 32
-0.1636
 13
5.5720
 23
0.6339
 33
-0.1636
  0
3DFACE
  8
TIMBER3D
 10
5.7295
 20
0.6339
 30
-0.0980
 11
5.7295
 21
2.1299
 31
-0.0980
 12
5.7295
 22
2.1299
 32
-0.1636
 13
5.7295
 23
0.6339
 33
-0.1636
  0
INSERT
  2
BOLTBOSS
  8
CHBOLTBO
 10
5.6244
 20
0.9909
 30
0.0000
 41
0.0131
 42
0.0131
 43
0.0131
 50
0.000
  0
INSERT
  2
BOLTHEAD
  8
CHBOLTHD
 10
5.6244
 20
0.9909
 30
0.0000
 41
0.0131
 42
0.0131
 43
0.0131
 50
8.000
  0
INSERT
  2
BOLTBOSS
  8
CHBOLTBO
 10
5.6770
 20
0.9909
 30
0.0000
 41
0.0131
 42
0.0131
 43
0.0131
 50
0.000
  0
INSERT
  2
BOLTHEAD
  8
CHBOLTHD
 10
5.6770
 20
0.9909
 30
0.0000
 41
0.0131
 42
0.0131
 43
0.0131
 50
6.000
  0
INSERT
  2
BOLTBOSS
  8
CHBOLTBO
 10
5.6506
 20
0.8465
 30
0.0000
 41
0.0131
 42
0.0131
 43
0.0131
 50
0.000
  0
INSERT
  2
BOLTHEAD
  8
CHBOLTHD
 10
5.6506
 20
0.8465
 30
0.0000
 41
0.0131
 42
0.0131
 43
0.0131
 50
54.000
  0
INSERT
  2
S1L
  8
CHMARKER
 10
5.6508
 20
0.9449
 30
-0.0980
 41
0.0131
 42
0.0131
 43
0.0131
 50
0.000
  0
INSERT
  2
BOLTBOSS
  8
CHBOLTBO
 10
5.6244
 20
1.5366
 30
0.0000
 41
0.0131
 42
0.0131
 43
0.0131
 50
0.000
  0
INSERT
  2
BOLTHEAD
  8
CHBOLTHD
 10
5.6244
 20
1.5366
 30
0.0000
 41
0.0131
 42
0.0131
 43
0.0131
 50
60.000
  0
INSERT
  2
BOLTBOSS
  8
CHBOLTBO
 10
5.6770
 20
1.5366
 30
0.0000
 41
0.0131
 42
0.0131
 43
0.0131
 50
0.000
  0
INSERT
  2
BOLTHEAD
  8
CHBOLTHD
 10
5.6770
 20
1.5366
 30
0.0000
 41
0.0131
 42
0.0131
 43
0.0131
 50
81.000
  0
INSERT
  2
BOLTBOSS
  8
CHBOLTBO
 10
5.6506
 20
1.6811
 30
0.0000
 41
0.0131
 42
0.0131
 43
0.0131
 50
0.000
  0
INSERT
  2
BOLTHEAD
  8
CHBOLTHD
 10
5.6506
 20
1.6811
 30
0.0000
 41
0.0131
 42
0.0131
 43
0.0131
 50
0.000
  0
INSERT
  2
S1R
  8
CHMARKER
 10
5.6508
 20
1.5827
 30
-0.0980
 41
0.0131
 42
0.0131
 43
0.0131
 50
0.000
  0
INSERT
  2
BOLTBOSS
  8
CHBOLTBO
 10
5.6177
 20
1.2252
 30
0.0000
 41
0.0131
 42
0.0131
 43
0.0131
 50
0.000
  0
INSERT
  2
BOLTHEAD
  8
CHBOLTHD
 10
5.6177
 20
1.2252
 30
0.0000
 41
0.0131
 42
0.0131
 43
0.0131
 50
89.000
  0
INSERT
  2
BOLTBOSS
  8
CHBOLTBO
 10
5.6699
 20
1.2301
 30
0.0000
 41
0.0131
 42
0.0131
 43
0.0131
 50
0.000
  0
INSERT
  2
BOLTHEAD
  8
CHBOLTHD
 10
5.6699
 20
1.2301
 30
0.0000
 41
0.0131
 42
0.0131
 43
0.0131
 50
34.000
  0
INSERT
  2
BOLTBOSS
  8
CHBOLTBO
 10
5.6575
 20
1.0841
 30
0.0000
 41
0.0131
 42
0.0131
 43
0.0131
 50
0.000
  0
INSERT
  2
BOLTHEAD
  8
CHBOLTHD
 10
5.6575
 20
1.0841
 30
0.0000
 41
0.0131
 42
0.0131
 43
0.0131
 50
40.000
  0
INSERT
  2
S1L
  8
CHMARKER
 10
5.6482
 20
1.1821
 30
-0.0980
 41
0.0131
 42
0.0131
 43
0.0131
 50
5.454
  0
INSERT
  2
BOLTBOSS
  8
CHBOLTBO
 10
5.6315
 20
1.7750
 30
0.0000
 41
0.0131
 42
0.0131
 43
0.0131
 50
0.000
  0
INSERT
  2
BOLTHEAD
  8
CHBOLTHD
 10
5.6315
 20
1.7750
 30
0.0000
 41
0.0131
 42
0.0131
 43
0.0131
 50
44.000
  0
INSERT
  2
BOLTBOSS
  8
CHBOLTBO
 10
5.6837
 20
1.7799
 30
0.0000
 41
0.0131
 42
0.0131
 43
0.0131
 50
0.000
  0
INSERT
  2
BOLTHEAD
  8
CHBOLTHD
 10
5.6837
 20
1.7799
 30
0.0000
 41
0.0131
 42
0.0131
 43
0.0131
 50
59.000
  0
INSERT
  2
BOLTBOSS
  8
CHBOLTBO
 10
5.6437
 20
1.9211
 30
0.0000
 41
0.0131
 42
0.0131
 43
0.0131
 50
0.000
  0
INSERT
  2
BOLTHEAD
  8
CHBOLTHD
 10
5.6437
 20
1.9211
 30
0.0000
 41
0.0131
 42
0.0131
 43
0.0131
 50
15.000
  0
INSERT
  2
S1R
  8
CHMARKER
 10
5.6533
 20
1.8230
 30
-0.0980
 41
0.0131
 42
0.0131
 43
0.0131
 50
5.454
  0
3DFACE
  8
TIMBER3D
 10
5.9563
 20
0.6339
 30
-0.0980
 11
5.9563
 21
2.2087
 31
-0.0980
 12
6.1138
 22
2.2087
 32
-0.0980
 13
6.1138
 23
0.6339
 33
-0.0980
  0
3DFACE
  8
TIMBER3D
 10
5.9563
 20
0.6339
 30
-0.1636
 11
5.9563
 21
2.2087
 31
-0.1636
 12
6.1138
 22
2.2087
 32
-0.1636
 13
6.1138
 23
0.6339
 33
-0.1636
  0
3DFACE
  8
TIMBER3D
 10
5.9563
 20
0.6339
 30
-0.0980
 11
6.1138
 21
0.6339
 31
-0.0980
 12
6.1138
 22
0.6339
 32
-0.1636
 13
5.9563
 23
0.6339
 33
-0.1636
  0
3DFACE
  8
TIMBER3D
 10
5.9563
 20
2.2087
 30
-0.0980
 11
6.1138
 21
2.2087
 31
-0.0980
 12
6.1138
 22
2.2087
 32
-0.1636
 13
5.9563
 23
2.2087
 33
-0.1636
  0
3DFACE
  8
TIMBER3D
 10
5.9563
 20
0.6339
 30
-0.0980
 11
5.9563
 21
2.2087
 31
-0.0980
 12
5.9563
 22
2.2087
 32
-0.1636
 13
5.9563
 23
0.6339
 33
-0.1636
  0
3DFACE
  8
TIMBER3D
 10
6.1138
 20
0.6339
 30
-0.0980
 11
6.1138
 21
2.2087
 31
-0.0980
 12
6.1138
 22
2.2087
 32
-0.1636
 13
6.1138
 23
0.6339
 33
-0.1636
  0
INSERT
  2
BOLTBOSS
  8
CHBOLTBO
 10
6.0089
 20
0.9909
 30
0.0000
 41
0.0131
 42
0.0131
 43
0.0131
 50
0.000
  0
INSERT
  2
BOLTHEAD
  8
CHBOLTHD
 10
6.0089
 20
0.9909
 30
0.0000
 41
0.0131
 42
0.0131
 43
0.0131
 50
15.000
  0
INSERT
  2
BOLTBOSS
  8
CHBOLTBO
 10
6.0612
 20
0.9909
 30
0.0000
 41
0.0131
 42
0.0131
 43
0.0131
 50
0.000
  0
INSERT
  2
BOLTHEAD
  8
CHBOLTHD
 10
6.0612
 20
0.9909
 30
0.0000
 41
0.0131
 42
0.0131
 43
0.0131
 50
61.000
  0
INSERT
  2
BOLTBOSS
  8
CHBOLTBO
 10
6.0350
 20
0.8465
 30
0.0000
 41
0.0131
 42
0.0131
 43
0.0131
 50
0.000
  0
INSERT
  2
BOLTHEAD
  8
CHBOLTHD
 10
6.0350
 20
0.8465
 30
0.0000
 41
0.0131
 42
0.0131
 43
0.0131
 50
15.000
  0
INSERT
  2
S1L
  8
CHMARKER
 10
6.0350
 20
0.9449
 30
-0.0980
 41
0.0131
 42
0.0131
 43
0.0131
 50
0.000
  0
INSERT
  2
BOLTBOSS
  8
CHBOLTBO
 10
6.0089
 20
1.5366
 30
0.0000
 41
0.0131
 42
0.0131
 43
0.0131
 50
0.000
  0
INSERT
  2
BOLTHEAD
  8
CHBOLTHD
 10
6.0089
 20
1.5366
 30
0.0000
 41
0.0131
 42
0.0131
 43
0.0131
 50
77.000
  0
INSERT
  2
BOLTBOSS
  8
CHBOLTBO
 10
6.0612
 20
1.5366
 30
0.0000
 41
0.0131
 42
0.0131
 43
0.0131
 50
0.000
  0
INSERT
  2
BOLTHEAD
  8
CHBOLTHD
 10
6.0612
 20
1.5366
 30
0.0000
 41
0.0131
 42
0.0131
 43
0.0131
 50
57.000
  0
INSERT
  2
BOLTBOSS
  8
CHBOLTBO
 10
6.0350
 20
1.6811
 30
0.0000
 41
0.0131
 42
0.0131
 43
0.0131
 50
0.000
  0
INSERT
  2
BOLTHEAD
  8
CHBOLTHD
 10
6.0350
 20
1.6811
 30
0.0000
 41
0.0131
 42
0.0131
 43
0.0131
 50
81.000
  0
INSERT
  2
S1R
  8
CHMARKER
 10
6.0350
 20
1.5827
 30
-0.0980
 41
0.0131
 42
0.0131
 43
0.0131
 50
0.000
  0
INSERT
  2
BOLTBOSS
  8
CHBOLTBO
 10
6.0014
 20
1.2634
 30
0.0000
 41
0.0131
 42
0.0131
 43
0.0131
 50
0.000
  0
INSERT
  2
BOLTHEAD
  8
CHBOLTHD
 10
6.0014
 20
1.2634
 30
0.0000
 41
0.0131
 42
0.0131
 43
0.0131
 50
86.000
  0
INSERT
  2
BOLTBOSS
  8
CHBOLTBO
 10
6.0535
 20
1.2689
 30
0.0000
 41
0.0131
 42
0.0131
 43
0.0131
 50
0.000
  0
INSERT
  2
BOLTHEAD
  8
CHBOLTHD
 10
6.0535
 20
1.2689
 30
0.0000
 41
0.0131
 42
0.0131
 43
0.0131
 50
12.000
  0
INSERT
  2
BOLTBOSS
  8
CHBOLTBO
 10
6.0427
 20
1.1226
 30
0.0000
 41
0.0131
 42
0.0131
 43
0.0131
 50
0.000
  0
INSERT
  2
BOLTHEAD
  8
CHBOLTHD
 10
6.0427
 20
1.1226
 30
0.0000
 41
0.0131
 42
0.0131
 43
0.0131
 50
70.000
  0
INSERT
  2
S1L
  8
CHMARKER
 10
6.0323
 20
1.2207
 30
-0.0980
 41
0.0131
 42
0.0131
 43
0.0131
 50
6.054
  0
INSERT
  2
BOLTBOSS
  8
CHBOLTBO
 10
6.0167
 20
1.8142
 30
0.0000
 41
0.0131
 42
0.0131
 43
0.0131
 50
0.000
  0
INSERT
  2
BOLTHEAD
  8
CHBOLTHD
 10
6.0167
 20
1.8142
 30
0.0000
 41
0.0131
 42
0.0131
 43
0.0131
 50
40.000
  0
INSERT
  2
BOLTBOSS
  8
CHBOLTBO
 10
6.0689
 20
1.8197
 30
0.0000
 41
0.0131
 42
0.0131
 43
0.0131
 50
0.000
  0
INSERT
  2
BOLTHEAD
  8
CHBOLTHD
 10
6.0689
 20
1.8197
 30
0.0000
 41
0.0131
 42
0.0131
 43
0.0131
 50
88.000
  0
INSERT
  2
BOLTBOSS
  8
CHBOLTBO
 10
6.0274
 20
1.9604
 30
0.0000
 41
0.0131
 42
0.0131
 43
0.0131
 50
0.000
  0
INSERT
  2
BOLTHEAD
  8
CHBOLTHD
 10
6.0274
 20
1.9604
 30
0.0000
 41
0.0131
 42
0.0131
 43
0.0131
 50
82.000
  0
INSERT
  2
S1R
  8
CHMARKER
 10
6.0380
 20
1.8626
 30
-0.0980
 41
0.0131
 42
0.0131
 43
0.0131
 50
6.309
  0
3DFACE
  8
TIMBER3D
 10
6.3406
 20
0.6339
 30
-0.0980
 11
6.3406
 21
2.2087
 31
-0.0980
 12
6.4980
 22
2.2087
 32
-0.0980
 13
6.4980
 23
0.6339
 33
-0.0980
  0
3DFACE
  8
TIMBER3D
 10
6.3406
 20
0.6339
 30
-0.1636
 11
6.3406
 21
2.2087
 31
-0.1636
 12
6.4980
 22
2.2087
 32
-0.1636
 13
6.4980
 23
0.6339
 33
-0.1636
  0
3DFACE
  8
TIMBER3D
 10
6.3406
 20
0.6339
 30
-0.0980
 11
6.4980
 21
0.6339
 31
-0.0980
 12
6.4980
 22
0.6339
 32
-0.1636
 13
6.3406
 23
0.6339
 33
-0.1636
  0
3DFACE
  8
TIMBER3D
 10
6.3406
 20
2.2087
 30
-0.0980
 11
6.4980
 21
2.2087
 31
-0.0980
 12
6.4980
 22
2.2087
 32
-0.1636
 13
6.3406
 23
2.2087
 33
-0.1636
  0
3DFACE
  8
TIMBER3D
 10
6.3406
 20
0.6339
 30
-0.0980
 11
6.3406
 21
2.2087
 31
-0.0980
 12
6.3406
 22
2.2087
 32
-0.1636
 13
6.3406
 23
0.6339
 33
-0.1636
  0
3DFACE
  8
TIMBER3D
 10
6.4980
 20
0.6339
 30
-0.0980
 11
6.4980
 21
2.2087
 31
-0.0980
 12
6.4980
 22
2.2087
 32
-0.1636
 13
6.4980
 23
0.6339
 33
-0.1636
  0
INSERT
  2
BOLTBOSS
  8
CHBOLTBO
 10
6.3931
 20
0.9909
 30
0.0000
 41
0.0131
 42
0.0131
 43
0.0131
 50
0.000
  0
INSERT
  2
BOLTHEAD
  8
CHBOLTHD
 10
6.3931
 20
0.9909
 30
0.0000
 41
0.0131
 42
0.0131
 43
0.0131
 50
42.000
  0
INSERT
  2
BOLTBOSS
  8
CHBOLTBO
 10
6.4457
 20
0.9909
 30
0.0000
 41
0.0131
 42
0.0131
 43
0.0131
 50
0.000
  0
INSERT
  2
BOLTHEAD
  8
CHBOLTHD
 10
6.4457
 20
0.9909
 30
0.0000
 41
0.0131
 42
0.0131
 43
0.0131
 50
27.000
  0
INSERT
  2
BOLTBOSS
  8
CHBOLTBO
 10
6.4195
 20
0.8465
 30
0.0000
 41
0.0131
 42
0.0131
 43
0.0131
 50
0.000
  0
INSERT
  2
BOLTHEAD
  8
CHBOLTHD
 10
6.4195
 20
0.8465
 30
0.0000
 41
0.0131
 42
0.0131
 43
0.0131
 50
33.000
  0
INSERT
  2
S1L
  8
CHMARKER
 10
6.4193
 20
0.9449
 30
-0.0980
 41
0.0131
 42
0.0131
 43
0.0131
 50
0.000
  0
INSERT
  2
BOLTBOSS
  8
CHBOLTBO
 10
6.3931
 20
1.5366
 30
0.0000
 41
0.0131
 42
0.0131
 43
0.0131
 50
0.000
  0
INSERT
  2
BOLTHEAD
  8
CHBOLTHD
 10
6.3931
 20
1.5366
 30
0.0000
 41
0.0131
 42
0.0131
 43
0.0131
 50
74.000
  0
INSERT
  2
BOLTBOSS
  8
CHBOLTBO
 10
6.4457
 20
1.5366
 30
0.0000
 41
0.0131
 42
0.0131
 43
0.0131
 50
0.000
  0
INSERT
  2
BOLTHEAD
  8
CHBOLTHD
 10
6.4457
 20
1.5366
 30
0.0000
 41
0.0131
 42
0.0131
 43
0.0131
 50
89.000
  0
INSERT
  2
BOLTBOSS
  8
CHBOLTBO
 10
6.4195
 20
1.6811
 30
0.0000
 41
0.0131
 42
0.0131
 43
0.0131
 50
0.000
  0
INSERT
  2
BOLTHEAD
  8
CHBOLTHD
 10
6.4195
 20
1.6811
 30
0.0000
 41
0.0131
 42
0.0131
 43
0.0131
 50
83.000
  0
INSERT
  2
S1R
  8
CHMARKER
 10
6.4193
 20
1.5827
 30
-0.0980
 41
0.0131
 42
0.0131
 43
0.0131
 50
0.000
  0
INSERT
  2
BOLTBOSS
  8
CHBOLTBO
 10
6.3848
 20
1.3059
 30
0.0000
 41
0.0131
 42
0.0131
 43
0.0131
 50
0.000
  0
INSERT
  2
BOLTHEAD
  8
CHBOLTHD
 10
6.3848
 20
1.3059
 30
0.0000
 41
0.0131
 42
0.0131
 43
0.0131
 50
30.000
  0
INSERT
  2
BOLTBOSS
  8
CHBOLTBO
 10
6.4372
 20
1.3122
 30
0.0000
 41
0.0131
 42
0.0131
 43
0.0131
 50
0.000
  0
INSERT
  2
BOLTHEAD
  8
CHBOLTHD
 10
6.4372
 20
1.3122
 30
0.0000
 41
0.0131
 42
0.0131
 43
0.0131
 50
14.000
  0
INSERT
  2
BOLTBOSS
  8
CHBOLTBO
 10
6.4278
 20
1.1657
 30
0.0000
 41
0.0131
 42
0.0131
 43
0.0131
 50
0.000
  0
INSERT
  2
BOLTHEAD
  8
CHBOLTHD
 10
6.4278
 20
1.1657
 30
0.0000
 41
0.0131
 42
0.0131
 43
0.0131
 50
56.000
  0
INSERT
  2
S1L
  8
CHMARKER
 10
6.4163
 20
1.2634
 30
-0.0980
 41
0.0131
 42
0.0131
 43
0.0131
 50
6.877
  0
INSERT
  2
BOLTBOSS
  8
CHBOLTBO
 10
6.4018
 20
1.8575
 30
0.0000
 41
0.0131
 42
0.0131
 43
0.0131
 50
0.000
  0
INSERT
  2
BOLTHEAD
  8
CHBOLTHD
 10
6.4018
 20
1.8575
 30
0.0000
 41
0.0131
 42
0.0131
 43
0.0131
 50
29.000
  0
INSERT
  2
BOLTBOSS
  8
CHBOLTBO
 10
6.4541
 20
1.8638
 30
0.0000
 41
0.0131
 42
0.0131
 43
0.0131
 50
0.000
  0
INSERT
  2
BOLTHEAD
  8
CHBOLTHD
 10
6.4541
 20
1.8638
 30
0.0000
 41
0.0131
 42
0.0131
 43
0.0131
 50
31.000
  0
INSERT
  2
BOLTBOSS
  8
CHBOLTBO
 10
6.4108
 20
2.0039
 30
0.0000
 41
0.0131
 42
0.0131
 43
0.0131
 50
0.000
  0
INSERT
  2
BOLTHEAD
  8
CHBOLTHD
 10
6.4108
 20
2.0039
 30
0.0000
 41
0.0131
 42
0.0131
 43
0.0131
 50
38.000
  0
INSERT
  2
S1R
  8
CHMARKER
 10
6.4224
 20
1.9063
 30
-0.0980
 41
0.0131
 42
0.0131
 43
0.0131
 50
6.911
  0
3DFACE
  8
TIMBER3D
 10
6.7252
 20
0.6339
 30
-0.0980
 11
6.7252
 21
2.2874
 31
-0.0980
 12
6.8827
 22
2.2874
 32
-0.0980
 13
6.8827
 23
0.6339
 33
-0.0980
  0
3DFACE
  8
TIMBER3D
 10
6.7252
 20
0.6339
 30
-0.1636
 11
6.7252
 21
2.2874
 31
-0.1636
 12
6.8827
 22
2.2874
 32
-0.1636
 13
6.8827
 23
0.6339
 33
-0.1636
  0
3DFACE
  8
TIMBER3D
 10
6.7252
 20
0.6339
 30
-0.0980
 11
6.8827
 21
0.6339
 31
-0.0980
 12
6.8827
 22
0.6339
 32
-0.1636
 13
6.7252
 23
0.6339
 33
-0.1636
  0
3DFACE
  8
TIMBER3D
 10
6.7252
 20
2.2874
 30
-0.0980
 11
6.8827
 21
2.2874
 31
-0.0980
 12
6.8827
 22
2.2874
 32
-0.1636
 13
6.7252
 23
2.2874
 33
-0.1636
  0
3DFACE
  8
TIMBER3D
 10
6.7252
 20
0.6339
 30
-0.0980
 11
6.7252
 21
2.2874
 31
-0.0980
 12
6.7252
 22
2.2874
 32
-0.1636
 13
6.7252
 23
0.6339
 33
-0.1636
  0
3DFACE
  8
TIMBER3D
 10
6.8827
 20
0.6339
 30
-0.0980
 11
6.8827
 21
2.2874
 31
-0.0980
 12
6.8827
 22
2.2874
 32
-0.1636
 13
6.8827
 23
0.6339
 33
-0.1636
  0
INSERT
  2
BOLTBOSS
  8
CHBOLTBO
 10
6.7776
 20
0.9909
 30
0.0000
 41
0.0131
 42
0.0131
 43
0.0131
 50
0.000
  0
INSERT
  2
BOLTHEAD
  8
CHBOLTHD
 10
6.7776
 20
0.9909
 30
0.0000
 41
0.0131
 42
0.0131
 43
0.0131
 50
53.000
  0
INSERT
  2
BOLTBOSS
  8
CHBOLTBO
 10
6.8301
 20
0.9909
 30
0.0000
 41
0.0131
 42
0.0131
 43
0.0131
 50
0.000
  0
INSERT
  2
BOLTHEAD
  8
CHBOLTHD
 10
6.8301
 20
0.9909
 30
0.0000
 41
0.0131
 42
0.0131
 43
0.0131
 50
71.000
  0
INSERT
  2
BOLTBOSS
  8
CHBOLTBO
 10
6.8037
 20
0.8465
 30
0.0000
 41
0.0131
 42
0.0131
 43
0.0131
 50
0.000
  0
INSERT
  2
BOLTHEAD
  8
CHBOLTHD
 10
6.8037
 20
0.8465
 30
0.0000
 41
0.0131
 42
0.0131
 43
0.0131
 50
89.000
  0
INSERT
  2
S1L
  8
CHMARKER
 10
6.8039
 20
0.9449
 30
-0.0980
 41
0.0131
 42
0.0131
 43
0.0131
 50
0.000
  0
INSERT
  2
BOLTBOSS
  8
CHBOLTBO
 10
6.7776
 20
1.5366
 30
0.0000
 41
0.0131
 42
0.0131
 43
0.0131
 50
0.000
  0
INSERT
  2
BOLTHEAD
  8
CHBOLTHD
 10
6.7776
 20
1.5366
 30
0.0000
 41
0.0131
 42
0.0131
 43
0.0131
 50
35.000
  0
INSERT
  2
BOLTBOSS
  8
CHBOLTBO
 10
6.8301
 20
1.5366
 30
0.0000
 41
0.0131
 42
0.0131
 43
0.0131
 50
0.000
  0
INSERT
  2
BOLTHEAD
  8
CHBOLTHD
 10
6.8301
 20
1.5366
 30
0.0000
 41
0.0131
 42
0.0131
 43
0.0131
 50
75.000
  0
INSERT
  2
BOLTBOSS
  8
CHBOLTBO
 10
6.8037
 20
1.6811
 30
0.0000
 41
0.0131
 42
0.0131
 43
0.0131
 50
0.000
  0
INSERT
  2
BOLTHEAD
  8
CHBOLTHD
 10
6.8037
 20
1.6811
 30
0.0000
 41
0.0131
 42
0.0131
 43
0.0131
 50
21.000
  0
INSERT
  2
S1R
  8
CHMARKER
 10
6.8039
 20
1.5827
 30
-0.0980
 41
0.0131
 42
0.0131
 43
0.0131
 50
0.000
  0
INSERT
  2
BOLTBOSS
  8
CHBOLTBO
 10
6.7687
 20
1.3528
 30
0.0000
 41
0.0131
 42
0.0131
 43
0.0131
 50
0.000
  0
INSERT
  2
BOLTHEAD
  8
CHBOLTHD
 10
6.7687
 20
1.3528
 30
0.0000
 41
0.0131
 42
0.0131
 43
0.0131
 50
20.000
  0
INSERT
  2
BOLTBOSS
  8
CHBOLTBO
 10
6.8207
 20
1.3594
 30
0.0000
 41
0.0131
 42
0.0131
 43
0.0131
 50
0.000
  0
INSERT
  2
BOLTHEAD
  8
CHBOLTHD
 10
6.8207
 20
1.3594
 30
0.0000
 41
0.0131
 42
0.0131
 43
0.0131
 50
11.000
  0
INSERT
  2
BOLTBOSS
  8
CHBOLTBO
 10
6.8132
 20
1.2130
 30
0.0000
 41
0.0131
 42
0.0131
 43
0.0131
 50
0.000
  0
INSERT
  2
BOLTHEAD
  8
CHBOLTHD
 10
6.8132
 20
1.2130
 30
0.0000
 41
0.0131
 42
0.0131
 43
0.0131
 50
50.000
  0
INSERT
  2
S1L
  8
CHMARKER
 10
6.8004
 20
1.3104
 30
-0.0980
 41
0.0131
 42
0.0131
 43
0.0131
 50
7.196
  0
INSERT
  2
BOLTBOSS
  8
CHBOLTBO
 10
6.7872
 20
1.9055
 30
0.0000
 41
0.0131
 42
0.0131
 43
0.0131
 50
0.000
  0
INSERT
  2
BOLTHEAD
  8
CHBOLTHD
 10
6.7872
 20
1.9055
 30
0.0000
 41
0.0131
 42
0.0131
 43
0.0131
 50
77.000
  0
INSERT
  2
BOLTBOSS
  8
CHBOLTBO
 10
6.8392
 20
1.9124
 30
0.0000
 41
0.0131
 42
0.0131
 43
0.0131
 50
0.000
  0
INSERT
  2
BOLTHEAD
  8
CHBOLTHD
 10
6.8392
 20
1.9124
 30
0.0000
 41
0.0131
 42
0.0131
 43
0.0131
 50
88.000
  0
INSERT
  2
BOLTBOSS
  8
CHBOLTBO
 10
6.7943
 20
2.0520
 30
0.0000
 41
0.0131
 42
0.0131
 43
0.0131
 50
0.000
  0
INSERT
  2
BOLTHEAD
  8
CHBOLTHD
 10
6.7943
 20
2.0520
 30
0.0000
 41
0.0131
 42
0.0131
 43
0.0131
 50
47.000
  0
INSERT
  2
S1R
  8
CHMARKER
 10
6.8071
 20
1.9543
 30
-0.0980
 41
0.0131
 42
0.0131
 43
0.0131
 50
7.481
  0
ENDSEC
  0
EOF
