  0
SECTION
  2
HEADER
  9
$ACADVER
  1
AC1009
  9
$INSBASE
 10
0.0
 20
0.0
 30
0.0
  9
$EXTMIN
 10
21514.702040754211
 20
13727.16666666667
 30
0.0
  9
$EXTMAX
 10
66315.474163863299
 20
50589.489237482187
 30
0.0
  9
$LIMMIN
 10
0.0
 20
0.0
  9
$LIMMAX
 10
53600.0
 20
41400.0
  9
$ORTHOMODE
 70
     0
  9
$REGENMODE
 70
     1
  9
$FILLMODE
 70
     1
  9
$QTEXTMODE
 70
     0
  9
$MIRRTEXT
 70
     0
  9
$DRAGMODE
 70
     2
  9
$LTSCALE
 40
2.5
  9
$OSMODE
 70
   165
  9
$ATTMODE
 70
     1
  9
$TEXTSIZE
 40
25.0
  9
$TRACEWID
 40
0.5
  9
$TEXTSTYLE
  7
ARCH-DIM
  9
$CLAYER
  8
BASEBOARD
  9
$CELTYPE
  6
BYLAYER
  9
$CECOLOR
 62
   256
  9
$DIMSCALE
 40
25.0
  9
$DIMASZ
 40
0.3499999999999992
  9
$DIMEXO
 40
0.4999999999999992
  9
$DIMDLI
 40
9.0999999999999943
  9
$DIMRND
 40
0.0
  9
$DIMDLE
 40
0.0
  9
$DIMEXE
 40
0.7499999999999993
  9
$DIMTP
 40
0.0
  9
$DIMTM
 40
0.0
  9
$DIMTXT
 40
0.5999999999999992
  9
$DIMCEN
 40
5.0
  9
$DIMTSZ
 40
0.0
  9
$DIMTOL
 70
     0
  9
$DIMLIM
 70
     0
  9
$DIMTIH
 70
     0
  9
$DIMTOH
 70
     0
  9
$DIMSE1
 70
     0
  9
$DIMSE2
 70
     0
  9
$DIMTAD
 70
     1
  9
$DIMZIN
 70
     3
  9
$DIMBLK
  1
DOT
  9
$DIMASO
 70
     1
  9
$DIMSHO
 70
     1
  9
$DIMPOST
  1

  9
$DIMAPOST
  1

  9
$DIMALT
 70
     0
  9
$DIMALTD
 70
     2
  9
$DIMALTF
 40
25.399999999999999
  9
$DIMLFAC
 40
1.0
  9
$DIMTOFL
 70
     1
  9
$DIMTVP
 40
0.0
  9
$DIMTIX
 70
     1
  9
$DIMSOXD
 70
     0
  9
$DIMSAH
 70
     0
  9
$DIMBLK1
  1

  9
$DIMBLK2
  1

  9
$DIMSTYLE
  2
AEC-ARCH-M-100
  9
$DIMCLRD
 70
     0
  9
$DIMCLRE
 70
     0
  9
$DIMCLRT
 70
     0
  9
$DIMTFAC
 40
0.75
  9
$DIMGAP
 40
0.5
  9
$LUNITS
 70
     2
  9
$LUPREC
 70
     2
  9
$SKETCHINC
 40
1.0
  9
$FILLETRAD
 40
0.0
  9
$AUNITS
 70
     0
  9
$AUPREC
 70
     2
  9
$MENU
  1
.
  9
$ELEVATION
 40
0.0
  9
$PELEVATION
 40
0.0
  9
$THICKNESS
 40
0.0
  9
$LIMCHECK
 70
     0
  9
$BLIPMODE
 70
     0
  9
$CHAMFERA
 40
0.0
  9
$CHAMFERB
 40
0.0
  9
$SKPOLY
 70
     0
  9
$TDCREATE
 40
2453753.7942484031
  9
$TDUPDATE
 40
2459155.7892656359
  9
$TDINDWG
 40
67.182249201399998
  9
$TDUSRTIMER
 40
67.182248483799995
  9
$USRTIMER
 70
     1
  9
$ANGBASE
 50
0.0
  9
$ANGDIR
 70
     0
  9
$PDMODE
 70
     0
  9
$PDSIZE
 40
0.0
  9
$PLINEWID
 40
0.0
  9
$COORDS
 70
     1
  9
$SPLFRAME
 70
     0
  9
$SPLINETYPE
 70
     6
  9
$SPLINESEGS
 70
     8
  9
$ATTDIA
 70
     0
  9
$ATTREQ
 70
     1
  9
$HANDLING
 70
     1
  9
$HANDSEED
  5
81AE7
  9
$SURFTAB1
 70
     6
  9
$SURFTAB2
 70
     6
  9
$SURFTYPE
 70
     6
  9
$SURFU
 70
     6
  9
$SURFV
 70
     6
  9
$UCSNAME
  2

  9
$UCSORG
 10
0.0
 20
0.0
 30
0.0
  9
$UCSXDIR
 10
1.0
 20
0.0
 30
0.0
  9
$UCSYDIR
 10
0.0
 20
1.0
 30
0.0
  9
$PUCSNAME
  2

  9
$PUCSORG
 10
0.0
 20
0.0
 30
0.0
  9
$PUCSXDIR
 10
1.0
 20
0.0
 30
0.0
  9
$PUCSYDIR
 10
0.0
 20
1.0
 30
0.0
  9
$USERI1
 70
     0
  9
$USERI2
 70
     0
  9
$USERI3
 70
     0
  9
$USERI4
 70
     0
  9
$USERI5
 70
     0
  9
$USERR1
 40
0.0
  9
$USERR2
 40
0.0
  9
$USERR3
 40
0.0
  9
$USERR4
 40
0.0
  9
$USERR5
 40
0.0
  9
$WORLDVIEW
 70
     1
  9
$SHADEDGE
 70
     3
  9
$SHADEDIF
 70
    70
  9
$TILEMODE
 70
     1
  9
$MAXACTVP
 70
    64
  9
$PLIMCHECK
 70
     0
  9
$PEXTMIN
 10
0.0
 20
0.0
 30
0.0
  9
$PEXTMAX
 10
826.0
 20
554.0
 30
0.0
  9
$PLIMMIN
 10
-5.7937498092651349
 20
-17.79375076293945
  9
$PLIMMAX
 10
835.20625019073475
 20
576.20624923706043
  9
$UNITMODE
 70
     0
  9
$VISRETAIN
 70
     1
  9
$PLINEGEN
 70
     0
  9
$PSLTSCALE
 70
     0
  0
ENDSEC
  0
SECTION
  2
TABLES
  0
TABLE
  2
VPORT
 70
     1
  0
VPORT
  2
*ACTIVE
 70
     0
 10
0.0
 20
0.0
 11
1.0
 21
1.0
 12
25217.94181544986
 22
49793.847433596267
 13
0.0
 23
0.0
 14
1.0
 24
1.0
 15
100.0
 25
100.0
 16
0.0
 26
0.0
 36
1.0
 17
0.0
 27
0.0
 37
0.0
 40
4122.0360003891356
 41
1.730829420970265
 42
50.0
 43
0.0
 44
0.0
 50
0.0
 51
0.0
 71
     0
 72
 20000
 73
     1
 74
     1
 75
     0
 76
     0
 77
     0
 78
     0
  0
ENDTAB
  0
TABLE
  2
LTYPE
 70
     7
  0
LTYPE
  2
CONTINUOUS
 70
     0
  3
Solid line
 72
    65
 73
     0
 40
0.0
  0
LTYPE
  2
HIDDEN2
 70
     0
  3
Hidden (.5x) _ _ _ _ _ _ _ _ _ _ _ _ _ _ _ _ _
 72
    65
 73
     2
 40
4.7624999999999984
 49
3.174999999999998
 49
-1.587499999999999
  0
LTYPE
  2
PHANTOM2
 70
     0
  3
Phantom (.5x) ___ _ _ ___ _ _ ___ _ _ ___ _ _
 72
    65
 73
     6
 40
31.75
 49
15.875
 49
-3.174999999999998
 49
3.174999999999998
 49
-3.174999999999998
 49
3.174999999999998
 49
-3.174999999999998
  0
LTYPE
  2
CENTER2
 70
     0
  3
Center (.5x) ___ _ ___ _ ___ _ ___ _ ___ _ ___
 72
    65
 73
     4
 40
28.574999999999999
 49
19.050000000000001
 49
-3.174999999999998
 49
3.174999999999998
 49
-3.174999999999998
  0
LTYPE
  2
DASHDOTX2
 70
     0
  3
Dash dot (2x) ____  .  ____  .  ____  .  ___
 72
    65
 73
     4
 40
50.799999999999997
 49
25.399999999999999
 49
-12.699999999999999
 49
0.0
 49
-12.699999999999999
  0
LTYPE
  2
DASHED
 70
     0
  3
Dashed __ __ __ __ __ __ __ __ __ __ __ __ __ _
 72
    65
 73
     2
 40
19.050000000000001
 49
12.699999999999999
 49
-6.349999999999997
  0
ENDTAB
  0
TABLE
  2
LAYER
 70
    42
  0
LAYER
  2
0
 70
     0
 62
     7
  6
CONTINUOUS
  0
LAYER
  2
BASEBOARD
 70
     0
 62
     4
  6
CONTINUOUS
  0
LAYER
  2
G-ANNO-VIEW
 70
     0
 62
   161
  6
CONTINUOUS
  0
LAYER
  2
G-ANNO-NPLT
 70
     0
 62
   140
  6
CONTINUOUS
  0
LAYER
  2
A-ANNO-TITL-NPLT
 70
     0
 62
   200
  6
CONTINUOUS
  0
LAYER
  2
A-ANNO-TITL-OTLN
 70
     0
 62
   236
  6
CONTINUOUS
  0
LAYER
  2
A-ANNO-TITL-LINE
 70
     0
 62
   234
  6
CONTINUOUS
  0
LAYER
  2
A-ANNO-TITL
 70
     0
 62
   233
  6
CONTINUOUS
  0
LAYER
  2
A-ANNO-TITL-BDRY
 70
     0
 62
   239
  6
CONTINUOUS
  0
LAYER
  2
A-ANNO-TITL-NOTE
 70
     0
 62
   231
  6
CONTINUOUS
  0
LAYER
  2
A-ANNO-TITL-THIN
 70
     0
 62
   231
  6
CONTINUOUS
  0
LAYER
  2
DEFPOINTS
 70
     0
 62
     7
  6
CONTINUOUS
  0
LAYER
  2
A-ANNO-SCRN
 70
     0
 62
   250
  6
CONTINUOUS
  0
LAYER
  2
A-ANNOTATION-000
 70
     0
 62
   140
  6
CONTINUOUS
  0
LAYER
  2
A-REVISION-T
 70
     0
 62
   213
  6
CONTINUOUS
  0
LAYER
  2
A-DIMLINE-D
 70
     0
 62
   221
  6
CONTINUOUS
  0
LAYER
  2
GRID
 70
     0
 62
  -252
  6
CONTINUOUS
  0
LAYER
  2
TRACK
 70
     0
 62
     1
  6
CONTINUOUS
  0
LAYER
  2
POINT_NOS
 70
     0
 62
   142
  6
CONTINUOUS
  0
LAYER
  2
STRUCTURES
 70
     0
 62
     7
  6
CONTINUOUS
  0
LAYER
  2
TRACK_CL
 70
     0
 62
     6
  6
CONTINUOUS
  0
LAYER
  2
DIMENSIONS
 70
     0
 62
   252
  6
CONTINUOUS
  0
LAYER
  2
BASE_0_25
 70
     0
 62
     3
  6
CONTINUOUS
  0
LAYER
  2
TEXT
 70
     0
 62
     7
  6
CONTINUOUS
  0
LAYER
  2
FRAME
 70
     0
 62
     3
  6
CONTINUOUS
  0
LAYER
  2
ROOM
 70
     0
 62
     7
  6
CONTINUOUS
  0
LAYER
  2
BASE_0_5
 70
     0
 62
     7
  6
CONTINUOUS
  0
LAYER
  2
PRINT_TEMPLATE
 70
     0
 62
     7
  6
CONTINUOUS
  0
LAYER
  2
BASE_0_09
 70
     0
 62
   251
  6
CONTINUOUS
  0
LAYER
  2
BOARD_NOS
 70
     0
 62
     7
  6
CONTINUOUS
  0
LAYER
  2
SIGNALS
 70
     0
 62
     7
  6
CONTINUOUS
  0
LAYER
  2
SWITCHES
 70
     0
 62
     4
  6
CONTINUOUS
  0
LAYER
  2
HATCH
 70
     0
 62
     4
  6
CONTINUOUS
  0
LAYER
  2
WIRE_TRACK
 70
     0
 62
     1
  6
CONTINUOUS
  0
LAYER
  2
WIRE_POINT
 70
     0
 62
   142
  6
CONTINUOUS
  0
LAYER
  2
WIRE_SIGNAL
 70
     0
 62
     3
  6
CONTINUOUS
  0
LAYER
  2
WIRE_TAGS
 70
     0
 62
     7
  6
CONTINUOUS
  0
LAYER
  2
SECTION_NAMES
 70
     0
 62
     1
  6
CONTINUOUS
  0
LAYER
  2
SWITCH_BASES
 70
     0
 62
   252
  6
CONTINUOUS
  0
LAYER
  2
SWITCH_NUMBERS
 70
     0
 62
     7
  6
CONTINUOUS
  0
LAYER
  2
CASSETTES
 70
     0
 62
     3
  6
CONTINUOUS
  0
LAYER
  2
SIGNAL_NOS
 70
     0
 62
     3
  6
CONTINUOUS
  0
ENDTAB
  0
TABLE
  2
STYLE
 70
     7
  0
STYLE
  2
STANDARD
 70
     0
 40
0.0
 41
1.0
 50
0.0
 71
     0
 42
0.2
  3
txt
  4

  0
STYLE
  2
ARCH-DIM
 70
     0
 40
25.0
 41
0.75
 50
0.0
 71
     0
 42
25.0
  3
romans.shx
  4

  0
STYLE
  2
ROMANS
 70
     0
 40
0.0
 41
1.0
 50
0.0
 71
     0
 42
2.5
  3
romans.shx
  4

  0
STYLE
  2
TITLE-NORMAL
 70
     0
 40
0.0
 41
0.75
 50
0.0
 71
     0
 42
0.25
  3
txt
  4

  0
STYLE
  2
TITLE-FINE
 70
     0
 40
0.0
 41
0.75
 50
0.0
 71
     0
 42
0.125
  3
romans.shx
  4

  0
STYLE
  2
SCHEDULE-HEADER
 70
     0
 40
0.0
 41
1.0
 50
0.0
 71
     0
 42
0.09375
  3
txt
  4

  0
STYLE
  2

 70
     1
 40
0.0
 41
1.0
 50
0.0
 71
     0
 42
2.5
  3
ltypeshp.shx
  4

  0
ENDTAB
  0
TABLE
  2
VIEW
 70
     0
  0
ENDTAB
  0
TABLE
  2
UCS
 70
     0
  0
ENDTAB
  0
TABLE
  2
APPID
 70
    33
  0
APPID
  2
ACAD
 70
     0
  0
APPID
  2
ADCADD_ZZ
 70
     0
  0
APPID
  2
SDSK_PMN
 70
     0
  0
APPID
  2
AECBASE
 70
     0
  0
APPID
  2
AEC_DWGVARSSETUP_DATA
 70
     0
  0
APPID
  2
AEC_DISPREPCONFIG_DATA
 70
     0
  0
APPID
  2
AEC_DISPREPSET_DATA
 70
     0
  0
APPID
  2
ACAECLAYERSTANDARD
 70
     0
  0
APPID
  2
AEC_TEXTNOTE_DATA
 70
     0
  0
APPID
  2
AEC_URLDATA
 70
     0
  0
APPID
  2
AVE_RENDER
 70
     0
  0
APPID
  2
AVE_ENTITY_MATERIAL
 70
     0
  0
APPID
  2
AVE_FINISH
 70
     0
  0
APPID
  2
AVE_MATERIAL
 70
     0
  0
APPID
  2
AVE_GLOBAL
 70
     0
  0
APPID
  2
ADCADD_MATERIAL
 70
     0
  0
APPID
  2
ADCADD_KEYNOTES
 70
     0
  0
APPID
  2
ACAD_PSEXT
 70
     0
  0
APPID
  2
AEC_OBJVER_INFO
 70
     0
  0
APPID
  2
AEC_OBJVER_IGNORE
 70
     0
  0
APPID
  2
ACAD_DSTYLE_DIM_LINETYPE
 70
     0
  0
APPID
  2
ACAD_DSTYLE_DIM_EXT1_LINETYPE
 70
     0
  0
APPID
  2
ACAD_DSTYLE_DIM_EXT2_LINETYPE
 70
     0
  0
APPID
  2
ACAD_EXEMPT_FROM_CAD_STANDARDS
 70
     0
  0
APPID
  2
ACAD_DSTYLE_DIMJOGGED_JOGA
 70
     0
  0
APPID
  2
ACDBBLOCKREPETAG
 70
     0
  0
APPID
  2
ACDBDYNAMICBLOCKTRUENAME
 70
     0
  0
APPID
  2
ACDBDYNAMICBLOCKGUID
 70
     0
  0
APPID
  2
ACDBBLOCKREPBTAG
 70
     0
  0
APPID
  2
MANULPOINTSASSOCIATIVE
 70
     0
  0
APPID
  2
ACAD_NAV_VCDISPLAY
 70
     0
  0
APPID
  2
ACAD_MLEADERVER
 70
     0
  0
APPID
  2
CONTENTBLOCKICON
 70
     0
  0
ENDTAB
  0
TABLE
  2
DIMSTYLE
 70
    10
  0
DIMSTYLE
  2
STANDARD
 70
     0
  3

  4

  5

  6

  7

 40
1.0
 41
0.18
 42
0.0625
 43
0.38
 44
0.18
 45
0.0
 46
0.0
 47
0.0
 48
0.0
140
0.1
141
0.09
142
0.0
143
25.399999999999999
144
1.0
145
0.0
146
1.0
147
0.09
 71
     0
 72
     0
 73
     1
 74
     1
 75
     0
 76
     0
 77
     0
 78
     0
170
     0
171
     2
172
     0
173
     0
174
     0
175
     0
176
     0
177
     0
178
     0
  0
DIMSTYLE
  2
AEC-ARCH-M-100
 70
     0
  3

  4

  5

  6

  7

 40
25.0
 41
0.3499999999999992
 42
0.4999999999999992
 43
9.0999999999999943
 44
0.7499999999999993
 45
0.0
 46
0.0
 47
0.0
 48
0.0
140
0.5999999999999992
141
5.0
142
0.0
143
25.399999999999999
144
1.0
145
0.0
146
0.75
147
0.5
 71
     0
 72
     0
 73
     0
 74
     0
 75
     0
 76
     0
 77
     1
 78
     3
170
     0
171
     2
172
     1
173
     0
174
     1
175
     0
176
     0
177
     0
178
     0
  0
DIMSTYLE
  2
STAIRS_I
 70
     0
  3

  4

  5

  6

  7

 40
100.0
 41
2.5
 42
1.5
 43
9.5
 44
1.5
 45
0.0
 46
0.0
 47
0.0
 48
0.0
140
2.5
141
2.5
142
0.0
143
25.399999999999999
144
1.0
145
0.0
146
0.75
147
0.8
 71
     0
 72
     0
 73
     0
 74
     1
 75
     0
 76
     0
 77
     1
 78
     3
170
     0
171
     2
172
     1
173
     1
174
     1
175
     0
176
     0
177
     0
178
     0
  0
DIMSTYLE
  2
AEC-ARCH-M-50
 70
     0
  3

  4

  5

  6

  7

 40
50.0
 41
1.5
 42
1.5
 43
9.5
 44
1.5
 45
0.0
 46
0.0
 47
0.0
 48
0.0
140
2.5
141
2.5
142
0.0
143
25.399999999999999
144
1.0
145
0.0
146
0.75
147
0.8
 71
     0
 72
     0
 73
     0
 74
     0
 75
     0
 76
     0
 77
     1
 78
     3
170
     0
171
     2
172
     1
173
     0
174
     1
175
     0
176
     0
177
     0
178
     0
  0
DIMSTYLE
  2
AEC-ARCH-M-200
 70
     0
  3

  4

  5

  6

  7

 40
200.0
 41
1.5
 42
1.5
 43
9.5
 44
1.5
 45
0.0
 46
0.0
 47
0.0
 48
0.0
140
2.5
141
2.5
142
0.0
143
25.399999999999999
144
1.0
145
0.0
146
0.75
147
0.8
 71
     0
 72
     0
 73
     0
 74
     0
 75
     0
 76
     0
 77
     1
 78
     3
170
     0
171
     2
172
     1
173
     0
174
     1
175
     0
176
     0
177
     0
178
     0
  0
DIMSTYLE
  2
AEC_STAIR_M
 70
     0
  3

  4

  5

  6

  7

 40
100.0
 41
2.5
 42
0.625
 43
3.75
 44
1.25
 45
0.0
 46
0.0
 47
0.0
 48
0.0
140
2.5
141
2.5
142
0.0
143
0.03937007874016
144
1.0
145
0.0
146
1.0
147
0.625
 71
     0
 72
     0
 73
     0
 74
     0
 75
     0
 76
     0
 77
     1
 78
     8
170
     0
171
     3
172
     1
173
     1
174
     0
175
     0
176
     0
177
     0
178
     0
  0
DIMSTYLE
  2
AEC-ARCH-M-100$7
 70
     0
  3

  4

  5

  6

  7

 40
25.0
 41
0.3499999999999992
 42
0.4999999999999992
 43
9.0999999999999943
 44
0.7499999999999993
 45
0.0
 46
0.0
 47
0.0
 48
0.0
140
0.5999999999999992
141
5.0
142
0.0
143
25.399999999999999
144
1.0
145
0.0
146
0.75
147
0.5
 71
     0
 72
     0
 73
     0
 74
     0
 75
     0
 76
     0
 77
     0
 78
     3
170
     0
171
     2
172
     1
173
     0
174
     1
175
     0
176
     0
177
     0
178
     0
  0
DIMSTYLE
  2
AEC-ARCH-M-200$7
 70
     0
  3

  4

  5

  6

  7

 40
200.0
 41
1.5
 42
1.5
 43
9.5
 44
1.5
 45
0.0
 46
0.0
 47
0.0
 48
0.0
140
2.5
141
2.5
142
0.0
143
25.399999999999999
144
1.0
145
0.0
146
0.75
147
0.8
 71
     0
 72
     0
 73
     0
 74
     0
 75
     0
 76
     0
 77
     0
 78
     3
170
     0
171
     2
172
     1
173
     0
174
     1
175
     0
176
     0
177
     0
178
     0
  0
DIMSTYLE
  2
AEC-ARCH-M-50$7
 70
     0
  3

  4

  5

  6

  7

 40
50.0
 41
1.5
 42
1.5
 43
9.5
 44
1.5
 45
0.0
 46
0.0
 47
0.0
 48
0.0
140
2.5
141
2.5
142
0.0
143
25.399999999999999
144
1.0
145
0.0
146
0.75
147
0.8
 71
     0
 72
     0
 73
     0
 74
     0
 75
     0
 76
     0
 77
     0
 78
     3
170
     0
171
     2
172
     1
173
     0
174
     1
175
     0
176
     0
177
     0
178
     0
  0
ENDTAB
  0
ENDSEC
  0
SECTION
  2
BLOCKS
  0
BLOCK
  8
0
  2
$MODEL_SPACE
 70
     0
 10
0.0
 20
0.0
 30
0.0
  3
$MODEL_SPACE
  1

  0
ENDBLK
  5
815B8
  8
0
  0
BLOCK
 67
     1
  8
0
  2
$PAPER_SPACE
 70
     0
 10
0.0
 20
0.0
 30
0.0
  3
$PAPER_SPACE
  1

  0
ENDBLK
  5
815B4
 67
     1
  8
0
  0
BLOCK
  8
0
  2
_ARCHTICK
 70
     0
 10
0.0
 20
0.0
 30
0.0
  3
_ARCHTICK
  1

  0
POLYLINE
  5
1B5
  8
0
  6
BYBLOCK
 62
     0
 66
     1
 10
0.0
 20
0.0
 30
0.0
 40
0.150000081
 41
0.150000081
  0
VERTEX
  5
816E0
  8
0
  6
BYBLOCK
 62
     0
 10
-0.5000002699998734
 20
-0.5000002699998734
 30
0.0
  0
VERTEX
  5
816E1
  8
0
  6
BYBLOCK
 62
     0
 10
0.5000002699998734
 20
0.5000002699998734
 30
0.0
  0
SEQEND
  5
816E2
  8
0
  6
BYBLOCK
 62
     0
  0
ENDBLK
  5
1B7
  8
0
  0
BLOCK
  8
0
  2
_OPEN90
 70
     0
 10
0.0
 20
0.0
 30
0.0
  3
_OPEN90
  1

  0
LINE
  5
2E7
  8
0
  6
BYBLOCK
 62
     0
 10
-0.5000002699998734
 20
0.5000002699998734
 30
0.0
 11
0.0
 21
0.0
 31
0.0
  0
LINE
  5
2E8
  8
0
  6
BYBLOCK
 62
     0
 10
0.0
 20
0.0
 30
0.0
 11
-0.5000002699998734
 21
-0.5000002699998734
 31
0.0
  0
LINE
  5
2E9
  8
0
  6
BYBLOCK
 62
     0
 10
0.0
 20
0.0
 30
0.0
 11
-1.000000539999746
 21
0.0
 31
0.0
  0
ENDBLK
  5
2EB
  8
0
  0
BLOCK
  8
0
  2
_SMALL
 70
     0
 10
0.0
 20
0.0
 30
0.0
  3
_SMALL
  1

  0
CIRCLE
  5
1171
  8
0
 62
     0
 10
0.0
 20
0.0
 30
0.0
 40
0.25
  0
ENDBLK
  5
2F7
  8
0
  0
BLOCK
  8
0
  2
AEC_ISO_A0
 70
     2
 10
0.0
 20
0.0
 30
0.0
  3
AEC_ISO_A0
  1

  0
LINE
  5
C17
  8
A-ANNO-TITL-OTLN
 10
22.227991557297631
 20
815.21090420311327
 30
0.0
 11
1151.2279915572981
 21
815.21090420311327
 31
0.0
  0
LINE
  5
C18
  8
A-ANNO-TITL-OTLN
 10
22.227991557297631
 20
14.21090420311339
 30
0.0
 11
1151.2279915572981
 21
14.21090420311339
 31
0.0
  0
LINE
  5
C19
  8
A-ANNO-TITL-OTLN
 10
22.227991557297631
 20
815.21090420311327
 30
0.0
 11
22.227991557297631
 21
14.21090420311339
 31
0.0
  0
LINE
  5
C1A
  8
A-ANNO-TITL-THIN
 10
168.99942012872609
 20
14.21090420311339
 30
0.0
 11
168.99942012872609
 21
20.560904203113399
 31
0.0
  0
TEXT
  5
C1B
  8
A-ANNO-TITL
 10
93.043467747773704
 20
17.38590420311338
 30
0.0
 40
6.349999999999997
  1
1
  7
ROMANS
 72
     4
 11
95.613705843011786
 21
20.560904203113381
 31
0.0
  0
TEXT
  5
C1C
  8
A-ANNO-TITL
 10
24.269062985869098
 20
77.785904203113375
 30
0.0
 40
6.349999999999997
  1
A
  7
ROMANS
 72
     4
 11
26.99049155729767
 21
80.960904203113373
 31
0.0
  0
LINE
  5
C1D
  8
A-ANNO-TITL-THIN
 10
22.227991557297631
 20
147.71090420311339
 30
0.0
 11
28.57799155729754
 21
147.71090420311339
 31
0.0
  0
TEXT
  5
C1E
  8
A-ANNO-TITL
 10
23.664301081107201
 20
211.28590420311329
 30
0.0
 40
6.349999999999997
  1
B
  7
ROMANS
 72
     4
 11
26.99049155729767
 21
214.46090420311339
 31
0.0
  0
LINE
  5
C1F
  8
A-ANNO-TITL-THIN
 10
22.227991557297631
 20
281.21090420311339
 30
0.0
 11
28.57799155729754
 21
281.21090420311339
 31
0.0
  0
TEXT
  5
C20
  8
A-ANNO-TITL
 10
23.81549155729768
 20
344.78590420311338
 30
0.0
 40
6.349999999999997
  1
C
  7
ROMANS
 72
     4
 11
26.99049155729767
 21
347.96090420311339
 31
0.0
  0
TEXT
  5
C21
  8
A-ANNO-TITL
 10
386.13275346205938
 20
17.38590420311338
 30
0.0
 40
6.349999999999997
  1
3
  7
ROMANS
 72
     4
 11
389.1565629858689
 21
20.560904203113381
 31
0.0
  0
LINE
  5
C22
  8
A-ANNO-TITL-THIN
 10
315.7708487001546
 20
14.21090420311339
 30
0.0
 11
315.7708487001546
 21
20.560904203113381
 31
0.0
  0
TEXT
  5
C23
  8
A-ANNO-TITL
 10
239.36132489063101
 20
17.38590420311338
 30
0.0
 40
6.349999999999997
  1
2
  7
ROMANS
 72
     4
 11
242.3851344144405
 21
20.560904203113381
 31
0.0
  0
LINE
  5
C24
  8
A-ANNO-TITL-THIN
 10
462.54227727158332
 20
14.21090420311339
 30
0.0
 11
462.54227727158332
 21
20.560904203113381
 31
0.0
  0
TEXT
  5
C25
  8
A-ANNO-TITL
 10
532.75299155729738
 20
17.38590420311338
 30
0.0
 40
6.349999999999997
  1
4
  7
ROMANS
 72
     4
 11
535.92799155729733
 21
20.560904203113381
 31
0.0
  0
TEXT
  5
C26
  8
A-ANNO-TITL
 10
23.664301081107201
 20
478.28590420311332
 30
0.0
 40
6.349999999999997
  1
D
  7
ROMANS
 72
     4
 11
26.99049155729767
 21
481.46090420311339
 31
0.0
  0
LINE
  5
C27
  8
A-ANNO-TITL-THIN
 10
22.227991557297631
 20
414.71090420311322
 30
0.0
 11
28.57799155729754
 21
414.71090420311322
 31
0.0
  0
TEXT
  5
C28
  8
A-ANNO-TITL
 10
23.81549155729768
 20
611.78590420311343
 30
0.0
 40
6.349999999999997
  1
E
  7
ROMANS
 72
     4
 11
26.99049155729767
 21
614.96090420311339
 31
0.0
  0
LINE
  5
C29
  8
A-ANNO-TITL-THIN
 10
22.227991557297631
 20
548.21090420311305
 30
0.0
 11
28.57799155729754
 21
548.21090420311305
 31
0.0
  0
LINE
  5
C2A
  8
A-ANNO-TITL-THIN
 10
168.99942012872609
 20
815.21090420311327
 30
0.0
 11
168.99942012872609
 21
808.86090420311325
 31
0.0
  0
TEXT
  5
C2B
  8
A-ANNO-TITL
 10
93.043467747773704
 20
805.6859042031133
 30
0.0
 40
6.349999999999997
  1
1
  7
ROMANS
 72
     4
 11
95.613705843011786
 21
808.86090420311325
 31
0.0
  0
LINE
  5
C2C
  8
A-ANNO-TITL-THIN
 10
22.227991557297631
 20
681.71090420311316
 30
0.0
 11
28.57799155729754
 21
681.71090420311316
 31
0.0
  0
TEXT
  5
C2D
  8
A-ANNO-TITL
 10
23.81549155729768
 20
745.28590420311332
 30
0.0
 40
6.349999999999997
  1
F
  7
ROMANS
 72
     4
 11
26.99049155729767
 21
748.46090420311327
 31
0.0
  0
TEXT
  5
C2E
  8
A-ANNO-TITL
 10
386.13275346205938
 20
805.6859042031133
 30
0.0
 40
6.349999999999997
  1
3
  7
ROMANS
 72
     4
 11
389.1565629858689
 21
808.86090420311325
 31
0.0
  0
LINE
  5
C2F
  8
A-ANNO-TITL-THIN
 10
315.7708487001546
 20
815.21090420311327
 30
0.0
 11
315.7708487001546
 21
808.86090420311325
 31
0.0
  0
TEXT
  5
C30
  8
A-ANNO-TITL
 10
239.36132489063101
 20
805.6859042031133
 30
0.0
 40
6.349999999999997
  1
2
  7
ROMANS
 72
     4
 11
242.3851344144405
 21
808.86090420311325
 31
0.0
  0
LINE
  5
C31
  8
A-ANNO-TITL-THIN
 10
462.54227727158332
 20
815.21090420311327
 30
0.0
 11
462.54227727158332
 21
808.86090420311325
 31
0.0
  0
TEXT
  5
C32
  8
A-ANNO-TITL
 10
532.75299155729738
 20
805.6859042031133
 30
0.0
 40
6.349999999999997
  1
4
  7
ROMANS
 72
     4
 11
535.92799155729733
 21
808.86090420311325
 31
0.0
  0
LINE
  5
C33
  8
A-ANNO-TITL-OTLN
 10
1151.2279915572981
 20
815.21090420311327
 30
0.0
 11
1151.2279915572981
 21
14.21090420311339
 31
0.0
  0
LINE
  5
C34
  8
A-ANNO-TITL-LINE
 10
1049.627991557297
 20
14.21090420311339
 30
0.0
 11
1049.627991557297
 21
815.21090420311327
 31
0.0
  0
LINE
  5
C35
  8
A-ANNO-TITL-THIN
 10
756.08513441444029
 20
14.21090420311339
 30
0.0
 11
756.08513441444029
 21
20.560904203113381
 31
0.0
  0
LINE
  5
C36
  8
A-ANNO-TITL-THIN
 10
609.31370584301158
 20
14.21090420311339
 30
0.0
 11
609.31370584301158
 21
20.560904203113381
 31
0.0
  0
TEXT
  5
C37
  8
A-ANNO-TITL
 10
679.67561060491664
 20
17.38590420311338
 30
0.0
 40
6.349999999999997
  1
5
  7
ROMANS
 72
     4
 11
682.69942012872605
 21
20.560904203113381
 31
0.0
  0
LINE
  5
C38
  8
A-ANNO-TITL-THIN
 10
902.856562985869
 20
14.21090420311339
 30
0.0
 11
902.856562985869
 21
20.560904203113381
 31
0.0
  0
TEXT
  5
C39
  8
A-ANNO-TITL
 10
826.29584870015435
 20
17.38590420311338
 30
0.0
 40
6.349999999999997
  1
6
  7
ROMANS
 72
     4
 11
829.47084870015442
 21
20.560904203113381
 31
0.0
  0
LINE
  5
C3A
  8
A-ANNO-TITL-THIN
 10
1078.720758313905
 20
127.7171542031134
 30
0.0
 11
1078.720758313905
 21
191.21715420311341
 31
0.0
  0
LINE
  5
C3B
  8
A-ANNO-TITL-THIN
 10
1064.174374935601
 20
127.7171542031134
 30
0.0
 11
1064.174374935601
 21
191.21715420311341
 31
0.0
  0
LINE
  5
C3C
  8
A-ANNO-TITL-THIN
 10
1049.627991557297
 20
127.7171542031134
 30
0.0
 11
1151.2279915572981
 21
127.7171542031134
 31
0.0
  0
LINE
  5
C3D
  8
A-ANNO-TITL-THIN
 10
1049.627991557297
 20
134.06715420311329
 30
0.0
 11
1151.2279915572981
 21
134.06715420311329
 31
0.0
  0
LINE
  5
C3E
  8
A-ANNO-TITL-THIN
 10
1049.627991557297
 20
140.41715420311331
 30
0.0
 11
1151.2279915572981
 21
140.41715420311331
 31
0.0
  0
LINE
  5
C3F
  8
A-ANNO-TITL-THIN
 10
1049.627991557297
 20
146.76715420311331
 30
0.0
 11
1151.2279915572981
 21
146.76715420311331
 31
0.0
  0
LINE
  5
C40
  8
A-ANNO-TITL-BDRY
 10
1049.627991557297
 20
122.1609042031134
 30
0.0
 11
1151.2279915572981
 21
122.1609042031134
 31
0.0
  0
LINE
  5
C41
  8
A-ANNO-TITL-THIN
 10
1049.627991557297
 20
115.01715420311329
 30
0.0
 11
1151.2279915572981
 21
115.01715420311329
 31
0.0
  0
LINE
  5
C42
  8
A-ANNO-TITL-THIN
 10
1049.627991557297
 20
108.6671542031133
 30
0.0
 11
1151.2279915572981
 21
108.6671542031133
 31
0.0
  0
LINE
  5
C43
  8
A-ANNO-TITL-THIN
 10
1049.627991557297
 20
102.3171542031133
 30
0.0
 11
1151.2279915572981
 21
102.3171542031133
 31
0.0
  0
LINE
  5
C44
  8
A-ANNO-TITL-THIN
 10
1049.627991557297
 20
95.967154203113395
 30
0.0
 11
1151.2279915572981
 21
95.967154203113395
 31
0.0
  0
LINE
  5
C45
  8
A-ANNO-TITL-THIN
 10
1049.627991557297
 20
74.535904203113304
 30
0.0
 11
1151.2279915572981
 21
74.535904203113304
 31
0.0
  0
LINE
  5
C46
  8
A-ANNO-TITL-BDRY
 10
1049.627991557297
 20
82.473404203113304
 30
0.0
 11
1151.2279915572981
 21
82.473404203113304
 31
0.0
  0
LINE
  5
C47
  8
A-ANNO-TITL-BDRY
 10
1049.627991557297
 20
34.848404203113432
 30
0.0
 11
1151.2279915572981
 21
34.848404203113432
 31
0.0
  0
TEXT
  5
C48
  8
A-ANNO-TITL
 10
973.21846774777384
 20
17.38590420311338
 30
0.0
 40
6.349999999999997
  1
7
  7
ROMANS
 72
     4
 11
976.24227727158325
 21
20.560904203113381
 31
0.0
  0
TEXT
  5
C49
  8
A-ANNO-TITL-NOTE
 10
1110.2883261337411
 20
18.17965420311338
 30
0.0
 40
3.174999999999998
  1
OF
 41
0.75
  7
TITLE-FINE
  0
TEXT
  5
C4A
  8
A-ANNO-TITL-NOTE
 10
1066.3944555451201
 20
18.17965420311338
 30
0.0
 40
3.174999999999998
  1
SHEET
 41
0.75
  7
TITLE-FINE
  0
TEXT
  5
C4B
  8
A-ANNO-TITL-NOTE
 10
1052.437965138937
 20
76.408371473766451
 30
0.0
 40
3.174999999999998
  1
SHEET TITLE
 41
0.75
  7
TITLE-FINE
  0
TEXT
  5
C4C
  8
A-ANNO-TITL
 10
1042.144062985868
 20
77.785904203113375
 30
0.0
 40
6.349999999999997
  1
A
  7
ROMANS
 72
     4
 11
1044.865491557297
 21
80.960904203113373
 31
0.0
  0
TEXT
  5
C4D
  8
A-ANNO-TITL-NOTE
 10
1081.6903691534419
 20
129.28513517231539
 30
0.0
 40
3.174999999999998
  1
DESCRIPTION
 41
0.75
  7
TITLE-FINE
  0
TEXT
  5
C4E
  8
A-ANNO-TITL-NOTE
 10
1052.437965138937
 20
116.5851351723154
 30
0.0
 40
3.174999999999998
  1
PROJECT NO:
 41
0.75
  7
TITLE-FINE
  0
TEXT
  5
C4F
  8
A-ANNO-TITL-NOTE
 10
1052.437965138937
 20
91.185135172315441
 30
0.0
 40
3.174999999999998
  1
COPYRIGHT:
 41
0.75
  7
TITLE-FINE
  0
TEXT
  5
C50
  8
A-ANNO-TITL-NOTE
 10
1052.437965138937
 20
110.2351351723154
 30
0.0
 40
3.174999999999998
  1
CAD DWG FILE:
 41
0.75
  7
TITLE-FINE
  0
TEXT
  5
C51
  8
A-ANNO-TITL-NOTE
 10
1052.437965138937
 20
103.8851351723153
 30
0.0
 40
3.174999999999998
  1
DRAWN BY:
 41
0.75
  7
TITLE-FINE
  0
TEXT
  5
C52
  8
A-ANNO-TITL-NOTE
 10
1052.437965138937
 20
97.535135172315464
 30
0.0
 40
3.174999999999998
  1
CHK'D BY:
 41
0.75
  7
TITLE-FINE
  0
LINE
  5
C53
  8
A-ANNO-TITL-THIN
 10
1049.627991557297
 20
147.71090420311339
 30
0.0
 11
1043.277991557298
 21
147.71090420311339
 31
0.0
  0
TEXT
  5
C54
  8
A-ANNO-TITL-NOTE
 10
1052.437965138937
 20
129.28513517231539
 30
0.0
 40
3.174999999999998
  1
MARK
 41
0.75
  7
TITLE-FINE
  0
TEXT
  5
C55
  8
A-ANNO-TITL-NOTE
 10
1067.1439857751379
 20
129.28513517231539
 30
0.0
 40
3.174999999999998
  1
DATE
 41
0.75
  7
TITLE-FINE
  0
LINE
  5
C56
  8
A-ANNO-TITL-THIN
 10
1049.627991557297
 20
184.8671542031133
 30
0.0
 11
1151.2279915572981
 21
184.8671542031133
 31
0.0
  0
LINE
  5
C57
  8
A-ANNO-TITL-THIN
 10
1049.627991557297
 20
178.51715420311331
 30
0.0
 11
1151.2279915572981
 21
178.51715420311331
 31
0.0
  0
LINE
  5
C58
  8
A-ANNO-TITL-THIN
 10
1049.627991557297
 20
172.16715420311331
 30
0.0
 11
1151.2279915572981
 21
172.16715420311331
 31
0.0
  0
LINE
  5
C59
  8
A-ANNO-TITL-THIN
 10
1049.627991557297
 20
165.8171542031134
 30
0.0
 11
1151.2279915572981
 21
165.8171542031134
 31
0.0
  0
LINE
  5
C5A
  8
A-ANNO-TITL-BDRY
 10
1049.627991557297
 20
196.7734042031133
 30
0.0
 11
1151.2279915572981
 21
196.7734042031133
 31
0.0
  0
LINE
  5
C5B
  8
A-ANNO-TITL-THIN
 10
1049.627991557297
 20
191.21715420311341
 30
0.0
 11
1151.2279915572981
 21
191.21715420311341
 31
0.0
  0
LINE
  5
C5C
  8
A-ANNO-TITL-THIN
 10
1049.627991557297
 20
159.46715420311341
 30
0.0
 11
1151.2279915572981
 21
159.46715420311341
 31
0.0
  0
LINE
  5
C5D
  8
A-ANNO-TITL-THIN
 10
1049.627991557297
 20
153.11715420311339
 30
0.0
 11
1151.2279915572981
 21
153.11715420311339
 31
0.0
  0
TEXT
  5
C5E
  8
A-ANNO-TITL
 10
1041.539301081106
 20
211.28590420311329
 30
0.0
 40
6.349999999999997
  1
B
  7
ROMANS
 72
     4
 11
1044.865491557297
 21
214.46090420311339
 31
0.0
  0
LINE
  5
C5F
  8
A-ANNO-TITL-THIN
 10
1049.627991557297
 20
281.21090420311339
 30
0.0
 11
1043.277991557298
 21
281.21090420311339
 31
0.0
  0
TEXT
  5
C60
  8
A-ANNO-TITL
 10
1041.690491557297
 20
344.78590420311338
 30
0.0
 40
6.349999999999997
  1
C
  7
ROMANS
 72
     4
 11
1044.865491557297
 21
347.96090420311339
 31
0.0
  0
TEXT
  5
C61
  8
A-ANNO-TITL-NOTE
 10
1052.437965138937
 20
331.62061363319941
 30
0.0
 40
3.174999999999998
  1
OWNER
 41
0.75
  7
TITLE-NORMAL
  0
LINE
  5
C62
  8
A-ANNO-TITL-THIN
 10
756.08513441444029
 20
815.21090420311327
 30
0.0
 11
756.08513441444029
 21
808.86090420311325
 31
0.0
  0
LINE
  5
C63
  8
A-ANNO-TITL-THIN
 10
609.31370584301158
 20
815.21090420311327
 30
0.0
 11
609.31370584301158
 21
808.86090420311325
 31
0.0
  0
TEXT
  5
C64
  8
A-ANNO-TITL
 10
679.67561060491664
 20
805.6859042031133
 30
0.0
 40
6.349999999999997
  1
5
  7
ROMANS
 72
     4
 11
682.69942012872605
 21
808.86090420311325
 31
0.0
  0
LINE
  5
C65
  8
A-ANNO-TITL-THIN
 10
902.856562985869
 20
815.21090420311327
 30
0.0
 11
902.856562985869
 21
808.86090420311325
 31
0.0
  0
TEXT
  5
C66
  8
A-ANNO-TITL
 10
826.29584870015435
 20
805.6859042031133
 30
0.0
 40
6.349999999999997
  1
6
  7
ROMANS
 72
     4
 11
829.47084870015442
 21
808.86090420311325
 31
0.0
  0
LINE
  5
C67
  8
A-ANNO-TITL-BDRY
 10
1151.2279915572981
 20
497.71090420311322
 30
0.0
 11
1049.627991557297
 21
497.71090420311322
 31
0.0
  0
LINE
  5
C68
  8
A-ANNO-TITL-BDRY
 10
1151.2279915572981
 20
548.51090420311323
 30
0.0
 11
1049.627991557297
 21
548.51090420311323
 31
0.0
  0
TEXT
  5
C69
  8
A-ANNO-TITL
 10
1041.539301081106
 20
478.28590420311332
 30
0.0
 40
6.349999999999997
  1
D
  7
ROMANS
 72
     4
 11
1044.865491557297
 21
481.46090420311339
 31
0.0
  0
LINE
  5
C6A
  8
A-ANNO-TITL-THIN
 10
1049.627991557297
 20
414.71090420311322
 30
0.0
 11
1043.277991557298
 21
414.71090420311322
 31
0.0
  0
TEXT
  5
C6B
  8
A-ANNO-TITL
 10
1041.690491557297
 20
611.78590420311343
 30
0.0
 40
6.349999999999997
  1
E
  7
ROMANS
 72
     4
 11
1044.865491557297
 21
614.96090420311339
 31
0.0
  0
LINE
  5
C6C
  8
A-ANNO-TITL-THIN
 10
1049.627991557297
 20
548.21090420311305
 30
0.0
 11
1043.277991557298
 21
548.21090420311305
 31
0.0
  0
LINE
  5
C6D
  8
A-ANNO-TITL-THIN
 10
1049.627991557297
 20
693.76715420311325
 30
0.0
 11
1151.2279915572981
 21
693.76715420311325
 31
0.0
  0
LINE
  5
C6E
  8
A-ANNO-TITL-BDRY
 10
1151.2279915572981
 20
700.91090420311298
 30
0.0
 11
1049.627991557297
 21
700.91090420311298
 31
0.0
  0
TEXT
  5
C6F
  8
A-ANNO-TITL
 10
973.21846774777384
 20
805.6859042031133
 30
0.0
 40
6.349999999999997
  1
7
  7
ROMANS
 72
     4
 11
976.24227727158325
 21
808.86090420311325
 31
0.0
  0
TEXT
  5
C70
  8
A-ANNO-TITL-NOTE
 10
1052.437965138937
 20
695.3351351723154
 30
0.0
 40
3.174999999999998
  1
CONSULTANTS
 41
0.75
  7
TITLE-FINE
  0
LINE
  5
C71
  8
A-ANNO-TITL-THIN
 10
1049.627991557297
 20
681.71090420311316
 30
0.0
 11
1043.277991557298
 21
681.71090420311316
 31
0.0
  0
TEXT
  5
C72
  8
A-ANNO-TITL
 10
1041.690491557297
 20
745.28590420311332
 30
0.0
 40
6.349999999999997
  1
F
  7
ROMANS
 72
     4
 11
1044.865491557297
 21
748.46090420311327
 31
0.0
  0
ATTDEF
  5
C76
  8
A-ANNO-TITL-NOTE
 10
1091.9837989769851
 20
116.5851351723153
 30
0.0
 40
3.174999999999998
  1

 41
0.75
  7
TITLE-FINE
  3
Project number
  2
PROJECT:NUMBER
 70
     0
  0
ENDBLK
  5
BB6
  8
0
  0
BLOCK
  8
0
  2
M_AEC3_ROOM_TAG_P
 70
     2
 10
0.0
 20
0.0
 30
0.0
  3
M_AEC3_ROOM_TAG_P
  1

  0
POLYLINE
  5
16FB
  8
0
  6
BYBLOCK
 62
     0
 66
     1
 10
0.0
 20
0.0
 30
0.0
 70
     1
  0
VERTEX
  5
816E9
  8
0
  6
BYBLOCK
 62
     0
 10
1.99999999999693
 20
-1.99999999999693
 30
0.0
  0
VERTEX
  5
816EA
  8
0
  6
BYBLOCK
 62
     0
 10
1.99999999999693
 20
0.0
 30
0.0
  0
VERTEX
  5
816EB
  8
0
  6
BYBLOCK
 62
     0
 10
-1.99999999999693
 20
0.0
 30
0.0
  0
VERTEX
  5
816EC
  8
0
  6
BYBLOCK
 62
     0
 10
-1.99999999999693
 20
-1.99999999999693
 30
0.0
  0
SEQEND
  5
816ED
  8
0
  6
BYBLOCK
 62
     0
  0
ATTDEF
  5
16FC
  8
0
  6
BYBLOCK
 62
     0
 10
-2.4444444444407019
 20
1.0
 30
0.0
 40
1.333333333331292
  1
ROOM
 72
     1
 11
0.0000000000000001
 21
1.0
 31
0.0
  3
Room name
  2
ROOMOBJECTS:NAME
 70
     0
  0
ATTDEF
  5
16FD
  8
0
  6
BYBLOCK
 62
     0
 10
-1.49999999999693
 20
-1.49999999999693
 30
0.0
 40
0.9999999999984698
  1
000
 41
1.3846153846146689
 72
     5
 11
1.49999999999693
 21
-1.49999999999693
 31
0.0
  3
Number
  2
ROOMOBJECTS:NUMBER
 70
     0
  0
ATTDEF
  5
16FE
  8
0
  6
BYBLOCK
 62
     0
 10
-0.0573105050725289
 20
3.295825622643703
 30
0.0
 40
0.5
  1

 72
     1
 11
-0.0573105050725289
 21
3.295825622643703
 31
0.0
  3
Height
  2
SPACEOBJECTS:HEIGHT
 70
     9
  0
ENDBLK
  5
16FF
  8
0
  0
BLOCK
  8
0
  2
M_AEC4_ROOM_TAG_HIDTL_P
 70
     2
 10
0.0
 20
0.0
 30
0.0
  3
M_AEC4_ROOM_TAG_HIDTL_P
  1

  0
ATTDEF
  5
170E
  8
0
  6
BYBLOCK
 62
     0
 10
-317.85714285714278
 20
75.0
 30
0.0
 40
150.0
  1
ROOM
  7
ROMANS
 72
     1
 11
0.0
 21
75.0
 31
0.0
  3
Room name
  2
ROOMOBJECTS:NAME
 70
     0
  0
ATTDEF
  5
170F
  8
0
  6
BYBLOCK
 62
     0
 10
-187.49999999961619
 20
-187.49999999961619
 30
0.0
 40
124.99999999980869
  1
000
 41
1.1052631578941661
  7
ROMANS
 72
     5
 11
187.49999999961619
 21
-187.49999999961619
 31
0.0
  3
Number
  2
ROOMOBJECTS:NUMBERPROJECTBASED
 70
     0
  0
ATTDEF
  5
1710
  8
0
 10
-0.0000000000000057
 20
-404.61092863890281
 30
0.0
 40
93.75
  1

  7
ROMANS
 72
     1
 11
0.0
 21
-310.86092863890281
 31
0.0
  3
Base color
  2
ROOMFINISHOBJECTS:BASECOLOR
 70
     1
 74
     3
  0
POLYLINE
  5
1711
  8
0
  6
BYBLOCK
 62
     0
 66
     1
 10
0.0
 20
0.0
 30
0.0
 70
     1
  0
VERTEX
  5
816EE
  8
0
  6
BYBLOCK
 62
     0
 10
249.99999999961619
 20
-249.99999999961619
 30
0.0
  0
VERTEX
  5
816EF
  8
0
  6
BYBLOCK
 62
     0
 10
249.99999999961619
 20
0.0
 30
0.0
  0
VERTEX
  5
816F0
  8
0
  6
BYBLOCK
 62
     0
 10
-249.99999999961619
 20
0.0
 30
0.0
  0
VERTEX
  5
816F1
  8
0
  6
BYBLOCK
 62
     0
 10
-249.99999999961619
 20
-249.99999999961619
 30
0.0
  0
SEQEND
  5
816F2
  8
0
  6
BYBLOCK
 62
     0
  0
ENDBLK
  5
1712
  8
0
  0
BLOCK
  8
0
  2
M_AEC4_ROOM_TAG_LODTL_P
 70
     2
 10
0.0
 20
0.0
 30
0.0
  3
M_AEC4_ROOM_TAG_LODTL_P
  1

  0
ATTDEF
  5
1717
  8
0
  6
BYBLOCK
 62
     0
 10
-1271.4285714285711
 20
300.0
 30
0.0
 40
600.0
  1
ROOM
  7
ROMANS
 72
     1
 11
0.0
 21
300.0
 31
0.0
  3
Room name
  2
ROOMOBJECTS:NAME
 70
     0
  0
POLYLINE
  5
1718
  8
0
  6
BYBLOCK
 62
     0
 66
     1
 10
0.0
 20
0.0
 30
0.0
 70
     1
  0
VERTEX
  5
816F3
  8
0
  6
BYBLOCK
 62
     0
 10
999.99999999846477
 20
-999.99999999846477
 30
0.0
  0
VERTEX
  5
816F4
  8
0
  6
BYBLOCK
 62
     0
 10
999.99999999846477
 20
0.0
 30
0.0
  0
VERTEX
  5
816F5
  8
0
  6
BYBLOCK
 62
     0
 10
-999.99999999846477
 20
0.0
 30
0.0
  0
VERTEX
  5
816F6
  8
0
  6
BYBLOCK
 62
     0
 10
-999.99999999846477
 20
-999.99999999846477
 30
0.0
  0
SEQEND
  5
816F7
  8
0
  6
BYBLOCK
 62
     0
  0
ATTDEF
  5
1719
  8
0
  6
BYBLOCK
 62
     0
 10
-749.99999999846455
 20
-749.99999999846455
 30
0.0
 40
499.99999999923477
  1
000
 41
1.105263157894165
  7
ROMANS
 72
     5
 11
749.99999999846455
 21
-749.99999999846455
 31
0.0
  3
Number
  2
ROOMOBJECTS:NUMBERPROJECTBASED
 70
     0
  0
ATTDEF
  5
171A
  8
0
 10
-0.000000000000023
 20
-1618.443714555611
 30
0.0
 40
375.0
  1

  7
ROMANS
 72
     1
 11
0.0
 21
-1243.443714555611
 31
0.0
  3
Base color
  2
ROOMFINISHOBJECTS:BASECOLOR
 70
     1
 74
     3
  0
ENDBLK
  5
171B
  8
0
  0
BLOCK
  8
0
  2
M_AEC4_ROOM_TAG_MEDDTL_P
 70
     2
 10
0.0
 20
0.0
 30
0.0
  3
M_AEC4_ROOM_TAG_MEDDTL_P
  1

  0
ATTDEF
  5
1720
  8
0
  6
BYBLOCK
 62
     0
 10
-635.71428571428555
 20
150.00000000000031
 30
0.0
 40
300.0
  1
ROOM
  7
ROMANS
 72
     1
 11
0.0
 21
150.00000000000031
 31
0.0
  3
Room name
  2
ROOMOBJECTS:NAME
 70
     0
  0
POLYLINE
  5
1721
  8
0
  6
BYBLOCK
 62
     0
 66
     1
 10
0.0
 20
0.0
 30
0.0
 70
     1
  0
VERTEX
  5
816F8
  8
0
  6
BYBLOCK
 62
     0
 10
499.99999999923239
 20
-499.99999999923239
 30
0.0
  0
VERTEX
  5
816F9
  8
0
  6
BYBLOCK
 62
     0
 10
499.99999999923239
 20
0.0
 30
0.0
  0
VERTEX
  5
816FA
  8
0
  6
BYBLOCK
 62
     0
 10
-499.99999999923239
 20
0.0
 30
0.0
  0
VERTEX
  5
816FB
  8
0
  6
BYBLOCK
 62
     0
 10
-499.99999999923239
 20
-499.99999999923239
 30
0.0
  0
SEQEND
  5
816FC
  8
0
  6
BYBLOCK
 62
     0
  0
ATTDEF
  5
1722
  8
0
  6
BYBLOCK
 62
     0
 10
-374.99999999923239
 20
-374.99999999923261
 30
0.0
 40
249.9999999996175
  1
000
 41
1.1052631578941661
  7
ROMANS
 72
     5
 11
374.99999999923278
 21
-374.99999999923261
 31
0.0
  3
Number
  2
ROOMOBJECTS:NUMBERPROJECTBASED
 70
     0
  0
ATTDEF
  5
1723
  8
0
 10
-0.0000000000000115
 20
-809.22185727780493
 30
0.0
 40
187.5
  1

  7
ROMANS
 72
     1
 11
0.0
 21
-621.72185727780504
 31
0.0
  3
Base color
  2
ROOMFINISHOBJECTS:BASECOLOR
 70
     1
 74
     3
  0
ENDBLK
  5
1724
  8
0
  0
BLOCK
  8
0
  2
ANNO_REVISION_A
 70
     2
 10
0.0
 20
0.0
 30
0.0
  3
ANNO_REVISION_A
  1

  0
POLYLINE
  5
1C10
  8
0
  6
BYBLOCK
 62
     0
 66
     1
 10
0.0
 20
0.0
 30
0.0
 70
     1
  0
VERTEX
  5
816FD
  8
0
  6
BYBLOCK
 62
     0
 10
1.732050807568881
 20
-1.0
 30
0.0
  0
VERTEX
  5
816FE
  8
0
  6
BYBLOCK
 62
     0
 10
0.0
 20
2.0
 30
0.0
  0
VERTEX
  5
816FF
  8
0
  6
BYBLOCK
 62
     0
 10
-1.732050807568881
 20
-1.0
 30
0.0
  0
SEQEND
  5
81700
  8
0
  6
BYBLOCK
 62
     0
  0
ATTDEF
  5
1C11
  8
0
  6
BYBLOCK
 62
     0
 10
-0.4047619047619048
 20
-0.4422745969738174
 30
0.0
 40
1.0
  1
1
  7
ROMANS
 72
     4
 11
0.0
 21
0.0577254030261827
 31
0.0
  3
Revision Number
  2
REVISION
 70
     0
  0
ENDBLK
  5
1C12
  8
0
  0
BLOCK
  8
0
  2
_DOT
 70
     0
 10
0.0
 20
0.0
 30
0.0
  3
_DOT
  1

  0
POLYLINE
  5
5024
  8
0
  6
BYBLOCK
 62
     0
 66
     1
 10
0.0
 20
0.0
 30
0.0
 70
     1
 40
0.5
 41
0.5
  0
VERTEX
  5
81701
  8
0
  6
BYBLOCK
 62
     0
 10
-0.25
 20
0.0
 30
0.0
 42
1.0
  0
VERTEX
  5
81702
  8
0
  6
BYBLOCK
 62
     0
 10
0.25
 20
0.0
 30
0.0
 42
1.0
  0
SEQEND
  5
81703
  8
0
  6
BYBLOCK
 62
     0
  0
LINE
  5
5025
  8
0
  6
BYBLOCK
 62
     0
 10
-0.5
 20
0.0
 30
0.0
 11
-1.0
 21
0.0
 31
0.0
  0
ENDBLK
  5
5027
  8
0
  0
BLOCK
  8
0
  2
_DOTSMALL
 70
     0
 10
0.0
 20
0.0
 30
0.0
  3
_DOTSMALL
  1

  0
POLYLINE
  5
1BBA2
  8
0
  6
BYBLOCK
 62
     0
 66
     1
 10
0.0
 20
0.0
 30
0.0
 70
     1
 40
0.5
 41
0.5
  0
VERTEX
  5
81704
  8
0
  6
BYBLOCK
 62
     0
 10
-0.0625
 20
0.0
 30
0.0
 42
1.0
  0
VERTEX
  5
81705
  8
0
  6
BYBLOCK
 62
     0
 10
0.0625
 20
0.0
 30
0.0
 42
1.0
  0
SEQEND
  5
81706
  8
0
  6
BYBLOCK
 62
     0
  0
ENDBLK
  5
1BBA3
  8
0
  0
BLOCK
  8
0
  2
*U13
 70
     1
 10
0.0
 20
0.0
 30
0.0
  3
*U13
  1

  0
CIRCLE
  5
1BBAE
  8
0
 10
0.0
 20
-0.0000000000028876
 30
0.0
 40
1524.0
1001
ACDBBLOCKREPETAG
1070
     1
1071
        0
1005
1BBAE
  0
LINE
  5
1BBAF
  8
0
 10
-1524.0
 20
-0.0000000000028876
 30
0.0
 11
1524.0
 21
-0.0000000000028876
 31
0.0
1001
ACDBBLOCKREPETAG
1070
     1
1071
        1
1005
1BBAF
  0
LINE
  5
1BBB0
  8
0
 10
1066.8
 20
1066.799999999997
 30
0.0
 11
-1066.8
 21
-1066.8000000000029
 31
0.0
1001
ACDBBLOCKREPETAG
1070
     1
1071
        2
1005
1BBB0
  0
LINE
  5
1BBB1
  8
0
 10
1066.8
 20
-1066.8000000000029
 30
0.0
 11
-1066.8
 21
1066.799999999997
 31
0.0
1001
ACDBBLOCKREPETAG
1070
     1
1071
        3
1005
1BBB1
  0
LINE
  5
1BBB2
  8
0
 10
-135.14069999999799
 20
1515.887239999995
 30
0.0
 11
419.36669999999953
 21
426.62601999999629
 31
0.0
1001
ACDBBLOCKREPETAG
1070
     1
1071
        4
1005
1BBB2
  0
LINE
  5
1BBB3
  8
0
 10
464.08594000000102
 20
902.45691999999747
 30
0.0
 11
137.6425999999995
 21
1515.887239999995
 31
0.0
1001
ACDBBLOCKREPETAG
1070
     1
1071
        5
1005
1BBB3
  0
LINE
  5
1BBB4
  8
0
 10
249.4356199999994
 20
1309.494459999996
 30
0.0
 11
325.45782000000082
 21
1487.2106399999971
 31
0.0
1001
ACDBBLOCKREPETAG
1070
     1
1071
        6
1005
1BBB4
  0
LINE
  5
1BBB5
  8
0
 10
-157.50031999999891
 20
-920.61030000000324
 30
0.0
 11
455.14259999999922
 21
-1448.0387600000031
 31
0.0
1001
ACDBBLOCKREPETAG
1070
     1
1071
        7
1005
1BBB5
  0
LINE
  5
1BBB6
  8
0
 10
-0.9855199999980639
 20
-484.90886000000359
 30
0.0
 11
656.37409999999988
 21
-1367.7773000000029
 31
0.0
1001
ACDBBLOCKREPETAG
1070
     1
1071
        8
1005
1BBB6
  0
LINE
  5
1BBB7
  8
0
 10
236.0218799999995
 20
-232.65892000000341
 30
0.0
 11
1514.965220000001
 21
-72.138540000003061
 31
0.0
1001
ACDBBLOCKREPETAG
1070
     1
1071
        9
1005
1BBB7
  0
LINE
  5
1BBB8
  8
0
 10
0.0
 20
1523.989839999997
 30
0.0
 11
0.0
 21
-1524.000000000002
 31
0.0
1001
ACDBBLOCKREPETAG
1070
     1
1071
       10
1005
1BBB8
  0
LINE
  5
1BBB9
  8
0
 10
-1387.2514799999981
 20
-628.23090000000411
 30
0.0
 11
-515.24662000000001
 21
2.3901399999977682
 31
0.0
1001
ACDBBLOCKREPETAG
1070
     1
1071
       11
1005
1BBB9
  0
LINE
  5
1BBBA
  8
0
 10
-1485.6333
 20
-312.92038000000309
 30
0.0
 11
-926.65549999999871
 21
-295.7220400000034
 31
0.0
1001
ACDBBLOCKREPETAG
1070
     1
1071
       12
1005
1BBBA
  0
LINE
  5
1BBBB
  8
0
 10
-255.87959999999879
 20
-255.59258000000159
 30
0.0
 11
-63.591440000000141
 21
-1516.832120000003
 31
0.0
1001
ACDBBLOCKREPETAG
1070
     1
1071
       13
1005
1BBBB
  0
LINE
  5
1BBBC
  8
0
 10
-1351.47812
 20
-697.02680000000305
 30
0.0
 11
-425.80813999999918
 21
-421.84574000000367
 31
0.0
1001
ACDBBLOCKREPETAG
1070
     1
1071
       14
1005
1BBBC
  0
LINE
  5
1BBBD
  8
0
 10
-1449.8574000000001
 20
-467.71052000000373
 30
0.0
 11
-1150.2466199999999
 21
-456.24495999999982
 31
0.0
1001
ACDBBLOCKREPETAG
1070
     1
1071
       15
1005
1BBBD
  0
LINE
  5
1BBBE
  8
0
 10
-1199.4362599999999
 20
-490.64164000000261
 30
0.0
 11
-1275.455919999999
 21
-668.36290000000224
 31
0.0
1001
ACDBBLOCKREPETAG
1070
     1
1071
       16
1005
1BBBE
  0
LINE
  5
1BBBF
  8
0
 10
-989.25887999999873
 20
-737.15626000000145
 30
0.0
 11
-1306.758879999998
 21
-777.28572000000349
 31
0.0
1001
ACDBBLOCKREPETAG
1070
     1
1071
       17
1005
1BBBF
  0
LINE
  5
1BBC0
  8
0
 10
-1181.549579999999
 20
-765.8201600000026
 30
0.0
 11
-1257.569239999998
 21
-851.81440000000146
 31
0.0
1001
ACDBBLOCKREPETAG
1070
     1
1071
       18
1005
1BBC0
  0
LINE
  5
1BBC1
  8
0
 10
-823.80073999999877
 20
-823.15050000000349
 30
0.0
 11
-1221.7933399999979
 21
-903.41196000000025
 31
0.0
1001
ACDBBLOCKREPETAG
1070
     1
1071
       19
1005
1BBC1
  0
LINE
  5
1BBC2
  8
0
 10
-1338.06438
 20
-461.97520000000247
 30
0.0
 11
-1409.613639999998
 21
-559.4375400000016
 31
0.0
1001
ACDBBLOCKREPETAG
1070
     1
1071
       20
1005
1BBC2
  0
LINE
  5
1BBC3
  8
0
 10
-372.14809999999852
 20
-920.61030000000324
 30
0.0
 11
-703.0643800000006
 21
-1344.8461800000021
 31
0.0
1001
ACDBBLOCKREPETAG
1070
     1
1071
       21
1005
1BBC3
  0
LINE
  5
1BBC4
  8
0
 10
-372.14809999999852
 20
-1201.524140000002
 30
0.0
 11
-635.98551999999802
 21
-1379.242860000001
 31
0.0
1001
ACDBBLOCKREPETAG
1070
     1
1071
       22
1005
1BBC4
  0
LINE
  5
1BBC5
  8
0
 10
-506.30073999999922
 20
-513.57276000000434
 30
0.0
 11
-725.42145999999923
 21
-1339.1134000000029
 31
0.0
1001
ACDBBLOCKREPETAG
1070
     1
1071
       23
1005
1BBC5
  0
LINE
  5
1BBC6
  8
0
 10
-627.04217999999923
 20
-960.73976000000505
 30
0.0
 11
-984.78848000000005
 21
-1161.3921400000031
 31
0.0
1001
ACDBBLOCKREPETAG
1070
     1
1071
       24
1005
1BBC6
  0
LINE
  5
1BBC7
  8
0
 10
-667.2884800000005
 20
-1115.529900000002
 30
0.0
 11
-881.93625999999995
 21
-1235.920820000001
 31
0.0
1001
ACDBBLOCKREPETAG
1070
     1
1071
       25
1005
1BBC7
  0
LINE
  5
1BBC8
  8
0
 10
-546.54957999999965
 20
-1155.659360000001
 30
0.0
 11
-506.30073999999922
 21
-1425.105100000002
 31
0.0
1001
ACDBBLOCKREPETAG
1070
     1
1071
       26
1005
1BBC8
  0
LINE
  5
1BBC9
  8
0
 10
-913.23921999999982
 20
-570.9031000000025
 30
0.0
 11
-1118.9436599999999
 21
-1029.5356600000041
 31
0.0
1001
ACDBBLOCKREPETAG
1070
     1
1071
       27
1005
1BBC9
  0
LINE
  5
1BBCA
  8
0
 10
-1110.000319999999
 20
-880.47830000000226
 30
0.0
 11
-1186.0199800000009
 21
-949.27420000000382
 31
0.0
1001
ACDBBLOCKREPETAG
1070
     1
1071
       28
1005
1BBCA
  0
LINE
  5
1BBCB
  8
0
 10
-376.6184999999997
 20
-381.71628000000209
 30
0.0
 11
-372.14809999999852
 21
-1465.237100000003
 31
0.0
1001
ACDBBLOCKREPETAG
1070
     1
1071
       29
1005
1BBCB
  0
LINE
  5
1BBCC
  8
0
 10
-372.14809999999852
 20
-817.41772000000162
 30
0.0
 11
-99.364800000000884
 21
-1511.101880000002
 31
0.0
1001
ACDBBLOCKREPETAG
1070
     1
1071
       30
1005
1BBCC
  0
LINE
  5
1BBCD
  8
0
 10
-215.6333000000005
 20
-1207.256920000003
 30
0.0
 11
-291.65549999999899
 21
-1488.1682200000021
 31
0.0
1001
ACDBBLOCKREPETAG
1070
     1
1071
       31
1005
1BBCD
  0
LINE
  5
1BBCE
  8
0
 10
-161.97072
 20
-1339.1134000000029
 30
0.0
 11
-237.99291999999849
 21
-1493.901000000001
 31
0.0
1001
ACDBBLOCKREPETAG
1070
     1
1071
       32
1005
1BBCE
  0
LINE
  5
1BBCF
  8
0
 10
151.05633999999941
 20
-1184.3232600000019
 30
0.0
 11
267.32483999999909
 21
-1488.1682200000021
 31
0.0
1001
ACDBBLOCKREPETAG
1070
     1
1071
       33
1005
1BBCF
  0
LINE
  5
1BBD0
  8
0
 10
213.66226000000151
 20
-1350.578960000001
 30
0.0
 11
97.393760000001834
 21
-1511.101880000002
 31
0.0
1001
ACDBBLOCKREPETAG
1070
     1
1071
       34
1005
1BBD0
  0
LINE
  5
1BBD1
  8
0
 10
-1516.9362599999999
 20
71.183499999997309
 30
0.0
 11
-305.06923999999879
 21
306.23509999999777
 31
0.0
1001
ACDBBLOCKREPETAG
1070
     1
1071
       35
1005
1BBD1
  0
LINE
  5
1BBD2
  8
0
 10
-1266.5125800000001
 20
833.66355999999791
 30
0.0
 11
-832.74662000000012
 21
833.66355999999791
 31
0.0
1001
ACDBBLOCKREPETAG
1070
     1
1071
       36
1005
1BBD2
  0
LINE
  5
1BBD3
  8
0
 10
-1423.0273799999979
 20
529.81859999999779
 30
0.0
 11
-528.66035999999986
 21
529.81859999999779
 31
0.0
1001
ACDBBLOCKREPETAG
1070
     1
1071
       37
1005
1BBD3
  0
LINE
  5
1BBD4
  8
0
 10
-819.33033999999805
 20
524.08581999999615
 30
0.0
 11
-1503.5199800000009
 21
237.43919999999599
 31
0.0
1001
ACDBBLOCKREPETAG
1070
     1
1071
       38
1005
1BBD4
  0
LINE
  5
1BBD5
  8
0
 10
-1490.106239999998
 20
323.43343999999769
 30
0.0
 11
-913.23921999999982
 21
191.57695999999819
 31
0.0
1001
ACDBBLOCKREPETAG
1070
     1
1071
       39
1005
1BBD5
  0
LINE
  5
1BBD6
  8
0
 10
-1449.8574000000001
 20
455.2899199999971
 30
0.0
 11
-1194.963319999998
 21
375.02845999999738
 31
0.0
1001
ACDBBLOCKREPETAG
1070
     1
1071
       40
1005
1BBD6
  0
LINE
  5
1BBD7
  8
0
 10
-1391.7244199999991
 20
621.54307999999651
 30
0.0
 11
-1212.8499999999999
 21
535.55137999999693
 31
0.0
1001
ACDBBLOCKREPETAG
1070
     1
1071
       41
1005
1BBD7
  0
LINE
  5
1BBD8
  8
0
 10
-1351.47812
 20
696.0717599999972
 30
0.0
 11
-1020.56438
 21
529.81859999999779
 31
0.0
1001
ACDBBLOCKREPETAG
1070
     1
1071
       42
1005
1BBD8
  0
LINE
  5
1BBD9
  8
0
 10
-1150.2466199999999
 20
-3.3426400000041201
 30
0.0
 11
-1499.049579999999
 21
-255.59258000000159
 31
0.0
1001
ACDBBLOCKREPETAG
1070
     1
1071
       43
1005
1BBD9
  0
LINE
  5
1BBDA
  8
0
 10
-1516.9362599999999
 20
-123.7335600000027
 30
0.0
 11
-1378.308139999999
 21
-169.59834000000271
 31
0.0
1001
ACDBBLOCKREPETAG
1070
     1
1071
       44
1005
1BBDA
  0
LINE
  5
1BBDB
  8
0
 10
-792.50031999999874
 20
1298.028899999998
 30
0.0
 11
-5.458459999998559
 21
512.61771999999587
 31
0.0
1001
ACDBBLOCKREPETAG
1070
     1
1071
       45
1005
1BBDB
  0
LINE
  5
1BBDC
  8
0
 10
-537.60623999999814
 20
1418.4274399999949
 30
0.0
 11
-0.9855199999980639
 21
1143.2387599999979
 31
0.0
1001
ACDBBLOCKREPETAG
1070
     1
1071
       46
1005
1BBDC
  0
LINE
  5
1BBDD
  8
0
 10
-314.0125800000003
 20
816.46521999999834
 30
0.0
 11
-318.48551999999802
 21
1492.9510399999999
 31
0.0
1001
ACDBBLOCKREPETAG
1070
     1
1071
       47
1005
1BBDD
  0
LINE
  5
1BBDE
  8
0
 10
-671.75887999999873
 20
1183.3707599999959
 30
0.0
 11
-667.2884800000005
 21
1366.8146399999971
 31
0.0
1001
ACDBBLOCKREPETAG
1070
     1
1071
       48
1005
1BBDE
  0
LINE
  5
1BBDF
  8
0
 10
-559.9633199999995
 20
1068.7126199999959
 30
0.0
 11
-421.33773999999829
 21
1464.274439999997
 31
0.0
1001
ACDBBLOCKREPETAG
1070
     1
1071
       49
1005
1BBDF
  0
LINE
  5
1BBE0
  8
0
 10
-828.27367999999944
 20
1280.8305599999981
 30
0.0
 11
-591.26627999999926
 21
598.61195999999745
 31
0.0
1001
ACDBBLOCKREPETAG
1070
     1
1071
       50
1005
1BBE0
  0
LINE
  5
1BBE1
  8
0
 10
-940.07177999999806
 20
1194.836319999996
 30
0.0
 11
-895.35000000000002
 21
902.45691999999747
 31
0.0
1001
ACDBBLOCKREPETAG
1070
     1
1071
       51
1005
1BBE1
  0
LINE
  5
1BBE2
  8
0
 10
-1020.56438
 20
1131.7731999999969
 30
0.0
 11
-926.65549999999871
 21
1097.3765199999971
 31
0.0
1001
ACDBBLOCKREPETAG
1070
     1
1071
       52
1005
1BBE2
  0
LINE
  5
1BBE3
  8
0
 10
-1163.6603600000001
 20
971.25281999999629
 30
0.0
 11
-1029.507719999998
 21
839.39633999999705
 31
0.0
1001
ACDBBLOCKREPETAG
1070
     1
1071
       53
1005
1BBE3
  0
LINE
  5
1BBE4
  8
0
 10
-1114.47072
 20
925.38803999999925
 30
0.0
 11
-1127.886999999999
 21
1022.847839999999
 31
0.0
1001
ACDBBLOCKREPETAG
1070
     1
1071
       54
1005
1BBE4
  0
LINE
  5
1BBE5
  8
0
 10
12.43076000000117
 20
1234.9683199999979
 30
0.0
 11
92.923360000000727
 21
1515.887239999995
 31
0.0
1001
ACDBBLOCKREPETAG
1070
     1
1071
       55
1005
1BBE5
  0
LINE
  5
1BBE6
  8
0
 10
61.620400000001119
 20
1395.4912399999951
 30
0.0
 11
-36.75887999999879
 21
1521.602239999994
 31
0.0
1001
ACDBBLOCKREPETAG
1070
     1
1071
       56
1005
1BBE6
  0
LINE
  5
1BBE7
  8
0
 10
-318.48551999999802
 20
1395.4912399999951
 30
0.0
 11
-202.2170199999984
 21
1510.1468399999981
 31
0.0
1001
ACDBBLOCKREPETAG
1070
     1
1071
       57
1005
1BBE7
  0
LINE
  5
1BBE8
  8
0
 10
669.79037999999912
 20
-467.71052000000373
 30
0.0
 11
1497.0785400000011
 21
-249.85726000000329
 31
0.0
1001
ACDBBLOCKREPETAG
1070
     1
1071
       58
1005
1BBE8
  0
LINE
  5
1BBE9
  8
0
 10
799.47262000000126
 20
-794.48660000000245
 30
0.0
 11
1260.07114
 21
-846.08162000000243
 31
0.0
1001
ACDBBLOCKREPETAG
1070
     1
1071
       59
1005
1BBE9
  0
LINE
  5
1BBEA
  8
0
 10
1054.366699999998
 20
-828.8832800000024
 30
0.0
 11
1170.635199999999
 21
-966.47254000000385
 31
0.0
1001
ACDBBLOCKREPETAG
1070
     1
1071
       60
1005
1BBEA
  0
LINE
  5
1BBEB
  8
0
 10
477.49968000000092
 20
-473.44076000000308
 30
0.0
 11
1456.832239999999
 21
-439.0466200000028
 31
0.0
1001
ACDBBLOCKREPETAG
1070
     1
1071
       61
1005
1BBEB
  0
LINE
  5
1BBEC
  8
0
 10
969.40115999999944
 20
-461.97520000000247
 30
0.0
 11
1331.6204000000009
 21
-737.15626000000145
 31
0.0
1001
ACDBBLOCKREPETAG
1070
     1
1071
       62
1005
1BBEC
  0
LINE
  5
1BBED
  8
0
 10
473.02927999999991
 20
-473.44076000000308
 30
0.0
 11
678.73372000000074
 21
-1356.3117400000031
 31
0.0
1001
ACDBBLOCKREPETAG
1070
     1
1071
       63
1005
1BBED
  0
LINE
  5
1BBEE
  8
0
 10
580.35190000000125
 20
-926.34308000000237
 30
0.0
 11
897.85190000000125
 21
-1230.188040000002
 31
0.0
1001
ACDBBLOCKREPETAG
1070
     1
1071
       64
1005
1BBEE
  0
LINE
  5
1BBEF
  8
0
 10
772.64259999999933
 20
-765.8201600000026
 30
0.0
 11
821.83223999999939
 21
-1270.317500000004
 31
0.0
1001
ACDBBLOCKREPETAG
1070
     1
1071
       65
1005
1BBEF
  0
LINE
  5
1BBF0
  8
0
 10
629.5440800000008
 20
-1138.4610200000011
 30
0.0
 11
584.8248399999992
 21
-1396.4412000000009
 31
0.0
1001
ACDBBLOCKREPETAG
1070
     1
1071
       66
1005
1BBF0
  0
LINE
  5
1BBF1
  8
0
 10
1166.162260000001
 20
-611.0325600000042
 30
0.0
 11
1412.1130000000001
 21
-565.17032000000324
 31
0.0
1001
ACDBBLOCKREPETAG
1070
     1
1071
       67
1005
1BBF1
  0
LINE
  5
1BBF2
  8
0
 10
499.85930000000178
 20
495.41937999999601
 30
0.0
 11
414.89376000000152
 21
1464.274439999997
 31
0.0
1001
ACDBBLOCKREPETAG
1070
     1
1071
       68
1005
1BBF2
  0
LINE
  5
1BBF3
  8
0
 10
450.6696600000019
 20
1108.8420799999981
 30
0.0
 11
647.4307600000011
 21
1378.2954399999969
 31
0.0
1001
ACDBBLOCKREPETAG
1070
     1
1071
       69
1005
1BBF3
  0
LINE
  5
1BBF4
  8
0
 10
803.94301999999959
 20
1292.2961199999961
 30
0.0
 11
768.16966000000173
 21
776.33321999999714
 31
0.0
1001
ACDBBLOCKREPETAG
1070
     1
1071
       70
1005
1BBF4
  0
LINE
  5
1BBF5
  8
0
 10
790.52927999999974
 20
1080.178179999996
 30
0.0
 11
911.26818000000071
 21
1223.5002199999981
 31
0.0
1001
ACDBBLOCKREPETAG
1070
     1
1071
       71
1005
1BBF5
  0
LINE
  5
1BBF6
  8
0
 10
942.57114000000036
 20
942.58891999999844
 30
0.0
 11
1184.048939999999
 21
954.05447999999694
 31
0.0
1001
ACDBBLOCKREPETAG
1070
     1
1071
       72
1005
1BBF6
  0
LINE
  5
1BBF7
  8
0
 10
593.76818000000071
 20
592.87917999999866
 30
0.0
 11
1353.9800199999991
 21
696.0717599999972
 31
0.0
1001
ACDBBLOCKREPETAG
1070
     1
1071
       73
1005
1BBF7
  0
LINE
  5
1BBF8
  8
0
 10
920.21151999999938
 20
638.74395999999865
 30
0.0
 11
1242.1844599999999
 21
890.99135999999669
 31
0.0
1001
ACDBBLOCKREPETAG
1070
     1
1071
       74
1005
1BBF8
  0
LINE
  5
1BBF9
  8
0
 10
1380.810040000001
 20
644.47673999999756
 30
0.0
 11
531.16226000000165
 21
8.1229199999967658
 31
0.0
1001
ACDBBLOCKREPETAG
1070
     1
1071
       75
1005
1BBF9
  0
LINE
  5
1BBFA
  8
0
 10
978.34450000000072
 20
340.6317799999976
 30
0.0
 11
1479.1918599999999
 21
346.36455999999657
 31
0.0
1001
ACDBBLOCKREPETAG
1070
     1
1071
       76
1005
1BBFA
  0
LINE
  5
1BBFB
  8
0
 10
745.81004000000098
 20
-169.59834000000271
 30
0.0
 11
1510.4922799999999
 21
180.1113999999973
 31
0.0
1001
ACDBBLOCKREPETAG
1070
     1
1071
       77
1005
1BBFB
  0
LINE
  5
1BBFC
  8
0
 10
432.78298000000149
 20
1298.028899999998
 30
0.0
 11
589.29524000000015
 21
1401.231639999997
 31
0.0
1001
ACDBBLOCKREPETAG
1070
     1
1071
       78
1005
1BBFC
  0
LINE
  5
1BBFD
  8
0
 10
580.89799999999696
 20
1068.806600000004
 30
0.0
 11
734.64420000000575
 21
1335.1002000000019
 31
0.0
1001
ACDBBLOCKREPETAG
1070
     1
1071
       79
1005
1BBFD
  0
LINE
  5
1BBFE
  8
0
 10
580.89799999999696
 20
-1038.2504000000049
 30
0.0
 11
734.64420000000575
 21
-1304.5440000000031
 31
0.0
1001
ACDBBLOCKREPETAG
1070
     1
1071
       80
1005
1BBFE
  0
POLYLINE
  5
1BBFF
  8
0
 66
     1
 10
0.0
 20
0.0
 30
0.0
 70
     1
1001
ACDBBLOCKREPETAG
1070
     1
1071
       81
1005
1BBFF
  0
VERTEX
  5
81707
  8
0
 10
-48.463199999997492
 20
24.84120000000166
 30
0.0
  0
VERTEX
  5
81708
  8
0
 10
-67.818000000001845
 20
-24.84120000000166
 30
0.0
  0
VERTEX
  5
81709
  8
0
 10
0.0
 20
0.0
 30
0.0
  0
SEQEND
  5
8170A
  8
0
  0
LINE
  5
1BC00
  8
0
 10
-887.22200000000726
 20
-844.57540000000517
 30
0.0
 11
-1104.9762000000039
 21
-1062.354999999995
 31
0.0
1001
ACDBBLOCKREPETAG
1070
     1
1071
       82
1005
1BC00
  0
LINE
  5
1BC01
  8
0
 10
-1206.5
 20
-300.65979999999968
 30
0.0
 11
-1499.4381999999971
 21
-379.1712000000087
 31
0.0
1001
ACDBBLOCKREPETAG
1070
     1
1071
       83
1005
1BC01
  0
LINE
  5
1BC02
  8
0
 10
-1081.125599999996
 20
-593.11540000000275
 30
0.0
 11
-1347.190599999994
 21
-746.73459999999693
 31
0.0
1001
ACDBBLOCKREPETAG
1070
     1
1071
       84
1005
1BC02
  0
LINE
  5
1BC03
  8
0
 10
-1551.3557999999939
 20
15.265400000002851
 30
0.0
 11
-1246.555799999994
 21
15.265400000002851
 31
0.0
1001
ACDBBLOCKREPETAG
1070
     1
1071
       85
1005
1BC03
  0
LINE
  5
1BC04
  8
0
 10
-635.60959999999704
 20
-1038.2504000000049
 30
0.0
 11
-789.35579999999391
 21
-1304.5440000000031
 31
0.0
1001
ACDBBLOCKREPETAG
1070
     1
1071
       86
1005
1BC04
  0
LINE
  5
1BC05
  8
0
 10
-341.24900000001008
 20
-1156.131800000006
 30
0.0
 11
-421.79239999999368
 21
-1456.791599999995
 31
0.0
1001
ACDBBLOCKREPETAG
1070
     1
1071
       87
1005
1BC05
  0
LINE
  5
1BC06
  8
0
 10
286.51199999999352
 20
-1156.131800000006
 30
0.0
 11
367.0807999999941
 21
-1456.791599999995
 31
0.0
1001
ACDBBLOCKREPETAG
1070
     1
1071
       88
1005
1BC06
  0
LINE
  5
1BC07
  8
0
 10
-27.355799999994179
 20
-1508.734599999997
 30
0.0
 11
-27.355799999994179
 21
-1203.9345999999971
 31
0.0
1001
ACDBBLOCKREPETAG
1070
     1
1071
       89
1005
1BC07
  0
LINE
  5
1BC08
  8
0
 10
-887.22200000000726
 20
875.13160000000414
 30
0.0
 11
-1104.9762000000039
 21
1092.911199999995
 31
0.0
1001
ACDBBLOCKREPETAG
1070
     1
1071
       90
1005
1BC08
  0
LINE
  5
1BC09
  8
0
 10
-1206.5
 20
331.2159999999991
 30
0.0
 11
-1499.4381999999971
 21
409.72740000000761
 31
0.0
1001
ACDBBLOCKREPETAG
1070
     1
1071
       91
1005
1BC09
  0
LINE
  5
1BC0A
  8
0
 10
-1081.125599999996
 20
623.67160000000206
 30
0.0
 11
-1347.190599999994
 21
777.26540000000273
 31
0.0
1001
ACDBBLOCKREPETAG
1070
     1
1071
       92
1005
1BC0A
  0
LINE
  5
1BC0B
  8
0
 10
-635.60959999999704
 20
1068.806600000004
 30
0.0
 11
-789.35579999999391
 21
1335.1002000000019
 31
0.0
1001
ACDBBLOCKREPETAG
1070
     1
1071
       93
1005
1BC0B
  0
LINE
  5
1BC0C
  8
0
 10
-341.24900000001008
 20
1186.688000000006
 30
0.0
 11
-421.79239999999368
 21
1487.3477999999941
 31
0.0
1001
ACDBBLOCKREPETAG
1070
     1
1071
       94
1005
1BC0C
  0
LINE
  5
1BC0D
  8
0
 10
286.51199999999352
 20
1186.688000000006
 30
0.0
 11
367.0807999999941
 21
1487.3477999999941
 31
0.0
1001
ACDBBLOCKREPETAG
1070
     1
1071
       95
1005
1BC0D
  0
LINE
  5
1BC0E
  8
0
 10
-27.355799999994179
 20
1539.265400000003
 30
0.0
 11
-27.355799999994179
 21
1234.465400000003
 31
0.0
1001
ACDBBLOCKREPETAG
1070
     1
1071
       96
1005
1BC0E
  0
LINE
  5
1BC0F
  8
0
 10
1151.7883999999999
 20
-300.65979999999968
 30
0.0
 11
1444.7012000000041
 21
-379.1712000000087
 31
0.0
1001
ACDBBLOCKREPETAG
1070
     1
1071
       97
1005
1BC0F
  0
LINE
  5
1BC10
  8
0
 10
1496.644200000005
 20
15.265400000002851
 30
0.0
 11
1191.8442000000059
 21
15.265400000002851
 31
0.0
1001
ACDBBLOCKREPETAG
1070
     1
1071
       98
1005
1BC10
  0
LINE
  5
1BC11
  8
0
 10
832.51040000000705
 20
-844.57540000000517
 30
0.0
 11
1050.2646000000041
 21
-1062.354999999995
 31
0.0
1001
ACDBBLOCKREPETAG
1070
     1
1071
       99
1005
1BC11
  0
LINE
  5
1BC12
  8
0
 10
1026.388600000003
 20
-593.11540000000275
 30
0.0
 11
1292.4536000000001
 21
-746.73459999999693
 31
0.0
1001
ACDBBLOCKREPETAG
1070
     1
1071
      100
1005
1BC12
  0
LINE
  5
1BC13
  8
0
 10
1151.7883999999999
 20
331.2159999999991
 30
0.0
 11
1444.7012000000041
 21
409.72740000000761
 31
0.0
1001
ACDBBLOCKREPETAG
1070
     1
1071
      101
1005
1BC13
  0
LINE
  5
1BC14
  8
0
 10
1026.388600000003
 20
623.67160000000206
 30
0.0
 11
1292.4536000000001
 21
777.26540000000273
 31
0.0
1001
ACDBBLOCKREPETAG
1070
     1
1071
      102
1005
1BC14
  0
LINE
  5
1BC15
  8
0
 10
832.51040000000705
 20
875.13160000000414
 30
0.0
 11
1050.2646000000041
 21
1092.911199999995
 31
0.0
1001
ACDBBLOCKREPETAG
1070
     1
1071
      103
1005
1BC15
  0
POLYLINE
  5
1BC16
  8
0
 66
     1
 10
0.0
 20
0.0
 30
0.0
 70
     1
1001
ACDBBLOCKREPETAG
1070
     1
1071
      104
1005
1BC16
  0
VERTEX
  5
8170B
  8
0
 10
255.97385978799329
 20
-15.98369772786018
 30
0.0
  0
VERTEX
  5
8170C
  8
0
 10
247.38865978798839
 20
-33.58589772786555
 30
0.0
  0
VERTEX
  5
8170D
  8
0
 10
266.23545978799319
 20
-22.58769772785995
 30
0.0
  0
SEQEND
  5
8170E
  8
0
  0
POLYLINE
  5
1BC17
  8
0
 66
     1
 10
0.0
 20
0.0
 30
0.0
 70
     1
1001
ACDBBLOCKREPETAG
1070
     1
1071
      105
1005
1BC17
  0
VERTEX
  5
8170F
  8
0
 10
261.10465978799323
 20
131.23470227213519
 30
0.0
  0
VERTEX
  5
81710
  8
0
 10
233.67265978798929
 20
102.6851022721346
 30
0.0
  0
VERTEX
  5
81711
  8
0
 10
228.54185978799509
 20
58.717702272134822
 30
0.0
  0
VERTEX
  5
81712
  8
0
 10
266.23545978799319
 20
12.56590227214042
 30
0.0
  0
VERTEX
  5
81713
  8
0
 10
298.82365978799078
 20
10.381502272140089
 30
0.0
  0
VERTEX
  5
81714
  8
0
 10
262.83185978799281
 20
63.111902272140647
 30
0.0
  0
VERTEX
  5
81715
  8
0
 10
237.10165978798909
 20
60.92750227214033
 30
0.0
  0
VERTEX
  5
81716
  8
0
 10
261.10465978799323
 20
71.900302272140735
 30
0.0
  0
SEQEND
  5
81717
  8
0
  0
POLYLINE
  5
1BC18
  8
0
 66
     1
 10
0.0
 20
0.0
 30
0.0
 70
     1
1001
ACDBBLOCKREPETAG
1070
     1
1071
      106
1005
1BC18
  0
VERTEX
  5
81718
  8
0
 10
139.38785978799541
 20
140.0485022721405
 30
0.0
  0
VERTEX
  5
81719
  8
0
 10
137.68605978798939
 20
122.4463022721409
 30
0.0
  0
VERTEX
  5
8171A
  8
0
 10
156.5328597879942
 20
129.0503022721407
 30
0.0
  0
SEQEND
  5
8171B
  8
0
  0
POLYLINE
  5
1BC19
  8
0
 66
     1
 10
0.0
 20
0.0
 30
0.0
 70
     1
1001
ACDBBLOCKREPETAG
1070
     1
1071
      107
1005
1BC19
  0
VERTEX
  5
8171C
  8
0
 10
117.1120597879908
 20
210.3557022721354
 30
0.0
  0
VERTEX
  5
8171D
  8
0
 10
115.4102597879964
 20
197.17310227213531
 30
0.0
  0
VERTEX
  5
8171E
  8
0
 10
125.6972597879957
 20
192.77890227214101
 30
0.0
  0
VERTEX
  5
8171F
  8
0
 10
125.6972597879957
 20
210.3557022721354
 30
0.0
  0
SEQEND
  5
81720
  8
0
  0
POLYLINE
  5
1BC1A
  8
0
 66
     1
 10
0.0
 20
0.0
 30
0.0
 70
     1
1001
ACDBBLOCKREPETAG
1070
     1
1071
      108
1005
1BC1A
  0
VERTEX
  5
81721
  8
0
 10
163.39085978799369
 20
201.56730227214121
 30
0.0
  0
VERTEX
  5
81722
  8
0
 10
139.38785978799541
 20
194.96330227214139
 30
0.0
  0
VERTEX
  5
81723
  8
0
 10
141.11505978798911
 20
157.62530227214069
 30
0.0
  0
VERTEX
  5
81724
  8
0
 10
165.1180597879933
 20
168.59810227213541
 30
0.0
  0
SEQEND
  5
81725
  8
0
  0
POLYLINE
  5
1BC1B
  8
0
 66
     1
 10
0.0
 20
0.0
 30
0.0
 70
     1
1001
ACDBBLOCKREPETAG
1070
     1
1071
      109
1005
1BC1B
  0
VERTEX
  5
81726
  8
0
 10
189.1210597879917
 20
236.72090227214159
 30
0.0
  0
VERTEX
  5
81727
  8
0
 10
180.53585978799251
 20
201.56730227214121
 30
0.0
  0
VERTEX
  5
81728
  8
0
 10
216.5276597879905
 20
201.56730227214121
 30
0.0
  0
SEQEND
  5
81729
  8
0
  0
POLYLINE
  5
1BC1C
  8
0
 66
     1
 10
0.0
 20
0.0
 30
0.0
 70
     1
1001
ACDBBLOCKREPETAG
1070
     1
1071
      110
1005
1BC1C
  0
VERTEX
  5
8172A
  8
0
 10
108.5522597879968
 20
69.715902272140411
 30
0.0
  0
VERTEX
  5
8172B
  8
0
 10
134.25705978798959
 20
67.506102272134939
 30
0.0
  0
VERTEX
  5
8172C
  8
0
 10
111.98125978799661
 20
32.352502272140327
 30
0.0
  0
SEQEND
  5
8172D
  8
0
  0
POLYLINE
  5
1BC1D
  8
0
 66
     1
 10
0.0
 20
0.0
 30
0.0
 70
     1
1001
ACDBBLOCKREPETAG
1070
     1
1071
      111
1005
1BC1D
  0
VERTEX
  5
8172E
  8
0
 10
89.680059787992647
 20
47.74490227214018
 30
0.0
  0
VERTEX
  5
8172F
  8
0
 10
72.535059787993774
 20
89.502502272140319
 30
0.0
  0
VERTEX
  5
81730
  8
0
 10
96.538059787992211
 20
89.502502272140319
 30
0.0
  0
SEQEND
  5
81731
  8
0
  0
POLYLINE
  5
1BC1E
  8
0
 66
     1
 10
0.0
 20
0.0
 30
0.0
 70
     1
1001
ACDBBLOCKREPETAG
1070
     1
1071
      112
1005
1BC1E
  0
VERTEX
  5
81732
  8
0
 10
197.68085978799721
 20
-20.4032977278654
 30
0.0
  0
VERTEX
  5
81733
  8
0
 10
163.39085978799369
 20
-37.980097727859807
 30
0.0
  0
VERTEX
  5
81734
  8
0
 10
163.39085978799369
 20
-18.193497727859889
 30
0.0
  0
SEQEND
  5
81735
  8
0
  0
POLYLINE
  5
1BC1F
  8
0
 66
     1
 10
0.0
 20
0.0
 30
0.0
 70
     1
1001
ACDBBLOCKREPETAG
1070
     1
1071
      113
1005
1BC1F
  0
VERTEX
  5
81736
  8
0
 10
190.82285978799769
 20
43.350702272134363
 30
0.0
  0
VERTEX
  5
81737
  8
0
 10
175.4050597879926
 20
32.352502272140327
 30
0.0
  0
VERTEX
  5
81738
  8
0
 10
158.26005978799361
 20
54.323502272140558
 30
0.0
  0
SEQEND
  5
81739
  8
0
  0
POLYLINE
  5
1BC20
  8
0
 66
     1
 10
0.0
 20
0.0
 30
0.0
 70
     1
1001
ACDBBLOCKREPETAG
1070
     1
1071
      114
1005
1BC20
  0
VERTEX
  5
8173A
  8
0
 10
147.9730597879944
 20
38.956502272140092
 30
0.0
  0
VERTEX
  5
8173B
  8
0
 10
127.3990597879901
 20
10.381502272140089
 30
0.0
  0
VERTEX
  5
8173C
  8
0
 10
139.38785978799541
 20
-0.6166977278597187
 30
0.0
  0
VERTEX
  5
8173D
  8
0
 10
165.1180597879933
 20
10.381502272140089
 30
0.0
  0
SEQEND
  5
8173E
  8
0
  0
POLYLINE
  5
1BC21
  8
0
 66
     1
 10
0.0
 20
0.0
 30
0.0
 70
     1
1001
ACDBBLOCKREPETAG
1070
     1
1071
      115
1005
1BC21
  0
VERTEX
  5
8173F
  8
0
 10
111.98125978799661
 20
115.86770227213481
 30
0.0
  0
VERTEX
  5
81740
  8
0
 10
108.5522597879968
 20
93.89670227213459
 30
0.0
  0
VERTEX
  5
81741
  8
0
 10
139.38785978799541
 20
82.898502272140547
 30
0.0
  0
SEQEND
  5
81742
  8
0
  0
POLYLINE
  5
1BC22
  8
0
 66
     1
 10
0.0
 20
0.0
 30
0.0
 70
     1
1001
ACDBBLOCKREPETAG
1070
     1
1071
      116
1005
1BC22
  0
VERTEX
  5
81743
  8
0
 10
206.24065978799109
 20
126.8405022721352
 30
0.0
  0
VERTEX
  5
81744
  8
0
 10
180.53585978799251
 20
118.0521022721351
 30
0.0
  0
VERTEX
  5
81745
  8
0
 10
165.1180597879933
 20
104.86950227214081
 30
0.0
  0
VERTEX
  5
81746
  8
0
 10
187.3938597879918
 20
78.504302272140507
 30
0.0
  0
VERTEX
  5
81747
  8
0
 10
206.24065978799109
 20
89.502502272140319
 30
0.0
  0
VERTEX
  5
81748
  8
0
 10
194.2518597879974
 20
98.290902272140457
 30
0.0
  0
SEQEND
  5
81749
  8
0
  0
POLYLINE
  5
1BC23
  8
0
 66
     1
 10
0.0
 20
0.0
 30
0.0
 70
     1
1001
ACDBBLOCKREPETAG
1070
     1
1071
      117
1005
1BC23
  0
VERTEX
  5
8174A
  8
0
 10
207.9678597879965
 20
65.321702272134601
 30
0.0
  0
VERTEX
  5
8174B
  8
0
 10
201.10985978799701
 20
52.139102272134458
 30
0.0
  0
VERTEX
  5
8174C
  8
0
 10
219.95665978799011
 20
38.956502272140092
 30
0.0
  0
SEQEND
  5
8174D
  8
0
  0
POLYLINE
  5
1BC24
  8
0
 66
     1
 10
0.0
 20
0.0
 30
0.0
 70
     1
1001
ACDBBLOCKREPETAG
1070
     1
1071
      118
1005
1BC24
  0
VERTEX
  5
8174E
  8
0
 10
206.24065978799109
 20
19.169902272140192
 30
0.0
  0
VERTEX
  5
8174F
  8
0
 10
190.82285978799769
 20
3.7775022721403242
 30
0.0
  0
VERTEX
  5
81750
  8
0
 10
226.8146597879898
 20
-7.195297727865861
 30
0.0
  0
VERTEX
  5
81751
  8
0
 10
231.9708597879949
 20
12.56590227214042
 30
0.0
  0
SEQEND
  5
81752
  8
0
  0
POLYLINE
  5
1BC25
  8
0
 66
     1
 10
0.0
 20
0.0
 30
0.0
 70
     1
1001
ACDBBLOCKREPETAG
1070
     1
1071
      119
1005
1BC25
  0
VERTEX
  5
81753
  8
0
 10
221.6838597879956
 20
120.2619022721406
 30
0.0
  0
VERTEX
  5
81754
  8
0
 10
207.9678597879965
 20
115.86770227213481
 30
0.0
  0
VERTEX
  5
81755
  8
0
 10
213.0986597879907
 20
98.290902272140457
 30
0.0
  0
VERTEX
  5
81756
  8
0
 10
218.2548597879958
 20
102.6851022721346
 30
0.0
  0
SEQEND
  5
81757
  8
0
  0
POLYLINE
  5
1BC26
  8
0
 66
     1
 10
0.0
 20
0.0
 30
0.0
 70
     1
1001
ACDBBLOCKREPETAG
1070
     1
1071
      120
1005
1BC26
  0
VERTEX
  5
81758
  8
0
 10
199.40805978799091
 20
172.99230227214119
 30
0.0
  0
VERTEX
  5
81759
  8
0
 10
182.26305978799209
 20
157.62530227214069
 30
0.0
  0
VERTEX
  5
8175A
  8
0
 10
228.54185978799509
 20
140.0485022721405
 30
0.0
  0
VERTEX
  5
8175B
  8
0
 10
237.10165978798909
 20
162.01950227214081
 30
0.0
  0
SEQEND
  5
8175C
  8
0
  0
POLYLINE
  5
1BC27
  8
0
 66
     1
 10
0.0
 20
0.0
 30
0.0
 70
     1
1001
ACDBBLOCKREPETAG
1070
     1
1071
      121
1005
1BC27
  0
VERTEX
  5
8175D
  8
0
 10
105.1232597879971
 20
282.872702272136
 30
0.0
  0
VERTEX
  5
8175E
  8
0
 10
91.407259787998015
 20
254.3231022721354
 30
0.0
  0
VERTEX
  5
8175F
  8
0
 10
101.6942597879973
 20
234.53650227213549
 30
0.0
  0
VERTEX
  5
81760
  8
0
 10
132.5298597879958
 20
221.35390227214111
 30
0.0
  0
VERTEX
  5
81761
  8
0
 10
159.9618597879938
 20
238.93070227213551
 30
0.0
  0
VERTEX
  5
81762
  8
0
 10
129.100859787996
 20
258.71730227214118
 30
0.0
  0
VERTEX
  5
81763
  8
0
 10
117.1120597879908
 20
254.3231022721354
 30
0.0
  0
SEQEND
  5
81764
  8
0
  0
POLYLINE
  5
1BC28
  8
0
 66
     1
 10
0.0
 20
0.0
 30
0.0
 70
     1
1001
ACDBBLOCKREPETAG
1070
     1
1071
      122
1005
1BC28
  0
VERTEX
  5
81765
  8
0
 10
153.10385978799439
 20
-240.1386977278614
 30
0.0
  0
VERTEX
  5
81766
  8
0
 10
137.68605978798939
 20
-253.3466977278608
 30
0.0
  0
VERTEX
  5
81767
  8
0
 10
156.5328597879942
 20
-257.7408977278609
 30
0.0
  0
SEQEND
  5
81768
  8
0
  0
POLYLINE
  5
1BC29
  8
0
 66
     1
 10
0.0
 20
0.0
 30
0.0
 70
     1
1001
ACDBBLOCKREPETAG
1070
     1
1071
      123
1005
1BC29
  0
VERTEX
  5
81769
  8
0
 10
134.25705978798959
 20
-202.80069772786061
 30
0.0
  0
VERTEX
  5
8176A
  8
0
 10
117.1120597879908
 20
-207.19489772786071
 30
0.0
  0
VERTEX
  5
8176B
  8
0
 10
127.3990597879901
 20
-226.95609772786119
 30
0.0
  0
SEQEND
  5
8176C
  8
0
  0
POLYLINE
  5
1BC2A
  8
0
 66
     1
 10
0.0
 20
0.0
 30
0.0
 70
     1
1001
ACDBBLOCKREPETAG
1070
     1
1071
      124
1005
1BC2A
  0
VERTEX
  5
8176D
  8
0
 10
103.3960597879917
 20
-240.1386977278614
 30
0.0
  0
VERTEX
  5
8176E
  8
0
 10
89.680059787992647
 20
-253.3466977278608
 30
0.0
  0
VERTEX
  5
8176F
  8
0
 10
103.3960597879917
 20
-268.7136977278613
 30
0.0
  0
VERTEX
  5
81770
  8
0
 10
117.1120597879908
 20
-251.13689772786111
 30
0.0
  0
SEQEND
  5
81771
  8
0
  0
POLYLINE
  5
1BC2B
  8
0
 66
     1
 10
0.0
 20
0.0
 30
0.0
 70
     1
1001
ACDBBLOCKREPETAG
1070
     1
1071
      125
1005
1BC2B
  0
VERTEX
  5
81772
  8
0
 10
154.83105978799401
 20
-226.95609772786119
 30
0.0
  0
VERTEX
  5
81773
  8
0
 10
156.5328597879942
 20
-183.0140977278605
 30
0.0
  0
VERTEX
  5
81774
  8
0
 10
175.4050597879926
 20
-169.83149772786061
 30
0.0
  0
VERTEX
  5
81775
  8
0
 10
183.96485978799231
 20
-187.40829772786651
 30
0.0
  0
SEQEND
  5
81776
  8
0
  0
POLYLINE
  5
1BC2C
  8
0
 66
     1
 10
0.0
 20
0.0
 30
0.0
 70
     1
1001
ACDBBLOCKREPETAG
1070
     1
1071
      126
1005
1BC2C
  0
VERTEX
  5
81777
  8
0
 10
204.53885978799681
 20
-204.98509772786099
 30
0.0
  0
VERTEX
  5
81778
  8
0
 10
218.2548597879958
 20
-180.80429772786681
 30
0.0
  0
VERTEX
  5
81779
  8
0
 10
201.10985978799701
 20
-191.80249772786081
 30
0.0
  0
SEQEND
  5
8177A
  8
0
  0
POLYLINE
  5
1BC2D
  8
0
 66
     1
 10
0.0
 20
0.0
 30
0.0
 70
     1
1001
ACDBBLOCKREPETAG
1070
     1
1071
      127
1005
1BC2D
  0
VERTEX
  5
8177B
  8
0
 10
237.10165978798909
 20
-130.28369772786019
 30
0.0
  0
VERTEX
  5
8177C
  8
0
 10
214.825859787996
 20
-158.83329772786641
 30
0.0
  0
VERTEX
  5
8177D
  8
0
 10
202.8116597879914
 20
-132.46809772786051
 30
0.0
  0
SEQEND
  5
8177E
  8
0
  0
POLYLINE
  5
1BC2E
  8
0
 66
     1
 10
0.0
 20
0.0
 30
0.0
 70
     1
1001
ACDBBLOCKREPETAG
1070
     1
1071
      128
1005
1BC2E
  0
VERTEX
  5
8177F
  8
0
 10
211.39685978799631
 20
-44.558697727860192
 30
0.0
  0
VERTEX
  5
81780
  8
0
 10
202.8116597879914
 20
-64.345297727865855
 30
0.0
  0
VERTEX
  5
81781
  8
0
 10
192.5500597879913
 20
-53.347097727860273
 30
0.0
  0
SEQEND
  5
81782
  8
0
  0
POLYLINE
  5
1BC2F
  8
0
 66
     1
 10
0.0
 20
0.0
 30
0.0
 70
     1
1001
ACDBBLOCKREPETAG
1070
     1
1071
      129
1005
1BC2F
  0
VERTEX
  5
81783
  8
0
 10
237.10165978798909
 20
-44.558697727860192
 30
0.0
  0
VERTEX
  5
81784
  8
0
 10
242.25785978799419
 20
-95.104697727860412
 30
0.0
  0
VERTEX
  5
81785
  8
0
 10
257.67565978798768
 20
-64.345297727865855
 30
0.0
  0
SEQEND
  5
81786
  8
0
  0
POLYLINE
  5
1BC30
  8
0
 66
     1
 10
0.0
 20
0.0
 30
0.0
 70
     1
1001
ACDBBLOCKREPETAG
1070
     1
1071
      130
1005
1BC30
  0
VERTEX
  5
81787
  8
0
 10
-50.883540212004249
 20
296.05530227214189
 30
0.0
  0
VERTEX
  5
81788
  8
0
 10
-40.596540212004932
 20
269.6901022721359
 30
0.0
  0
VERTEX
  5
81789
  8
0
 10
-13.16454021200679
 20
256.5075022721357
 30
0.0
  0
VERTEX
  5
8178A
  8
0
 10
-4.604740212001297
 20
269.6901022721359
 30
0.0
  0
VERTEX
  5
8178B
  8
0
 10
-20.02254021200633
 20
278.47850227213598
 30
0.0
  0
SEQEND
  5
8178C
  8
0
  0
POLYLINE
  5
1BC31
  8
0
 66
     1
 10
0.0
 20
0.0
 30
0.0
 70
     1
1001
ACDBBLOCKREPETAG
1070
     1
1071
      131
1005
1BC31
  0
VERTEX
  5
8178D
  8
0
 10
-73.159340212008829
 20
190.5945022721408
 30
0.0
  0
VERTEX
  5
8178E
  8
0
 10
-80.017340212008349
 20
168.59810227213541
 30
0.0
  0
VERTEX
  5
8178F
  8
0
 10
-57.741540212003791
 20
170.80790227214081
 30
0.0
  0
SEQEND
  5
81790
  8
0
  0
POLYLINE
  5
1BC32
  8
0
 66
     1
 10
0.0
 20
0.0
 30
0.0
 70
     1
1001
ACDBBLOCKREPETAG
1070
     1
1071
      132
1005
1BC32
  0
VERTEX
  5
81791
  8
0
 10
19.39825978799708
 20
181.7807022721355
 30
0.0
  0
VERTEX
  5
81792
  8
0
 10
2.253259787998239
 20
164.20390227214111
 30
0.0
  0
VERTEX
  5
81793
  8
0
 10
27.98345978799621
 20
151.0213022721409
 30
0.0
  0
SEQEND
  5
81794
  8
0
  0
POLYLINE
  5
1BC33
  8
0
 66
     1
 10
0.0
 20
0.0
 30
0.0
 70
     1
1001
ACDBBLOCKREPETAG
1070
     1
1071
      133
1005
1BC33
  0
VERTEX
  5
81795
  8
0
 10
-49.156340212010441
 20
241.1151022721358
 30
0.0
  0
VERTEX
  5
81796
  8
0
 10
-62.872340212009497
 20
227.93250227213571
 30
0.0
  0
VERTEX
  5
81797
  8
0
 10
-57.741540212003791
 20
216.9597022721353
 30
0.0
  0
VERTEX
  5
81798
  8
0
 10
-45.72734021201066
 20
230.14230227214119
 30
0.0
  0
SEQEND
  5
81799
  8
0
  0
POLYLINE
  5
1BC34
  8
0
 66
     1
 10
0.0
 20
0.0
 30
0.0
 70
     1
1001
ACDBBLOCKREPETAG
1070
     1
1071
      134
1005
1BC34
  0
VERTEX
  5
8179A
  8
0
 10
0.5514597879922804
 20
230.14230227214119
 30
0.0
  0
VERTEX
  5
8179B
  8
0
 10
-33.738540212005411
 20
216.9597022721353
 30
0.0
  0
VERTEX
  5
8179C
  8
0
 10
-44.025540212004707
 20
181.7807022721355
 30
0.0
  0
VERTEX
  5
8179D
  8
0
 10
7.409459787991814
 20
197.17310227213531
 30
0.0
  0
SEQEND
  5
8179E
  8
0
  0
POLYLINE
  5
1BC35
  8
0
 66
     1
 10
0.0
 20
0.0
 30
0.0
 70
     1
1001
ACDBBLOCKREPETAG
1070
     1
1071
      135
1005
1BC35
  0
VERTEX
  5
8179F
  8
0
 10
-116.0091402120062
 20
162.01950227214081
 30
0.0
  0
VERTEX
  5
817A0
  8
0
 10
-138.3103402120102
 20
113.6579022721408
 30
0.0
  0
VERTEX
  5
817A1
  8
0
 10
-98.864140212007413
 20
122.4463022721409
 30
0.0
  0
SEQEND
  5
817A2
  8
0
  0
POLYLINE
  5
1BC36
  8
0
 66
     1
 10
0.0
 20
0.0
 30
0.0
 70
     1
1001
ACDBBLOCKREPETAG
1070
     1
1071
      136
1005
1BC36
  0
VERTEX
  5
817A3
  8
0
 10
-206.8649402120061
 20
153.2311022721349
 30
0.0
  0
VERTEX
  5
817A4
  8
0
 10
-237.7259402120099
 20
151.0213022721409
 30
0.0
  0
VERTEX
  5
817A5
  8
0
 10
-229.16614021200439
 20
120.2619022721406
 30
0.0
  0
SEQEND
  5
817A6
  8
0
  0
POLYLINE
  5
1BC37
  8
0
 66
     1
 10
0.0
 20
0.0
 30
0.0
 70
     1
1001
ACDBBLOCKREPETAG
1070
     1
1071
      137
1005
1BC37
  0
VERTEX
  5
817A7
  8
0
 10
-146.87014021200409
 20
172.99230227214119
 30
0.0
  0
VERTEX
  5
817A8
  8
0
 10
-169.1459402120087
 20
157.62530227214069
 30
0.0
  0
VERTEX
  5
817A9
  8
0
 10
-165.71694021200881
 20
144.4427022721348
 30
0.0
  0
SEQEND
  5
817AA
  8
0
  0
POLYLINE
  5
1BC38
  8
0
 66
     1
 10
0.0
 20
0.0
 30
0.0
 70
     1
1001
ACDBBLOCKREPETAG
1070
     1
1071
      138
1005
1BC38
  0
VERTEX
  5
817AB
  8
0
 10
-146.87014021200409
 20
247.71910227213559
 30
0.0
  0
VERTEX
  5
817AC
  8
0
 10
-191.4471402120069
 20
234.53650227213549
 30
0.0
  0
VERTEX
  5
817AD
  8
0
 10
-203.43594021200639
 20
190.5945022721408
 30
0.0
  0
VERTEX
  5
817AE
  8
0
 10
-158.88434021200879
 20
214.7499022721413
 30
0.0
  0
SEQEND
  5
817AF
  8
0
  0
POLYLINE
  5
1BC39
  8
0
 66
     1
 10
0.0
 20
0.0
 30
0.0
 70
     1
1001
ACDBBLOCKREPETAG
1070
     1
1071
      139
1005
1BC39
  0
VERTEX
  5
817B0
  8
0
 10
-122.86714021200569
 20
219.1441022721356
 30
0.0
  0
VERTEX
  5
817B1
  8
0
 10
-97.162340212007194
 20
199.3829022721408
 30
0.0
  0
VERTEX
  5
817B2
  8
0
 10
-102.2931402120071
 20
227.93250227213571
 30
0.0
  0
SEQEND
  5
817B3
  8
0
  0
POLYLINE
  5
1BC3A
  8
0
 66
     1
 10
0.0
 20
0.0
 30
0.0
 70
     1
1001
ACDBBLOCKREPETAG
1070
     1
1071
      140
1005
1BC3A
  0
VERTEX
  5
817B4
  8
0
 10
-177.7311402120078
 20
45.535102272134672
 30
0.0
  0
VERTEX
  5
817B5
  8
0
 10
-201.7341402120062
 20
38.956502272140092
 30
0.0
  0
VERTEX
  5
817B6
  8
0
 10
-189.71994021200729
 20
12.56590227214042
 30
0.0
  0
SEQEND
  5
817B7
  8
0
  0
POLYLINE
  5
1BC3B
  8
0
 66
     1
 10
0.0
 20
0.0
 30
0.0
 70
     1
1001
ACDBBLOCKREPETAG
1070
     1
1071
      141
1005
1BC3B
  0
VERTEX
  5
817B8
  8
0
 10
-208.5921402120058
 20
78.504302272140507
 30
0.0
  0
VERTEX
  5
817B9
  8
0
 10
-215.45014021200529
 20
58.717702272134822
 30
0.0
  0
VERTEX
  5
817BA
  8
0
 10
-200.00694021200661
 20
65.321702272134601
 30
0.0
  0
SEQEND
  5
817BB
  8
0
  0
POLYLINE
  5
1BC3C
  8
0
 66
     1
 10
0.0
 20
0.0
 30
0.0
 70
     1
1001
ACDBBLOCKREPETAG
1070
     1
1071
      142
1005
1BC3C
  0
VERTEX
  5
817BC
  8
0
 10
-112.5801402120064
 20
280.68830227214141
 30
0.0
  0
VERTEX
  5
817BD
  8
0
 10
-131.45234021201071
 20
263.1115022721354
 30
0.0
  0
VERTEX
  5
817BE
  8
0
 10
-100.5913402120069
 20
241.1151022721358
 30
0.0
  0
VERTEX
  5
817BF
  8
0
 10
-52.585340212010209
 20
263.1115022721354
 30
0.0
  0
SEQEND
  5
817C0
  8
0
  0
POLYLINE
  5
1BC3D
  8
0
 66
     1
 10
0.0
 20
0.0
 30
0.0
 70
     1
1001
ACDBBLOCKREPETAG
1070
     1
1071
      143
1005
1BC3D
  0
VERTEX
  5
817C1
  8
0
 10
31.412459787995971
 20
304.86910227213559
 30
0.0
  0
VERTEX
  5
817C2
  8
0
 10
14.267459787991349
 20
287.26690227214181
 30
0.0
  0
VERTEX
  5
817C3
  8
0
 10
19.39825978799708
 20
254.3231022721354
 30
0.0
  0
VERTEX
  5
817C4
  8
0
 10
63.975259787994069
 20
280.68830227214141
 30
0.0
  0
SEQEND
  5
817C5
  8
0
  0
POLYLINE
  5
1BC3E
  8
0
 66
     1
 10
0.0
 20
0.0
 30
0.0
 70
     1
1001
ACDBBLOCKREPETAG
1070
     1
1071
      144
1005
1BC3E
  0
VERTEX
  5
817C6
  8
0
 10
-287.43374021200111
 20
45.535102272134672
 30
0.0
  0
VERTEX
  5
817C7
  8
0
 10
-249.71474021200359
 20
58.717702272134822
 30
0.0
  0
VERTEX
  5
817C8
  8
0
 10
-244.5839402120094
 20
87.292702272134804
 30
0.0
  0
VERTEX
  5
817C9
  8
0
 10
-265.1579402120081
 20
89.502502272140319
 30
0.0
  0
SEQEND
  5
817CA
  8
0
  0
POLYLINE
  5
1BC3F
  8
0
 66
     1
 10
0.0
 20
0.0
 30
0.0
 70
     1
1001
ACDBBLOCKREPETAG
1070
     1
1071
      145
1005
1BC3F
  0
VERTEX
  5
817CB
  8
0
 10
-208.5921402120058
 20
10.381502272140089
 30
0.0
  0
VERTEX
  5
817CC
  8
0
 10
-239.4277402120043
 20
8.1717022721345973
 30
0.0
  0
VERTEX
  5
817CD
  8
0
 10
-249.71474021200359
 20
21.354302272140512
 30
0.0
  0
SEQEND
  5
817CE
  8
0
  0
POLYLINE
  5
1BC40
  8
0
 66
     1
 10
0.0
 20
0.0
 30
0.0
 70
     1
1001
ACDBBLOCKREPETAG
1070
     1
1071
      146
1005
1BC40
  0
VERTEX
  5
817CF
  8
0
 10
-64.599540212009103
 20
-255.53109772786121
 30
0.0
  0
VERTEX
  5
817D0
  8
0
 10
-76.588340212008589
 20
-259.92529772786708
 30
0.0
  0
VERTEX
  5
817D1
  8
0
 10
-45.72734021201066
 20
-270.92349772786099
 30
0.0
  0
SEQEND
  5
817D2
  8
0
  0
POLYLINE
  5
1BC41
  8
0
 66
     1
 10
0.0
 20
0.0
 30
0.0
 70
     1
1001
ACDBBLOCKREPETAG
1070
     1
1071
      147
1005
1BC41
  0
VERTEX
  5
817D3
  8
0
 10
-59.443340212009751
 20
-233.56009772786089
 30
0.0
  0
VERTEX
  5
817D4
  8
0
 10
-32.011340212011604
 20
-215.98329772786661
 30
0.0
  0
VERTEX
  5
817D5
  8
0
 10
-25.153340212012061
 20
-242.34849772786109
 30
0.0
  0
SEQEND
  5
817D6
  8
0
  0
POLYLINE
  5
1BC42
  8
0
 66
     1
 10
0.0
 20
0.0
 30
0.0
 70
     1
1001
ACDBBLOCKREPETAG
1070
     1
1071
      148
1005
1BC42
  0
VERTEX
  5
817D7
  8
0
 10
-210.29394021200599
 20
-145.6506977278604
 30
0.0
  0
VERTEX
  5
817D8
  8
0
 10
-172.5749402120085
 20
-134.677897727866
 30
0.0
  0
VERTEX
  5
817D9
  8
0
 10
-177.7311402120078
 20
-165.43729772786631
 30
0.0
  0
SEQEND
  5
817DA
  8
0
  0
POLYLINE
  5
1BC43
  8
0
 66
     1
 10
0.0
 20
0.0
 30
0.0
 70
     1
1001
ACDBBLOCKREPETAG
1070
     1
1071
      149
1005
1BC43
  0
VERTEX
  5
817DB
  8
0
 10
-122.86714021200569
 20
-224.7716977278609
 30
0.0
  0
VERTEX
  5
817DC
  8
0
 10
-112.5801402120064
 20
-240.1386977278614
 30
0.0
  0
VERTEX
  5
817DD
  8
0
 10
-152.02634021200899
 20
-248.95249772786079
 30
0.0
  0
SEQEND
  5
817DE
  8
0
  0
POLYLINE
  5
1BC44
  8
0
 66
     1
 10
0.0
 20
0.0
 30
0.0
 70
     1
1001
ACDBBLOCKREPETAG
1070
     1
1071
      150
1005
1BC44
  0
VERTEX
  5
817DF
  8
0
 10
-254.87094021200869
 20
-68.739497727860112
 30
0.0
  0
VERTEX
  5
817E0
  8
0
 10
-270.28874021200221
 20
-84.131897727865763
 30
0.0
  0
VERTEX
  5
817E1
  8
0
 10
-265.1579402120081
 20
-112.6814977278606
 30
0.0
  0
VERTEX
  5
817E2
  8
0
 10
-251.4419402120088
 20
-88.526097727860034
 30
0.0
  0
SEQEND
  5
817E3
  8
0
  0
POLYLINE
  5
1BC45
  8
0
 66
     1
 10
0.0
 20
0.0
 30
0.0
 70
     1
1001
ACDBBLOCKREPETAG
1070
     1
1071
      151
1005
1BC45
  0
VERTEX
  5
817E4
  8
0
 10
43.401259787995443
 20
159.80970227213521
 30
0.0
  0
VERTEX
  5
817E5
  8
0
 10
43.401259787995443
 20
179.596302272141
 30
0.0
  0
VERTEX
  5
817E6
  8
0
 10
67.404259787993851
 20
190.5945022721408
 30
0.0
  0
VERTEX
  5
817E7
  8
0
 10
53.688259787994781
 20
175.20210227213511
 30
0.0
  0
SEQEND
  5
817E8
  8
0
  0
POLYLINE
  5
1BC46
  8
0
 66
     1
 10
0.0
 20
0.0
 30
0.0
 70
     1
1001
ACDBBLOCKREPETAG
1070
     1
1071
      152
1005
1BC46
  0
VERTEX
  5
817E9
  8
0
 10
65.677059787994267
 20
252.1133022721414
 30
0.0
  0
VERTEX
  5
817EA
  8
0
 10
46.830259787995217
 20
247.71910227213559
 30
0.0
  0
VERTEX
  5
817EB
  8
0
 10
41.699459787995274
 20
234.53650227213549
 30
0.0
  0
VERTEX
  5
817EC
  8
0
 10
58.819059787994732
 20
238.93070227213551
 30
0.0
  0
SEQEND
  5
817ED
  8
0
  0
POLYLINE
  5
1BC47
  8
0
 66
     1
 10
0.0
 20
0.0
 30
0.0
 70
     1
1001
ACDBBLOCKREPETAG
1070
     1
1071
      153
1005
1BC47
  0
VERTEX
  5
817EE
  8
0
 10
63.975259787994069
 20
172.99230227214119
 30
0.0
  0
VERTEX
  5
817EF
  8
0
 10
63.975259787994069
 20
148.83690227214061
 30
0.0
  0
VERTEX
  5
817F0
  8
0
 10
111.98125978799661
 20
131.23470227213519
 30
0.0
  0
VERTEX
  5
817F1
  8
0
 10
117.1120597879908
 20
170.80790227214081
 30
0.0
  0
SEQEND
  5
817F2
  8
0
  0
POLYLINE
  5
1BC48
  8
0
 66
     1
 10
0.0
 20
0.0
 30
0.0
 70
     1
1001
ACDBBLOCKREPETAG
1070
     1
1071
      154
1005
1BC48
  0
VERTEX
  5
817F3
  8
0
 10
34.841459787995731
 20
216.9597022721353
 30
0.0
  0
VERTEX
  5
817F4
  8
0
 10
79.393059787993352
 20
223.53830227214141
 30
0.0
  0
VERTEX
  5
817F5
  8
0
 10
96.538059787992211
 20
199.3829022721408
 30
0.0
  0
VERTEX
  5
817F6
  8
0
 10
48.557459787994823
 20
197.17310227213531
 30
0.0
  0
SEQEND
  5
817F7
  8
0
  0
POLYLINE
  5
1BC49
  8
0
 66
     1
 10
0.0
 20
0.0
 30
0.0
 70
     1
1001
ACDBBLOCKREPETAG
1070
     1
1071
      155
1005
1BC49
  0
VERTEX
  5
817F8
  8
0
 10
5.6822597879980066
 20
-268.7136977278613
 30
0.0
  0
VERTEX
  5
817F9
  8
0
 10
21.125459787990891
 20
-286.31589772786089
 30
0.0
  0
VERTEX
  5
817FA
  8
0
 10
65.677059787994267
 20
-288.50029772786701
 30
0.0
  0
SEQEND
  5
817FB
  8
0
  0
POLYLINE
  5
1BC4A
  8
0
 66
     1
 10
0.0
 20
0.0
 30
0.0
1001
ACDBBLOCKREPETAG
1070
     1
1071
      156
1005
1BC4A
  0
VERTEX
  5
817FC
  8
0
 10
0.0
 20
1540.2560000000019
 30
0.0
  0
VERTEX
  5
817FD
  8
0
 10
-77.495400000009795
 20
1428.4451999999951
 30
0.0
  0
VERTEX
  5
817FE
  8
0
 10
-106.5784000000093
 20
1341.5010000000011
 30
0.0
  0
VERTEX
  5
817FF
  8
0
 10
-135.63599999999209
 20
1217.2949999999989
 30
0.0
  0
VERTEX
  5
81800
  8
0
 10
-155.01619999999011
 20
1167.6126000000011
 30
0.0
  0
VERTEX
  5
81801
  8
0
 10
-280.9747999999974
 20
1291.818599999998
 30
0.0
  0
VERTEX
  5
81802
  8
0
 10
-474.75140000000641
 20
1329.0804000000001
 30
0.0
  0
VERTEX
  5
81803
  8
0
 10
-532.89200000000005
 20
1204.874400000004
 30
0.0
  0
VERTEX
  5
81804
  8
0
 10
-513.51180000000249
 20
1105.5095999999969
 30
0.0
  0
VERTEX
  5
81805
  8
0
 10
-523.1891999999873
 20
1006.119400000002
 30
0.0
  0
VERTEX
  5
81806
  8
0
 10
-658.85059999999612
 20
1093.089000000002
 30
0.0
  0
VERTEX
  5
81807
  8
0
 10
-707.28840000000002
 20
1254.556800000001
 30
0.0
  0
VERTEX
  5
81808
  8
0
 10
-842.92440000000363
 20
1329.0804000000001
 30
0.0
  0
VERTEX
  5
81809
  8
0
 10
-775.10640000000171
 20
1204.874400000004
 30
0.0
  0
VERTEX
  5
8180A
  8
0
 10
-794.48659999999973
 20
1093.089000000002
 30
0.0
  0
VERTEX
  5
8180B
  8
0
 10
-765.42899999999395
 20
968.85760000000005
 30
0.0
  0
VERTEX
  5
8180C
  8
0
 10
-852.62719999999376
 20
894.33400000000086
 30
0.0
  0
VERTEX
  5
8180D
  8
0
 10
-1036.70099999999
 20
931.59580000000324
 30
0.0
  0
VERTEX
  5
8180E
  8
0
 10
-1249.88319999999
 20
968.85760000000005
 30
0.0
  0
VERTEX
  5
8180F
  8
0
 10
-1191.7425999999959
 20
931.59580000000324
 30
0.0
  0
VERTEX
  5
81810
  8
0
 10
-1075.4614000000081
 20
807.3898000000006
 30
0.0
  0
VERTEX
  5
81811
  8
0
 10
-1075.4614000000081
 20
720.44560000000081
 30
0.0
  0
VERTEX
  5
81812
  8
0
 10
-1182.039799999995
 20
695.60439999999892
 30
0.0
  0
VERTEX
  5
81813
  8
0
 10
-1414.5768
 20
695.60439999999892
 30
0.0
  0
VERTEX
  5
81814
  8
0
 10
-1269.2379999999951
 20
558.95240000000217
 30
0.0
  0
VERTEX
  5
81815
  8
0
 10
-1385.519199999994
 20
534.11119999999471
 30
0.0
  0
VERTEX
  5
81816
  8
0
 10
-1172.3623999999991
 20
372.64340000000118
 30
0.0
  0
VERTEX
  5
81817
  8
0
 10
-1307.998400000002
 20
285.69919999999541
 30
0.0
  0
VERTEX
  5
81818
  8
0
 10
-1521.1551999999981
 20
285.69919999999541
 30
0.0
  0
VERTEX
  5
81819
  8
0
 10
-1414.5768
 20
223.596199999997
 30
0.0
  0
VERTEX
  5
8181A
  8
0
 10
-1366.138999999996
 20
136.65200000000269
 30
0.0
  0
VERTEX
  5
8181B
  8
0
 10
-1453.3371999999961
 20
86.944200000000038
 30
0.0
  0
VERTEX
  5
8181C
  8
0
 10
-1540.535400000007
 20
-37.261800000002502
 30
0.0
  0
VERTEX
  5
8181D
  8
0
 10
-1550.2381999999971
 20
-124.20599999999671
 30
0.0
  0
VERTEX
  5
8181E
  8
0
 10
-1501.7750000000001
 20
-86.944199999994254
 30
0.0
  0
VERTEX
  5
8181F
  8
0
 10
-1385.519199999994
 20
-37.261800000002502
 30
0.0
  0
VERTEX
  5
81820
  8
0
 10
-1307.998400000002
 20
-111.7854000000017
 30
0.0
  0
VERTEX
  5
81821
  8
0
 10
-1346.758799999998
 20
-260.83260000000013
 30
0.0
  0
VERTEX
  5
81822
  8
0
 10
-1501.7750000000001
 20
-385.06400000000212
 30
0.0
  0
VERTEX
  5
81823
  8
0
 10
-1249.88319999999
 20
-335.3815999999988
 30
0.0
  0
VERTEX
  5
81824
  8
0
 10
-1482.3948000000021
 20
-621.05540000000053
 30
0.0
  0
VERTEX
  5
81825
  8
0
 10
-1230.502999999992
 20
-534.11119999999471
 30
0.0
  0
VERTEX
  5
81826
  8
0
 10
-1104.544400000008
 20
-571.37299999999721
 30
0.0
  0
VERTEX
  5
81827
  8
0
 10
-1094.8416000000061
 20
-658.31719999999723
 30
0.0
  0
VERTEX
  5
81828
  8
0
 10
-1201.419999999993
 20
-794.9691999999942
 30
0.0
  0
VERTEX
  5
81829
  8
0
 10
-1094.8416000000061
 20
-770.12799999999834
 30
0.0
  0
VERTEX
  5
8182A
  8
0
 10
-1230.502999999992
 20
-1006.119400000002
 30
0.0
  0
VERTEX
  5
8182B
  8
0
 10
-978.58580000000109
 20
-807.3898000000006
 30
0.0
  0
VERTEX
  5
8182C
  8
0
 10
-1036.70099999999
 20
-919.17519999999695
 30
0.0
  0
VERTEX
  5
8182D
  8
0
 10
-823.54419999999425
 20
-944.01639999999827
 30
0.0
  0
VERTEX
  5
8182E
  8
0
 10
-852.62719999999376
 20
-1105.484199999996
 30
0.0
  0
VERTEX
  5
8182F
  8
0
 10
-901.06499999999755
 20
-1254.556800000001
 30
0.0
  0
VERTEX
  5
81830
  8
0
 10
-726.66859999999815
 20
-1142.7460000000001
 30
0.0
  0
VERTEX
  5
81831
  8
0
 10
-600.70999999999071
 20
-1180.0078000000019
 30
0.0
  0
VERTEX
  5
81832
  8
0
 10
-561.94960000000606
 20
-1316.6597999999999
 30
0.0
  0
VERTEX
  5
81833
  8
0
 10
-552.27219999998681
 20
-1465.7069999999981
 30
0.0
  0
VERTEX
  5
81834
  8
0
 10
-484.45419999999649
 20
-1329.0804000000001
 30
0.0
  0
VERTEX
  5
81835
  8
0
 10
-397.23060000000311
 20
-1316.6597999999999
 30
0.0
  0
VERTEX
  5
81836
  8
0
 10
-319.7351999999932
 20
-1490.548199999994
 30
0.0
  0
VERTEX
  5
81837
  8
0
 10
-280.9747999999974
 20
-1391.183399999999
 30
0.0
  0
VERTEX
  5
81838
  8
0
 10
-174.3963999999996
 20
-1254.556800000001
 30
0.0
  0
VERTEX
  5
81839
  8
0
 10
-174.3963999999996
 20
-1353.921599999996
 30
0.0
  0
VERTEX
  5
8183A
  8
0
 10
-125.9585999999957
 20
-1229.7155999999991
 30
0.0
  0
VERTEX
  5
8183B
  8
0
 10
-48.437800000003861
 20
-1565.0718000000049
 30
0.0
  0
VERTEX
  5
8183C
  8
0
 10
-29.057600000005909
 20
-1304.2391999999991
 30
0.0
  0
VERTEX
  5
8183D
  8
0
 10
116.2811999999993
 20
-1502.9688000000001
 30
0.0
  0
VERTEX
  5
8183E
  8
0
 10
135.66139999999729
 20
-1378.7628000000041
 30
0.0
  0
VERTEX
  5
8183F
  8
0
 10
251.91720000000291
 20
-1440.8658000000021
 30
0.0
  0
VERTEX
  5
81840
  8
0
 10
310.0578000000084
 20
-1540.2305999999969
 30
0.0
  0
VERTEX
  5
81841
  8
0
 10
329.43800000000653
 20
-1217.2949999999989
 30
0.0
  0
VERTEX
  5
81842
  8
0
 10
377.87580000001032
 20
-1130.325399999999
 30
0.0
  0
VERTEX
  5
81843
  8
0
 10
445.69380000001189
 20
-1204.874400000004
 30
0.0
  0
VERTEX
  5
81844
  8
0
 10
494.1570000000097
 20
-1341.5010000000011
 30
0.0
  0
VERTEX
  5
81845
  8
0
 10
581.35519999999781
 20
-1540.2305999999969
 30
0.0
  0
VERTEX
  5
81846
  8
0
 10
552.27219999999829
 20
-1254.556800000001
 30
0.0
  0
VERTEX
  5
81847
  8
0
 10
600.7100000000022
 20
-1180.0078000000019
 30
0.0
  0
VERTEX
  5
81848
  8
0
 10
755.75159999999755
 20
-1217.2949999999989
 30
0.0
  0
VERTEX
  5
81849
  8
0
 10
891.38760000000104
 20
-1329.0804000000001
 30
0.0
  0
VERTEX
  5
8184A
  8
0
 10
939.82539999999346
 20
-1366.3421999999971
 30
0.0
  0
VERTEX
  5
8184B
  8
0
 10
842.94980000000874
 20
-1180.0078000000019
 30
0.0
  0
VERTEX
  5
8184C
  8
0
 10
813.86680000000933
 20
-1055.8018
 30
0.0
  0
VERTEX
  5
8184D
  8
0
 10
891.38760000000104
 20
-993.69880000000171
 30
0.0
  0
VERTEX
  5
8184E
  8
0
 10
1114.247199999998
 20
-1030.9605999999981
 30
0.0
  0
VERTEX
  5
8184F
  8
0
 10
1211.122800000006
 20
-1068.222400000001
 30
0.0
  0
VERTEX
  5
81850
  8
0
 10
1094.867
 20
-919.17519999999695
 30
0.0
  0
VERTEX
  5
81851
  8
0
 10
1094.867
 20
-857.07219999999825
 30
0.0
  0
VERTEX
  5
81852
  8
0
 10
1182.0652
 20
-794.9691999999942
 30
0.0
  0
VERTEX
  5
81853
  8
0
 10
1278.940800000008
 20
-832.2309999999967
 30
0.0
  0
VERTEX
  5
81854
  8
0
 10
1191.7425999999959
 20
-670.73780000000363
 30
0.0
  0
VERTEX
  5
81855
  8
0
 10
1414.602200000005
 20
-571.37299999999721
 30
0.0
  0
VERTEX
  5
81856
  8
0
 10
1540.560800000012
 20
-583.79359999999804
 30
0.0
  0
VERTEX
  5
81857
  8
0
 10
1685.899599999995
 20
-558.95240000000217
 30
0.0
  0
VERTEX
  5
81858
  8
0
 10
1521.180599999991
 20
-509.26999999999879
 30
0.0
  0
VERTEX
  5
81859
  8
0
 10
1375.8418000000081
 20
-459.58759999999552
 30
0.0
  0
VERTEX
  5
8185A
  8
0
 10
1317.7012000000041
 20
-397.4845999999971
 30
0.0
  0
VERTEX
  5
8185B
  8
0
 10
1259.560599999998
 20
-310.5149999999976
 30
0.0
  0
VERTEX
  5
8185C
  8
0
 10
1308.023800000007
 20
-260.83260000000013
 30
0.0
  0
VERTEX
  5
8185D
  8
0
 10
1472.7173999999941
 20
-248.4119999999993
 30
0.0
  0
VERTEX
  5
8185E
  8
0
 10
1608.3788000000029
 20
-186.30900000000079
 30
0.0
  0
VERTEX
  5
8185F
  8
0
 10
1637.436399999996
 20
-74.523599999999192
 30
0.0
  0
SEQEND
  5
81860
  8
0
  0
POLYLINE
  5
1BC4B
  8
0
 66
     1
 10
0.0
 20
0.0
 30
0.0
1001
ACDBBLOCKREPETAG
1070
     1
1071
      157
1005
1BC4B
  0
VERTEX
  5
81861
  8
0
 10
1647.1391999999989
 20
-74.523599999999192
 30
0.0
  0
VERTEX
  5
81862
  8
0
 10
1511.4778000000131
 20
-136.6265999999975
 30
0.0
  0
VERTEX
  5
81863
  8
0
 10
1433.9824000000031
 20
-111.7854000000017
 30
0.0
  0
VERTEX
  5
81864
  8
0
 10
1317.7012000000041
 20
-62.102999999998381
 30
0.0
  0
VERTEX
  5
81865
  8
0
 10
1327.404000000005
 20
24.84119999999589
 30
0.0
  0
VERTEX
  5
81866
  8
0
 10
1404.899400000003
 20
99.364800000000884
 30
0.0
  0
VERTEX
  5
81867
  8
0
 10
1521.180599999991
 20
149.07259999999781
 30
0.0
  0
VERTEX
  5
81868
  8
0
 10
1598.6760000000011
 20
285.69919999999541
 30
0.0
  0
VERTEX
  5
81869
  8
0
 10
1482.4202000000071
 20
260.85799999999949
 30
0.0
  0
VERTEX
  5
8186A
  8
0
 10
1385.5192000000061
 20
260.85799999999949
 30
0.0
  0
VERTEX
  5
8186B
  8
0
 10
1298.3210000000061
 20
285.69919999999541
 30
0.0
  0
VERTEX
  5
8186C
  8
0
 10
1366.1390000000081
 20
397.4845999999971
 30
0.0
  0
VERTEX
  5
8186D
  8
0
 10
1472.7173999999941
 20
459.5876000000012
 30
0.0
  0
VERTEX
  5
8186E
  8
0
 10
1540.560800000012
 20
496.84940000000358
 30
0.0
  0
VERTEX
  5
8186F
  8
0
 10
1424.2795999999901
 20
496.84940000000358
 30
0.0
  0
VERTEX
  5
81870
  8
0
 10
1298.3210000000061
 20
447.16700000000043
 30
0.0
  0
VERTEX
  5
81871
  8
0
 10
1182.0652
 20
484.42880000000292
 30
0.0
  0
VERTEX
  5
81872
  8
0
 10
1172.3623999999991
 20
571.3984000000022
 30
0.0
  0
VERTEX
  5
81873
  8
0
 10
1259.560599999998
 20
695.60439999999892
 30
0.0
  0
VERTEX
  5
81874
  8
0
 10
1327.404000000005
 20
881.91340000000002
 30
0.0
  0
VERTEX
  5
81875
  8
0
 10
1259.560599999998
 20
857.07219999999825
 30
0.0
  0
VERTEX
  5
81876
  8
0
 10
1123.9245999999951
 20
770.12799999999834
 30
0.0
  0
VERTEX
  5
81877
  8
0
 10
1046.403800000003
 20
819.81040000000144
 30
0.0
  0
VERTEX
  5
81878
  8
0
 10
1056.106599999993
 20
956.43699999999933
 30
0.0
  0
VERTEX
  5
81879
  8
0
 10
1114.247199999998
 20
1080.6684000000009
 30
0.0
  0
VERTEX
  5
8187A
  8
0
 10
1094.867
 20
1192.453800000003
 30
0.0
  0
VERTEX
  5
8187B
  8
0
 10
1017.346199999997
 20
1117.930199999998
 30
0.0
  0
VERTEX
  5
8187C
  8
0
 10
920.44520000000716
 20
1030.9605999999981
 30
0.0
  0
VERTEX
  5
8187D
  8
0
 10
852.62720000000525
 20
1068.247800000006
 30
0.0
  0
VERTEX
  5
8187E
  8
0
 10
862.33000000000675
 20
1167.6126000000011
 30
0.0
  0
VERTEX
  5
8187F
  8
0
 10
901.09040000000277
 20
1341.5010000000011
 30
0.0
  0
VERTEX
  5
81880
  8
0
 10
794.51200000000495
 20
1254.556800000001
 30
0.0
  0
VERTEX
  5
81881
  8
0
 10
678.23080000000562
 20
1192.453800000003
 30
0.0
  0
VERTEX
  5
81882
  8
0
 10
716.99120000000164
 20
1291.818599999998
 30
0.0
  0
VERTEX
  5
81883
  8
0
 10
726.66859999999815
 20
1552.6765999999971
 30
0.0
  0
VERTEX
  5
81884
  8
0
 10
629.7930000000016
 20
1378.7628000000041
 30
0.0
  0
VERTEX
  5
81885
  8
0
 10
474.77680000001169
 20
1291.818599999998
 30
0.0
  0
VERTEX
  5
81886
  8
0
 10
455.39659999999043
 20
1465.7324000000031
 30
0.0
  0
VERTEX
  5
81887
  8
0
 10
329.43800000000653
 20
1291.818599999998
 30
0.0
  0
VERTEX
  5
81888
  8
0
 10
184.09920000000119
 20
1465.7324000000031
 30
0.0
  0
VERTEX
  5
81889
  8
0
 10
135.66139999999729
 20
1353.921599999996
 30
0.0
  0
VERTEX
  5
8188A
  8
0
 10
0.0
 20
1540.2560000000019
 30
0.0
  0
SEQEND
  5
8188B
  8
0
  0
POLYLINE
  5
1BC4C
  8
0
 66
     1
 10
0.0
 20
0.0
 30
0.0
 70
     1
1001
ACDBBLOCKREPETAG
1070
     1
1071
      158
1005
1BC4C
  0
VERTEX
  5
8188C
  8
0
 10
9.7028000000131165
 20
49.682400000003312
 30
0.0
  0
VERTEX
  5
8188D
  8
0
 10
0.0
 20
0.0
 30
0.0
  0
VERTEX
  5
8188E
  8
0
 10
48.437800000003861
 20
12.42060000000083
 30
0.0
  0
VERTEX
  5
8188F
  8
0
 10
58.140599999993903
 20
37.261800000002502
 30
0.0
  0
SEQEND
  5
81890
  8
0
  0
POLYLINE
  5
1BC4D
  8
0
 66
     1
 10
0.0
 20
0.0
 30
0.0
 70
     1
1001
ACDBBLOCKREPETAG
1070
     1
1071
      159
1005
1BC4D
  0
VERTEX
  5
81891
  8
0
 10
-116.2557999999826
 20
1689.303200000006
 30
0.0
  0
VERTEX
  5
81892
  8
0
 10
-193.77659999998599
 20
1403.604000000005
 30
0.0
  0
VERTEX
  5
81893
  8
0
 10
-319.7351999999932
 20
1465.7069999999981
 30
0.0
  0
VERTEX
  5
81894
  8
0
 10
-435.99099999999908
 20
1391.183400000004
 30
0.0
  0
VERTEX
  5
81895
  8
0
 10
-561.9495999999948
 20
1403.604000000005
 30
0.0
  0
VERTEX
  5
81896
  8
0
 10
-746.04879999998445
 20
1291.8186000000101
 30
0.0
  0
VERTEX
  5
81897
  8
0
 10
-930.12259999999208
 20
1279.397999999997
 30
0.0
  0
VERTEX
  5
81898
  8
0
 10
-1056.0811999999989
 20
1167.587200000007
 30
0.0
  0
VERTEX
  5
81899
  8
0
 10
-1056.0811999999989
 20
1068.222400000001
 30
0.0
  0
VERTEX
  5
8189A
  8
0
 10
-1152.9821999999999
 20
956.4370000000049
 30
0.0
  0
VERTEX
  5
8189B
  8
0
 10
-1327.378599999988
 20
931.59580000000324
 30
0.0
  0
VERTEX
  5
8189C
  8
0
 10
-1540.5353999999959
 20
931.59580000000324
 30
0.0
  0
VERTEX
  5
8189D
  8
0
 10
-1395.19659999999
 20
857.07220000000973
 30
0.0
  0
VERTEX
  5
8189E
  8
0
 10
-1298.320999999994
 20
695.57900000000552
 30
0.0
  0
VERTEX
  5
8189F
  8
0
 10
-1385.519199999994
 20
534.11120000000619
 30
0.0
  0
VERTEX
  5
818A0
  8
0
 10
-1482.39479999999
 20
434.74639999999948
 30
0.0
  0
VERTEX
  5
818A1
  8
0
 10
-1463.014599999992
 20
285.69920000000121
 30
0.0
  0
VERTEX
  5
818A2
  8
0
 10
-1492.0975999999921
 20
136.62660000000909
 30
0.0
  0
VERTEX
  5
818A3
  8
0
 10
-1618.0561999999991
 20
62.103000000004151
 30
0.0
  0
VERTEX
  5
818A4
  8
0
 10
-1501.7750000000001
 20
0.0
 30
0.0
  0
VERTEX
  5
818A5
  8
0
 10
-1443.6597999999881
 20
-173.88839999998851
 30
0.0
  0
VERTEX
  5
818A6
  8
0
 10
-1482.39479999999
 20
-335.38159999999289
 30
0.0
  0
VERTEX
  5
818A7
  8
0
 10
-1433.9569999999981
 20
-521.69059999999365
 30
0.0
  0
VERTEX
  5
818A8
  8
0
 10
-1327.378599999988
 20
-596.21419999999875
 30
0.0
  0
VERTEX
  5
818A9
  8
0
 10
-1298.320999999994
 20
-695.60439999999892
 30
0.0
  0
VERTEX
  5
818AA
  8
0
 10
-1298.320999999994
 20
-819.81039999999541
 30
0.0
  0
VERTEX
  5
818AB
  8
0
 10
-1143.2793999999869
 20
-894.33400000000086
 30
0.0
  0
VERTEX
  5
818AC
  8
0
 10
-1065.7840000000001
 20
-993.69879999999603
 30
0.0
  0
VERTEX
  5
818AD
  8
0
 10
-1085.164199999999
 20
-1217.2950000000039
 30
0.0
  0
VERTEX
  5
818AE
  8
0
 10
-1152.9821999999999
 20
-1378.762799999992
 30
0.0
  0
VERTEX
  5
818AF
  8
0
 10
-1027.0235999999929
 20
-1254.5567999999951
 30
0.0
  0
VERTEX
  5
818B0
  8
0
 10
-901.06499999999755
 20
-1167.6126000000011
 30
0.0
  0
VERTEX
  5
818B1
  8
0
 10
-804.16399999999612
 20
-1192.4537999999909
 30
0.0
  0
VERTEX
  5
818B2
  8
0
 10
-687.90819999999053
 20
-1316.6597999999999
 30
0.0
  0
VERTEX
  5
818B3
  8
0
 10
-542.56939999999679
 20
-1428.4451999999951
 30
0.0
  0
VERTEX
  5
818B4
  8
0
 10
-406.93339999999313
 20
-1440.8657999999959
 30
0.0
  0
VERTEX
  5
818B5
  8
0
 10
-87.198199999999815
 20
-1527.8353999999961
 30
0.0
  0
VERTEX
  5
818B6
  8
0
 10
0.0
 20
-1825.9297999999931
 30
0.0
  0
VERTEX
  5
818B7
  8
0
 10
38.760400000007479
 20
-1527.8353999999961
 30
0.0
  0
VERTEX
  5
818B8
  8
0
 10
77.520800000003419
 20
-1478.1275999999989
 30
0.0
  0
VERTEX
  5
818B9
  8
0
 10
213.15680000000719
 20
-1428.4451999999951
 30
0.0
  0
VERTEX
  5
818BA
  8
0
 10
358.4956000000123
 20
-1440.8657999999959
 30
0.0
  0
VERTEX
  5
818BB
  8
0
 10
571.65240000000756
 20
-1378.762799999992
 30
0.0
  0
VERTEX
  5
818BC
  8
0
 10
697.61100000000363
 20
-1279.397999999997
 30
0.0
  0
VERTEX
  5
818BD
  8
0
 10
862.33000000000675
 20
-1254.5567999999951
 30
0.0
  0
VERTEX
  5
818BE
  8
0
 10
939.85080000000994
 20
-1142.7713999999989
 30
0.0
  0
VERTEX
  5
818BF
  8
0
 10
1085.1642000000099
 20
-1006.119399999997
 30
0.0
  0
VERTEX
  5
818C0
  8
0
 10
1094.867
 20
-906.75460000000169
 30
0.0
  0
VERTEX
  5
818C1
  8
0
 10
1143.304800000004
 20
-881.91339999998866
 30
0.0
  0
VERTEX
  5
818C2
  8
0
 10
1317.701200000015
 20
-919.17520000000241
 30
0.0
  0
VERTEX
  5
818C3
  8
0
 10
1172.3878000000041
 20
-745.28679999999065
 30
0.0
  0
VERTEX
  5
818C4
  8
0
 10
1317.701200000015
 20
-720.44560000000081
 30
0.0
  0
VERTEX
  5
818C5
  8
0
 10
1366.138999999996
 20
-658.34259999999665
 30
0.0
  0
VERTEX
  5
818C6
  8
0
 10
1424.279600000013
 20
-546.53179999999554
 30
0.0
  0
VERTEX
  5
818C7
  8
0
 10
1463.039999999997
 20
-521.69059999999365
 30
0.0
  0
VERTEX
  5
818C8
  8
0
 10
1414.6022000000171
 20
-459.5876000000012
 30
0.0
  0
VERTEX
  5
818C9
  8
0
 10
1453.362600000012
 20
-149.04719999999841
 30
0.0
  0
VERTEX
  5
818CA
  8
0
 10
1521.1806000000031
 20
-74.523599999993422
 30
0.0
  0
VERTEX
  5
818CB
  8
0
 10
1492.097600000003
 20
86.944200000005793
 30
0.0
  0
VERTEX
  5
818CC
  8
0
 10
1530.857999999999
 20
198.7296000000016
 30
0.0
  0
VERTEX
  5
818CD
  8
0
 10
1705.2798000000039
 20
285.69920000000121
 30
0.0
  0
VERTEX
  5
818CE
  8
0
 10
1899.0564000000129
 20
360.22280000000609
 30
0.0
  0
VERTEX
  5
818CF
  8
0
 10
1724.634600000008
 20
347.80220000000531
 30
0.0
  0
VERTEX
  5
818D0
  8
0
 10
1482.420200000018
 20
347.80220000000531
 30
0.0
  0
VERTEX
  5
818D1
  8
0
 10
1395.222000000007
 20
422.32579999999871
 30
0.0
  0
VERTEX
  5
818D2
  8
0
 10
1375.8418000000081
 20
707.99960000000624
 30
0.0
  0
VERTEX
  5
818D3
  8
0
 10
1278.966200000013
 20
819.81039999999541
 30
0.0
  0
VERTEX
  5
818D4
  8
0
 10
1114.24720000001
 20
993.69880000000751
 30
0.0
  0
VERTEX
  5
818D5
  8
0
 10
1085.1642000000099
 20
1080.6430000000021
 30
0.0
  0
VERTEX
  5
818D6
  8
0
 10
1094.867
 20
1204.874400000004
 30
0.0
  0
VERTEX
  5
818D7
  8
0
 10
901.09040000001426
 20
1266.9773999999959
 30
0.0
  0
VERTEX
  5
818D8
  8
0
 10
804.18940000001282
 20
1217.2950000000039
 30
0.0
  0
VERTEX
  5
818D9
  8
0
 10
687.93360000000735
 20
1291.8186000000101
 30
0.0
  0
VERTEX
  5
818DA
  8
0
 10
368.19840000001381
 20
1552.6512000000041
 30
0.0
  0
VERTEX
  5
818DB
  8
0
 10
232.53700000000509
 20
1515.3894000000009
 30
0.0
  0
VERTEX
  5
818DC
  8
0
 10
58.140600000005442
 20
1440.865800000008
 30
0.0
  0
VERTEX
  5
818DD
  8
0
 10
-77.495399999986688
 20
1465.7069999999981
 30
0.0
  0
SEQEND
  5
818DE
  8
0
  0
POLYLINE
  5
1BC4E
  8
0
 66
     1
 10
0.0
 20
0.0
 30
0.0
 70
     1
1001
ACDBBLOCKREPETAG
1070
     1
1071
      160
1005
1BC4E
  0
VERTEX
  5
818DF
  8
0
 10
-29.057599999994359
 20
37.261800000002502
 30
0.0
  0
VERTEX
  5
818E0
  8
0
 10
-58.115200000000279
 20
0.0
 30
0.0
  0
VERTEX
  5
818E1
  8
0
 10
0.0
 20
0.0
 30
0.0
  0
SEQEND
  5
818E2
  8
0
  0
LINE
  5
1BC4F
  8
0
 10
-28.676599999997599
 20
171.04359999999801
 30
0.0
 11
228.9556000000031
 21
678.28159999999866
 31
0.0
1001
ACDBBLOCKREPETAG
1070
     1
1071
      161
1005
1BC4F
  0
LINE
  5
1BC50
  8
0
 10
-74.701399999995019
 20
418.74439999999692
 30
0.0
 11
219.7608000000011
 21
961.3899999999976
 31
0.0
1001
ACDBBLOCKREPETAG
1070
     1
1071
      162
1005
1BC50
  0
LINE
  5
1BC51
  8
0
 10
-129.8956000000008
 20
701.85279999999545
 30
0.0
 11
265.76020000000489
 21
1185.494199999994
 31
0.0
1001
ACDBBLOCKREPETAG
1070
     1
1071
      163
1005
1BC51
  0
LINE
  5
1BC52
  8
0
 10
-148.31059999999849
 20
914.19679999999323
 30
0.0
 11
118.54179999999781
 21
1220.901799999994
 31
0.0
1001
ACDBBLOCKREPETAG
1070
     1
1071
      164
1005
1BC52
  0
LINE
  5
1BC53
  8
0
 10
63.322200000009957
 20
-76.68260000000015
 30
0.0
 11
-37.871399999999632
 21
-513.13080000000571
 31
0.0
1001
ACDBBLOCKREPETAG
1070
     1
1071
      165
1005
1BC53
  0
LINE
  5
1BC54
  8
0
 10
-718.79459999999926
 20
88.468199999992862
 30
0.0
 11
-1215.644000000003
 21
-147.44700000000159
 31
0.0
1001
ACDBBLOCKREPETAG
1070
     1
1071
      166
1005
1BC54
  0
LINE
  5
1BC55
  8
0
 10
-543.96640000000423
 20
76.65719999999493
 30
0.0
 11
-967.20659999999282
 21
-206.45120000000969
 31
0.0
1001
ACDBBLOCKREPETAG
1070
     1
1071
      167
1005
1BC55
  0
LINE
  5
1BC56
  8
0
 10
-405.9427999999877
 20
53.085999999997917
 30
0.0
 11
-764.79400000000305
 21
-241.8334000000047
 31
0.0
1001
ACDBBLOCKREPETAG
1070
     1
1071
      168
1005
1BC56
  0
LINE
  5
1BC57
  8
0
 10
-166.70020000000261
 20
29.489400000001481
 30
0.0
 11
-543.96640000000423
 21
-206.45120000000969
 31
0.0
1001
ACDBBLOCKREPETAG
1070
     1
1071
      169
1005
1BC57
  0
LINE
  5
1BC58
  8
0
 10
-571.49999999999977
 20
-495.29999999999973
 30
0.0
 11
-952.5
 21
-1143.0
 31
0.0
1001
ACDBBLOCKREPETAG
1070
     1
1071
      170
1005
1BC58
  0
LINE
  5
1BC59
  8
0
 10
-442.74740000000082
 20
-383.38760000000121
 30
0.0
 11
-1086.8405999999941
 21
-477.7485999999991
 31
0.0
1001
ACDBBLOCKREPETAG
1070
     1
1071
      171
1005
1BC59
  0
LINE
  5
1BC5A
  8
0
 10
-617.57559999999614
 20
-548.53840000000571
 30
0.0
 11
-1077.6457999999909
 21
-560.32400000000428
 31
0.0
1001
ACDBBLOCKREPETAG
1070
     1
1071
      172
1005
1BC5A
  0
LINE
  5
1BC5B
  8
0
 10
-718.79459999999926
 20
-737.2604000000016
 30
0.0
 11
-1086.8405999999941
 21
-796.23920000000442
 31
0.0
1001
ACDBBLOCKREPETAG
1070
     1
1071
      173
1005
1BC5B
  0
LINE
  5
1BC5C
  8
0
 10
-681.96459999999252
 20
-666.49600000000021
 30
0.0
 11
-1022.426200000004
 21
-654.68500000000222
 31
0.0
1001
ACDBBLOCKREPETAG
1070
     1
1071
      174
1005
1BC5C
  0
LINE
  5
1BC5D
  8
0
 10
-387.52779999999001
 20
-324.40880000000402
 30
0.0
 11
-764.79400000000305
 21
-324.40880000000402
 31
0.0
1001
ACDBBLOCKREPETAG
1070
     1
1071
      175
1005
1BC5D
  0
LINE
  5
1BC5E
  8
0
 10
-783.18359999999552
 20
-867.02899999999966
 30
0.0
 11
-1077.6457999999909
 21
-902.41120000000603
 31
0.0
1001
ACDBBLOCKREPETAG
1070
     1
1071
      176
1005
1BC5E
  0
LINE
  5
1BC5F
  8
0
 10
-875.20779999999684
 20
-1008.583200000008
 30
0.0
 11
-1040.841200000001
 21
-1079.347600000003
 31
0.0
1001
ACDBBLOCKREPETAG
1070
     1
1071
      177
1005
1BC5F
  0
LINE
  5
1BC60
  8
0
 10
-829.20840000000453
 20
-937.79340000000116
 30
0.0
 11
-810.79339999999536
 21
-1126.5408000000079
 31
0.0
1001
ACDBBLOCKREPETAG
1070
     1
1071
      178
1005
1BC60
  0
LINE
  5
1BC61
  8
0
 10
-635.96520000000021
 20
-607.51720000000876
 30
0.0
 11
-580.77100000000576
 21
-1150.1374000000039
 31
0.0
1001
ACDBBLOCKREPETAG
1070
     1
1071
      179
1005
1BC61
  0
LINE
  5
1BC62
  8
0
 10
-525.55139999999494
 20
-465.96300000000048
 30
0.0
 11
-451.9422000000028
 21
-1126.5408000000079
 31
0.0
1001
ACDBBLOCKREPETAG
1070
     1
1071
      180
1005
1BC62
  0
LINE
  5
1BC63
  8
0
 10
-433.55259999999879
 20
-383.38760000000121
 30
0.0
 11
-323.11340000000013
 21
-1020.368800000006
 31
0.0
1001
ACDBBLOCKREPETAG
1070
     1
1071
      181
1005
1BC63
  0
LINE
  5
1BC64
  8
0
 10
-341.52839999999782
 20
-289.00120000000982
 30
0.0
 11
-221.9197999999904
 21
-831.62140000000511
 31
0.0
1001
ACDBBLOCKREPETAG
1070
     1
1071
      182
1005
1BC64
  0
LINE
  5
1BC65
  8
0
 10
-737.1842000000031
 20
-784.45360000000028
 30
0.0
 11
-709.57440000000383
 21
-1114.7298000000039
 31
0.0
1001
ACDBBLOCKREPETAG
1070
     1
1071
      183
1005
1BC65
  0
LINE
  5
1BC66
  8
0
 10
0.0
 20
0.0
 30
0.0
 11
-571.49999999999977
 21
-495.29999999999973
 31
0.0
1001
ACDBBLOCKREPETAG
1070
     1
1071
      184
1005
1BC66
  0
LINE
  5
1BC67
  8
0
 10
-166.70020000000261
 20
-147.44700000000159
 30
0.0
 11
-507.16179999999082
 21
-253.61900000000321
 31
0.0
1001
ACDBBLOCKREPETAG
1070
     1
1071
      185
1005
1BC67
  0
LINE
  5
1BC68
  8
0
 10
-240.3093999999945
 20
-218.2368000000082
 30
0.0
 11
-157.50540000000041
 21
-595.70620000000508
 31
0.0
1001
ACDBBLOCKREPETAG
1070
     1
1071
      186
1005
1BC68
  0
LINE
  5
1BC69
  8
0
 10
-120.70079999999879
 20
-88.468200000004444
 30
0.0
 11
-93.091000000010666
 21
-371.5766000000034
 31
0.0
1001
ACDBBLOCKREPETAG
1070
     1
1071
      187
1005
1BC69
  0
LINE
  5
1BC6A
  8
0
 10
0.0
 20
0.0
 30
0.0
 11
-800.09999999999968
 21
114.3
 31
0.0
1001
ACDBBLOCKREPETAG
1070
     1
1071
      188
1005
1BC6A
  0
LINE
  5
1BC6B
  8
0
 10
-369.13819999999748
 20
53.085999999997917
 30
0.0
 11
-783.18359999999552
 21
642.87399999999843
 31
0.0
1001
ACDBBLOCKREPETAG
1070
     1
1071
      189
1005
1BC6B
  0
LINE
  5
1BC6C
  8
0
 10
-902.81759999999645
 20
713.66379999999344
 30
0.0
 11
-617.57559999999614
 21
100.2537999999914
 31
0.0
1001
ACDBBLOCKREPETAG
1070
     1
1071
      190
1005
1BC6C
  0
LINE
  5
1BC6D
  8
0
 10
-800.09999999999968
 20
114.3
 30
0.0
 11
-1333.5
 21
647.69999999999982
 31
0.0
1001
ACDBBLOCKREPETAG
1070
     1
1071
      191
1005
1BC6D
  0
LINE
  5
1BC6E
  8
0
 10
-976.42679999998848
 20
666.47059999999499
 30
0.0
 11
-884.40259999999898
 21
194.64019999999451
 31
0.0
1001
ACDBBLOCKREPETAG
1070
     1
1071
      192
1005
1BC6E
  0
LINE
  5
1BC6F
  8
0
 10
-1105.2301999999979
 20
725.44939999999769
 30
0.0
 11
-1077.6457999999909
 21
395.17319999999398
 31
0.0
1001
ACDBBLOCKREPETAG
1070
     1
1071
      193
1005
1BC6F
  0
LINE
  5
1BC70
  8
0
 10
-1234.0590000000011
 20
536.72739999999635
 30
0.0
 11
-1252.4485999999929
 21
737.2604000000016
 31
0.0
1001
ACDBBLOCKREPETAG
1070
     1
1071
      194
1005
1BC70
  0
LINE
  5
1BC71
  8
0
 10
-1206.4492
 20
501.31979999999038
 30
0.0
 11
-1418.0820000000101
 21
465.9375999999952
 31
0.0
1001
ACDBBLOCKREPETAG
1070
     1
1071
      195
1005
1BC71
  0
LINE
  5
1BC72
  8
0
 10
-1031.621000000006
 20
347.97999999999541
 30
0.0
 11
-1399.6669999999999
 21
277.19019999999449
 31
0.0
1001
ACDBBLOCKREPETAG
1070
     1
1071
      196
1005
1BC72
  0
LINE
  5
1BC73
  8
0
 10
-847.5980000000086
 20
159.23259999999431
 30
0.0
 11
-1326.0577999999971
 21
135.63599999999789
 31
0.0
1001
ACDBBLOCKREPETAG
1070
     1
1071
      197
1005
1BC73
  0
LINE
  5
1BC74
  8
0
 10
0.0
 20
0.0
 30
0.0
 11
-266.69999999999999
 21
1447.8
 31
0.0
1001
ACDBBLOCKREPETAG
1070
     1
1071
      198
1005
1BC74
  0
LINE
  5
1BC75
  8
0
 10
-129.8956000000008
 20
713.66379999999344
 30
0.0
 11
-626.77039999999795
 21
1032.154399999999
 31
0.0
1001
ACDBBLOCKREPETAG
1070
     1
1071
      199
1005
1BC75
  0
LINE
  5
1BC76
  8
0
 10
-93.091000000010666
 20
489.53419999999193
 30
0.0
 11
-700.37960000000169
 21
902.38579999999524
 31
0.0
1001
ACDBBLOCKREPETAG
1070
     1
1071
      200
1005
1BC76
  0
LINE
  5
1BC77
  8
0
 10
-617.57559999999614
 20
607.49179999999194
 30
0.0
 11
-74.701399999995019
 21
347.97999999999541
 31
0.0
1001
ACDBBLOCKREPETAG
1070
     1
1071
      201
1005
1BC77
  0
LINE
  5
1BC78
  8
0
 10
-525.55139999999494
 20
347.97999999999541
 30
0.0
 11
-28.676599999997599
 21
123.8503999999994
 31
0.0
1001
ACDBBLOCKREPETAG
1070
     1
1071
      202
1005
1BC78
  0
LINE
  5
1BC79
  8
0
 10
-194.3100000000023
 20
1102.944199999994
 30
0.0
 11
-65.481199999999347
 21
1256.2839999999951
 31
0.0
1001
ACDBBLOCKREPETAG
1070
     1
1071
      203
1005
1BC79
  0
LINE
  5
1BC7A
  8
0
 10
-231.11459999999249
 20
1315.262799999992
 30
0.0
 11
-166.70020000000261
 21
1421.4347999999941
 31
0.0
1001
ACDBBLOCKREPETAG
1070
     1
1071
      204
1005
1BC7A
  0
LINE
  5
1BC7B
  8
0
 10
-258.7244000000037
 20
1362.4559999999969
 30
0.0
 11
-332.33359999999578
 21
1421.4347999999941
 31
0.0
1001
ACDBBLOCKREPETAG
1070
     1
1071
      205
1005
1BC7B
  0
LINE
  5
1BC7C
  8
0
 10
-221.9197999999904
 20
1197.3051999999921
 30
0.0
 11
-433.55259999999879
 21
1338.8594000000001
 31
0.0
1001
ACDBBLOCKREPETAG
1070
     1
1071
      206
1005
1BC7C
  0
LINE
  5
1BC7D
  8
0
 10
-185.1152000000001
 20
1008.5577999999909
 30
0.0
 11
-553.16120000000626
 21
1185.494199999994
 31
0.0
1001
ACDBBLOCKREPETAG
1070
     1
1071
      207
1005
1BC7D
  0
LINE
  5
1BC7E
  8
0
 10
164.5412000000016
 20
41.274999999999999
 30
0.0
 11
661.41599999999903
 21
-218.2368000000082
 31
0.0
1001
ACDBBLOCKREPETAG
1070
     1
1071
      208
1005
1BC7E
  0
LINE
  5
1BC7F
  8
0
 10
284.1497999999973
 20
88.468199999992862
 30
0.0
 11
781.02460000000622
 21
-147.44700000000159
 31
0.0
1001
ACDBBLOCKREPETAG
1070
     1
1071
      209
1005
1BC7F
  0
LINE
  5
1BC80
  8
0
 10
458.97799999999251
 20
147.4469999999958
 30
0.0
 11
891.4384
 21
-88.468200000004444
 31
0.0
1001
ACDBBLOCKREPETAG
1070
     1
1071
      210
1005
1BC80
  0
LINE
  5
1BC81
  8
0
 10
412.97860000000009
 20
-501.34520000000708
 30
0.0
 11
919.04820000001132
 21
-583.92060000000072
 31
0.0
1001
ACDBBLOCKREPETAG
1070
     1
1071
      211
1005
1BC81
  0
LINE
  5
1BC82
  8
0
 10
486.58779999999223
 20
-642.89940000000365
 30
0.0
 11
983.4626000000012
 21
-843.43240000000321
 31
0.0
1001
ACDBBLOCKREPETAG
1070
     1
1071
      212
1005
1BC82
  0
LINE
  5
1BC83
  8
0
 10
468.1982000000113
 20
-572.10960000000273
 30
0.0
 11
1029.461999999992
 21
-737.2604000000016
 31
0.0
1001
ACDBBLOCKREPETAG
1070
     1
1071
      213
1005
1BC83
  0
LINE
  5
1BC84
  8
0
 10
541.80740000000333
 20
-831.62140000000511
 30
0.0
 11
992.65740000000324
 21
-1032.154400000004
 31
0.0
1001
ACDBBLOCKREPETAG
1070
     1
1071
      214
1005
1BC84
  0
LINE
  5
1BC85
  8
0
 10
578.61199999999315
 20
-973.17560000000185
 30
0.0
 11
873.04879999999605
 21
-1138.3264000000061
 31
0.0
1001
ACDBBLOCKREPETAG
1070
     1
1071
      215
1005
1BC85
  0
LINE
  5
1BC86
  8
0
 10
624.61140000000887
 20
-1102.944200000006
 30
0.0
 11
781.02460000000622
 21
-1209.116200000007
 31
0.0
1001
ACDBBLOCKREPETAG
1070
     1
1071
      216
1005
1BC86
  0
LINE
  5
1BC87
  8
0
 10
311.75959999999708
 20
-383.38760000000121
 30
0.0
 11
937.43779999999231
 21
-477.7485999999991
 31
0.0
1001
ACDBBLOCKREPETAG
1070
     1
1071
      217
1005
1BC87
  0
LINE
  5
1BC88
  8
0
 10
192.15099999998981
 20
-230.02240000000671
 30
0.0
 11
817.82920000000797
 21
-371.5766000000034
 31
0.0
1001
ACDBBLOCKREPETAG
1070
     1
1071
      218
1005
1BC88
  0
LINE
  5
1BC89
  8
0
 10
457.19999999999999
 20
-571.49999999999977
 30
0.0
 11
685.79999999999961
 21
-1333.5
 31
0.0
1001
ACDBBLOCKREPETAG
1070
     1
1071
      219
1005
1BC89
  0
LINE
  5
1BC8A
  8
0
 10
228.9556000000031
 20
-289.00120000000982
 30
0.0
 11
90.931999999998155
 21
-914.1968000000046
 31
0.0
1001
ACDBBLOCKREPETAG
1070
     1
1071
      220
1005
1BC8A
  0
LINE
  5
1BC8B
  8
0
 10
357.75899999998933
 20
-430.55540000000627
 30
0.0
 11
164.5412000000016
 21
-1020.368800000006
 31
0.0
1001
ACDBBLOCKREPETAG
1070
     1
1071
      221
1005
1BC8B
  0
LINE
  5
1BC8C
  8
0
 10
458.97799999999251
 20
-572.10960000000273
 30
0.0
 11
210.54060000000541
 21
-1161.923000000003
 31
0.0
1001
ACDBBLOCKREPETAG
1070
     1
1071
      222
1005
1BC8C
  0
LINE
  5
1BC8D
  8
0
 10
624.61140000000887
 20
-1161.923000000003
 30
0.0
 11
587.80679999999552
 21
-1291.691600000001
 31
0.0
1001
ACDBBLOCKREPETAG
1070
     1
1071
      223
1005
1BC8D
  0
LINE
  5
1BC8E
  8
0
 10
578.61199999999315
 20
-961.3900000000034
 30
0.0
 11
495.7826000000058
 21
-1232.7128000000041
 31
0.0
1001
ACDBBLOCKREPETAG
1070
     1
1071
      224
1005
1BC8E
  0
LINE
  5
1BC8F
  8
0
 10
514.1976000000036
 20
-772.64260000000229
 30
0.0
 11
403.78379999999828
 21
-1138.3264000000061
 31
0.0
1001
ACDBBLOCKREPETAG
1070
     1
1071
      225
1005
1BC8F
  0
LINE
  5
1BC90
  8
0
 10
679.80560000000298
 20
-1268.0950000000039
 30
0.0
 11
716.61020000000474
 21
-1291.691600000001
 31
0.0
1001
ACDBBLOCKREPETAG
1070
     1
1071
      226
1005
1BC90
  0
LINE
  5
1BC91
  8
0
 10
0.0
 20
0.0
 30
0.0
 11
457.19999999999999
 21
-571.49999999999977
 31
0.0
1001
ACDBBLOCKREPETAG
1070
     1
1071
      227
1005
1BC91
  0
LINE
  5
1BC92
  8
0
 10
127.7365999999999
 20
-159.2580000000053
 30
0.0
 11
54.127400000007952
 21
-654.68500000000222
 31
0.0
1001
ACDBBLOCKREPETAG
1070
     1
1071
      228
1005
1BC92
  0
LINE
  5
1BC93
  8
0
 10
44.932600000005891
 20
-64.897000000001611
 30
0.0
 11
615.41659999999524
 21
-241.8334000000047
 31
0.0
1001
ACDBBLOCKREPETAG
1070
     1
1071
      229
1005
1BC93
  0
LINE
  5
1BC94
  8
0
 10
685.79999999999961
 20
228.59999999999999
 30
0.0
 11
1219.2
 21
914.39999999999998
 31
0.0
1001
ACDBBLOCKREPETAG
1070
     1
1071
      230
1005
1BC94
  0
LINE
  5
1BC95
  8
0
 10
689.02579999999875
 20
230.022400000001
 30
0.0
 11
790.2448000000021
 21
914.19679999999323
 31
0.0
1001
ACDBBLOCKREPETAG
1070
     1
1071
      231
1005
1BC95
  0
LINE
  5
1BC96
  8
0
 10
753.41479999999501
 20
312.59779999999461
 30
0.0
 11
1222.6797999999919
 21
159.23259999999431
 31
0.0
1001
ACDBBLOCKREPETAG
1070
     1
1071
      232
1005
1BC96
  0
LINE
  5
1BC97
  8
0
 10
615.41659999999524
 20
194.64019999999451
 30
0.0
 11
1185.875200000002
 21
41.274999999999999
 31
0.0
1001
ACDBBLOCKREPETAG
1070
     1
1071
      233
1005
1BC97
  0
LINE
  5
1BC98
  8
0
 10
412.97860000000009
 20
147.4469999999958
 30
0.0
 11
587.80679999999552
 21
796.23919999999293
 31
0.0
1001
ACDBBLOCKREPETAG
1070
     1
1071
      234
1005
1BC98
  0
LINE
  5
1BC99
  8
0
 10
560.19699999999568
 20
182.8291999999964
 30
0.0
 11
698.22060000000067
 21
819.83579999999495
 31
0.0
1001
ACDBBLOCKREPETAG
1070
     1
1071
      235
1005
1BC99
  0
LINE
  5
1BC9A
  8
0
 10
0.0
 20
0.0
 30
0.0
 11
685.79999999999961
 21
228.59999999999999
 31
0.0
1001
ACDBBLOCKREPETAG
1070
     1
1071
      236
1005
1BC9A
  0
LINE
  5
1BC9B
  8
0
 10
100.1268000000002
 20
41.274999999999999
 30
0.0
 11
284.1497999999973
 21
619.27739999999631
 31
0.0
1001
ACDBBLOCKREPETAG
1070
     1
1071
      237
1005
1BC9B
  0
LINE
  5
1BC9C
  8
0
 10
256.56540000000291
 20
88.468199999992862
 30
0.0
 11
449.78320000000213
 21
666.47059999999499
 31
0.0
1001
ACDBBLOCKREPETAG
1070
     1
1071
      238
1005
1BC9C
  0
LINE
  5
1BC9D
  8
0
 10
808.63440000000594
 20
784.42819999999494
 30
0.0
 11
827.04940000000386
 21
418.74439999999692
 31
0.0
1001
ACDBBLOCKREPETAG
1070
     1
1071
      239
1005
1BC9D
  0
LINE
  5
1BC9E
  8
0
 10
891.4384
 20
831.62139999999954
 30
0.0
 11
946.65799999999956
 21
572.10959999999704
 31
0.0
1001
ACDBBLOCKREPETAG
1070
     1
1071
      240
1005
1BC9E
  0
LINE
  5
1BC9F
  8
0
 10
983.4626000000012
 20
867.00359999999455
 30
0.0
 11
1066.2665999999949
 21
725.44939999999769
 31
0.0
1001
ACDBBLOCKREPETAG
1070
     1
1071
      241
1005
1BC9F
  0
LINE
  5
1BCA0
  8
0
 10
1112.2914000000039
 20
760.83159999999873
 30
0.0
 11
1296.3144000000009
 21
784.42819999999494
 31
0.0
1001
ACDBBLOCKREPETAG
1070
     1
1071
      242
1005
1BCA0
  0
LINE
  5
1BCA1
  8
0
 10
1029.461999999992
 20
654.68499999999653
 30
0.0
 11
1241.0948000000019
 21
631.08840000000021
 31
0.0
1001
ACDBBLOCKREPETAG
1070
     1
1071
      243
1005
1BCA1
  0
LINE
  5
1BCA2
  8
0
 10
919.04820000001132
 20
501.31979999999038
 30
0.0
 11
1222.6797999999919
 21
454.15199999999697
 31
0.0
1001
ACDBBLOCKREPETAG
1070
     1
1071
      244
1005
1BCA2
  0
LINE
  5
1BCA3
  8
0
 10
845.43899999999621
 20
418.74439999999692
 30
0.0
 11
1241.0948000000019
 21
277.19019999999449
 31
0.0
1001
ACDBBLOCKREPETAG
1070
     1
1071
      245
1005
1BCA3
  0
LINE
  5
1BCA4
  8
0
 10
1121.486200000006
 20
925.9823999999976
 30
0.0
 11
1149.0706
 21
831.62139999999954
 31
0.0
1001
ACDBBLOCKREPETAG
1070
     1
1071
      246
1005
1BCA4
  0
POLYLINE
  5
1BCA5
  8
0
 66
     1
 10
0.0
 20
0.0
 30
0.0
1001
ACDBBLOCKREPETAG
1070
     1
1071
      247
1005
1BCA5
  0
VERTEX
  5
818E3
  8
0
 10
208.1631599999987
 20
1025.3319599999991
 30
0.0
  0
VERTEX
  5
818E4
  8
0
 10
284.85591999999917
 20
702.28206000000034
 30
0.0
  0
VERTEX
  5
818E5
  8
0
 10
208.1631599999987
 20
351.14230000000151
 30
0.0
  0
VERTEX
  5
818E6
  8
0
 10
624.48947999999905
 20
505.64287999999971
 30
0.0
  0
VERTEX
  5
818E7
  8
0
 10
832.65517999999975
 20
870.8313800000011
 30
0.0
  0
SEQEND
  5
818E8
  8
0
  0
POLYLINE
  5
1BCA6
  8
0
 66
     1
 10
0.0
 20
0.0
 30
0.0
1001
ACDBBLOCKREPETAG
1070
     1
1071
      248
1005
1BCA6
  0
VERTEX
  5
818E9
  8
0
 10
876.48033999999825
 20
842.73898000000122
 30
0.0
  0
VERTEX
  5
818EA
  8
0
 10
690.22722000000033
 20
463.5068199999991
 30
0.0
  0
VERTEX
  5
818EB
  8
0
 10
230.0757399999992
 20
266.8676400000013
 30
0.0
  0
VERTEX
  5
818EC
  8
0
 10
197.20813999999959
 20
98.318319999997883
 30
0.0
  0
VERTEX
  5
818ED
  8
0
 10
208.1631599999987
 20
0.0
 30
0.0
  0
SEQEND
  5
818EE
  8
0
  0
POLYLINE
  5
1BCA7
  8
0
 66
     1
 10
0.0
 20
0.0
 30
0.0
1001
ACDBBLOCKREPETAG
1070
     1
1071
      249
1005
1BCA7
  0
VERTEX
  5
818EF
  8
0
 10
559.1149600000017
 20
3498.1134000000011
 30
0.0
  0
VERTEX
  5
818F0
  8
0
 10
471.10650000000032
 20
3595.6849600000019
 30
0.0
  0
VERTEX
  5
818F1
  8
0
 10
394.41627999999918
 20
3511.41284
 30
0.0
  0
VERTEX
  5
818F2
  8
0
 10
350.59111999999823
 20
3539.5027
 30
0.0
  0
VERTEX
  5
818F3
  8
0
 10
339.63355999999982
 20
3609.7286200000021
 30
0.0
  0
VERTEX
  5
818F4
  8
0
 10
284.85591999999917
 20
3637.8235600000012
 30
0.0
  0
VERTEX
  5
818F5
  8
0
 10
208.1631599999987
 20
3567.592560000001
 30
0.0
  0
VERTEX
  5
818F6
  8
0
 10
120.5153799999991
 20
3581.6387600000012
 30
0.0
  0
VERTEX
  5
818F7
  8
0
 10
54.780180000000023
 20
3455.22804
 30
0.0
  0
VERTEX
  5
818F8
  8
0
 10
54.780180000000023
 20
3342.863519999999
 30
0.0
  0
VERTEX
  5
818F9
  8
0
 10
142.42795999999959
 20
3300.7274600000019
 30
0.0
  0
VERTEX
  5
818FA
  8
0
 10
76.69021999999822
 20
3258.5888599999989
 30
0.0
  0
VERTEX
  5
818FB
  8
0
 10
10.9550199999991
 20
3314.7736600000021
 30
0.0
  0
VERTEX
  5
818FC
  8
0
 10
-175.2981000000014
 20
3132.1781400000009
 30
0.0
  0
VERTEX
  5
818FD
  8
0
 10
-175.2981000000014
 20
3090.0420800000011
 30
0.0
  0
VERTEX
  5
818FE
  8
0
 10
-251.98831999999959
 20
3047.9060199999999
 30
0.0
  0
VERTEX
  5
818FF
  8
0
 10
-230.0757400000021
 20
3005.767420000001
 30
0.0
  0
VERTEX
  5
81900
  8
0
 10
-175.2981000000014
 20
2921.4953
 30
0.0
  0
VERTEX
  5
81901
  8
0
 10
-273.90090000000009
 20
2851.2668399999998
 30
0.0
  0
VERTEX
  5
81902
  8
0
 10
-372.5062400000009
 20
2921.4953
 30
0.0
  0
VERTEX
  5
81903
  8
0
 10
-427.28388000000149
 20
2907.4490999999998
 30
0.0
  0
VERTEX
  5
81904
  8
0
 10
-449.19646000000199
 20
2851.2668399999998
 30
0.0
  0
VERTEX
  5
81905
  8
0
 10
-372.5062400000009
 20
2837.22064
 30
0.0
  0
VERTEX
  5
81906
  8
0
 10
-361.54867999999971
 20
2724.8561200000031
 30
0.0
  0
VERTEX
  5
81907
  8
0
 10
-447.20509999999962
 20
2738.8997800000011
 30
0.0
  0
VERTEX
  5
81908
  8
0
 10
-547.7992600000008
 20
2640.5814600000031
 30
0.0
  0
VERTEX
  5
81909
  8
0
 10
-438.24144000000001
 20
2626.5352600000019
 30
0.0
  0
VERTEX
  5
8190A
  8
0
 10
-482.06406000000152
 20
2486.0783400000009
 30
0.0
  0
VERTEX
  5
8190B
  8
0
 10
-580.66686000000016
 20
2472.0321400000012
 30
0.0
  0
VERTEX
  5
8190C
  8
0
 10
-690.22722000000033
 20
2401.8062199999999
 30
0.0
  0
VERTEX
  5
8190D
  8
0
 10
-821.70016000000055
 20
2331.5777600000001
 30
0.0
  0
VERTEX
  5
8190E
  8
0
 10
-832.65517999999975
 20
2387.7600199999988
 30
0.0
  0
VERTEX
  5
8190F
  8
0
 10
-931.26052000000072
 20
2177.0746399999989
 30
0.0
  0
VERTEX
  5
81910
  8
0
 10
-755.96496000000172
 20
2219.2107000000001
 30
0.0
  0
VERTEX
  5
81911
  8
0
 10
-646.40460000000155
 20
2148.9822399999998
 30
0.0
  0
VERTEX
  5
81912
  8
0
 10
-679.27220000000125
 20
1980.4354599999999
 30
0.0
  0
VERTEX
  5
81913
  8
0
 10
-876.47780000000171
 20
1910.207000000001
 30
0.0
  0
VERTEX
  5
81914
  8
0
 10
-964.12812000000031
 20
1966.3892600000011
 30
0.0
  0
VERTEX
  5
81915
  8
0
 10
-996.99571999999989
 20
1882.114600000001
 30
0.0
  0
VERTEX
  5
81916
  8
0
 10
-1073.685940000001
 20
1868.0709400000001
 30
0.0
  0
VERTEX
  5
81917
  8
0
 10
-1139.423679999999
 20
1783.79628
 30
0.0
  0
VERTEX
  5
81918
  8
0
 10
-1216.11644
 20
1685.477959999999
 30
0.0
  0
VERTEX
  5
81919
  8
0
 10
-1117.511100000002
 20
1601.203299999999
 30
0.0
  0
VERTEX
  5
8191A
  8
0
 10
-1051.7759000000001
 20
1643.341899999999
 30
0.0
  0
VERTEX
  5
8191B
  8
0
 10
-1126.0988400000031
 20
1521.2009200000009
 30
0.0
  0
VERTEX
  5
8191C
  8
0
 10
-1072.1060600000019
 20
1527.49758
 30
0.0
  0
VERTEX
  5
8191D
  8
0
 10
-1079.903859999999
 20
1416.936459999999
 30
0.0
  0
VERTEX
  5
8191E
  8
0
 10
-1259.9390600000011
 20
1179.8350800000001
 30
0.0
  0
VERTEX
  5
8191F
  8
0
 10
-1479.0597800000021
 20
1165.7888800000001
 30
0.0
  0
VERTEX
  5
81920
  8
0
 10
-1577.6625799999999
 20
1109.6066199999991
 30
0.0
  0
VERTEX
  5
81921
  8
0
 10
-1742.0031200000001
 20
927.01364000000115
 30
0.0
  0
VERTEX
  5
81922
  8
0
 10
-1676.2653800000021
 20
814.64658000000122
 30
0.0
  0
VERTEX
  5
81923
  8
0
 10
-1270.8940800000009
 20
828.69278000000111
 30
0.0
  0
VERTEX
  5
81924
  8
0
 10
-1194.2038600000001
 20
772.51052000000095
 30
0.0
  0
VERTEX
  5
81925
  8
0
 10
-1007.950740000002
 20
856.78518000000122
 30
0.0
  0
VERTEX
  5
81926
  8
0
 10
-876.47780000000171
 20
575.87134000000003
 30
0.0
  0
VERTEX
  5
81927
  8
0
 10
-821.70016000000055
 20
575.87134000000003
 30
0.0
  0
VERTEX
  5
81928
  8
0
 10
-569.71184000000119
 20
884.87504000000172
 30
0.0
  0
VERTEX
  5
81929
  8
0
 10
-493.01908000000083
 20
927.01364000000115
 30
0.0
  0
VERTEX
  5
8192A
  8
0
 10
-438.24144000000001
 20
856.78518000000122
 30
0.0
  0
VERTEX
  5
8192B
  8
0
 10
-438.24144000000001
 20
758.46431999999766
 30
0.0
  0
VERTEX
  5
8192C
  8
0
 10
-350.59112000000118
 20
730.37446000000034
 30
0.0
  0
VERTEX
  5
8192D
  8
0
 10
-230.0757400000021
 20
730.37446000000034
 30
0.0
  0
VERTEX
  5
8192E
  8
0
 10
-186.25312000000039
 20
828.69278000000111
 30
0.0
  0
VERTEX
  5
8192F
  8
0
 10
-43.825160000000899
 20
898.92124000000172
 30
0.0
  0
VERTEX
  5
81930
  8
0
 10
98.605339999998051
 20
912.96744000000126
 30
0.0
  0
VERTEX
  5
81931
  8
0
 10
164.34054
 20
969.14970000000164
 30
0.0
  0
VERTEX
  5
81932
  8
0
 10
175.29555999999911
 20
983.19590000000176
 30
0.0
  0
VERTEX
  5
81933
  8
0
 10
208.1631599999987
 20
1053.4243599999991
 30
0.0
  0
VERTEX
  5
81934
  8
0
 10
251.98831999999959
 20
1025.3319599999991
 30
0.0
  0
VERTEX
  5
81935
  8
0
 10
284.85591999999917
 20
912.96744000000126
 30
0.0
  0
VERTEX
  5
81936
  8
0
 10
361.54614000000032
 20
955.10350000000165
 30
0.0
  0
VERTEX
  5
81937
  8
0
 10
383.45871999999792
 20
927.01364000000115
 30
0.0
  0
VERTEX
  5
81938
  8
0
 10
405.37129999999831
 20
856.78518000000122
 30
0.0
  0
VERTEX
  5
81939
  8
0
 10
482.06405999999879
 20
983.19590000000176
 30
0.0
  0
VERTEX
  5
8193A
  8
0
 10
558.75427999999965
 20
983.19590000000176
 30
0.0
  0
VERTEX
  5
8193B
  8
0
 10
591.62187999999935
 20
927.01364000000115
 30
0.0
  0
VERTEX
  5
8193C
  8
0
 10
558.75427999999965
 20
870.8313800000011
 30
0.0
  0
VERTEX
  5
8193D
  8
0
 10
646.40205999999944
 20
898.92124000000172
 30
0.0
  0
VERTEX
  5
8193E
  8
0
 10
679.27219999999841
 20
856.78518000000122
 30
0.0
  0
VERTEX
  5
8193F
  8
0
 10
755.96241999999893
 20
912.96744000000126
 30
0.0
  0
VERTEX
  5
81940
  8
0
 10
832.65517999999975
 20
884.87504000000172
 30
0.0
  0
VERTEX
  5
81941
  8
0
 10
986.0381599999987
 20
730.37446000000034
 30
0.0
  0
VERTEX
  5
81942
  8
0
 10
1051.7733599999981
 20
702.28206000000034
 30
0.0
  0
VERTEX
  5
81943
  8
0
 10
1106.5535399999981
 20
646.09980000000007
 30
0.0
  0
VERTEX
  5
81944
  8
0
 10
1566.705019999999
 20
688.23586000000034
 30
0.0
  0
VERTEX
  5
81945
  8
0
 10
1654.3527999999981
 20
603.9637399999998
 30
0.0
  0
VERTEX
  5
81946
  8
0
 10
1720.0905399999999
 20
632.05360000000019
 30
0.0
  0
VERTEX
  5
81947
  8
0
 10
1544.7924399999979
 20
856.78518000000122
 30
0.0
  0
VERTEX
  5
81948
  8
0
 10
1533.8374199999989
 20
941.05729999999915
 30
0.0
  0
VERTEX
  5
81949
  8
0
 10
1588.6175999999989
 20
1025.3319599999991
 30
0.0
  0
VERTEX
  5
8194A
  8
0
 10
1490.0147999999981
 20
1292.1996000000011
 30
0.0
  0
VERTEX
  5
8194B
  8
0
 10
1435.2346199999979
 20
1292.1996000000011
 30
0.0
  0
VERTEX
  5
8194C
  8
0
 10
1325.674259999998
 20
1685.477959999999
 30
0.0
  0
VERTEX
  5
8194D
  8
0
 10
1216.113899999998
 20
1699.52162
 30
0.0
  0
VERTEX
  5
8194E
  8
0
 10
1281.8490999999999
 20
1755.70388
 30
0.0
  0
VERTEX
  5
8194F
  8
0
 10
1369.496879999999
 20
1980.4354599999999
 30
0.0
  0
VERTEX
  5
81950
  8
0
 10
1194.2013199999999
 20
2163.02844
 30
0.0
  0
VERTEX
  5
81951
  8
0
 10
975.08313999999973
 20
2233.2568999999999
 30
0.0
  0
VERTEX
  5
81952
  8
0
 10
1073.685939999998
 20
2387.7600199999988
 30
0.0
  0
SEQEND
  5
81953
  8
0
  0
POLYLINE
  5
1BCA8
  8
0
 66
     1
 10
0.0
 20
0.0
 30
0.0
1001
ACDBBLOCKREPETAG
1070
     1
1071
      250
1005
1BCA8
  0
VERTEX
  5
81954
  8
0
 10
-251.98831999999959
 20
716.32826000000034
 30
0.0
  0
VERTEX
  5
81955
  8
0
 10
0.0
 20
589.9175399999998
 30
0.0
  0
VERTEX
  5
81956
  8
0
 10
87.647779999999557
 20
505.64287999999971
 30
0.0
  0
VERTEX
  5
81957
  8
0
 10
120.5153799999991
 20
393.2783600000019
 30
0.0
  0
VERTEX
  5
81958
  8
0
 10
219.11818000000071
 20
688.23586000000034
 30
0.0
  0
VERTEX
  5
81959
  8
0
 10
164.34054
 20
955.10350000000165
 30
0.0
  0
SEQEND
  5
8195A
  8
0
  0
POLYLINE
  5
1BCA9
  8
0
 66
     1
 10
0.0
 20
0.0
 30
0.0
1001
ACDBBLOCKREPETAG
1070
     1
1071
      251
1005
1BCA9
  0
VERTEX
  5
8195B
  8
0
 10
-328.67854000000068
 20
730.37446000000034
 30
0.0
  0
VERTEX
  5
8195C
  8
0
 10
-65.735200000001996
 20
561.82514000000003
 30
0.0
  0
VERTEX
  5
8195D
  8
0
 10
21.910039999998201
 20
449.4606199999991
 30
0.0
  0
VERTEX
  5
8195E
  8
0
 10
43.822619999998629
 20
294.9575000000018
 30
0.0
  0
VERTEX
  5
8195F
  8
0
 10
0.0
 20
0.0
 30
0.0
  0
SEQEND
  5
81960
  8
0
  0
POLYLINE
  5
1BCAA
  8
0
 66
     1
 10
0.0
 20
0.0
 30
0.0
1001
ACDBBLOCKREPETAG
1070
     1
1071
      252
1005
1BCAA
  0
VERTEX
  5
81961
  8
0
 10
1073.685939999998
 20
2387.7600199999988
 30
0.0
  0
VERTEX
  5
81962
  8
0
 10
986.0381599999987
 20
2654.6276600000019
 30
0.0
  0
VERTEX
  5
81963
  8
0
 10
931.25797999999816
 20
2654.6276600000019
 30
0.0
  0
VERTEX
  5
81964
  8
0
 10
821.69761999999855
 20
2893.4029
 30
0.0
  0
VERTEX
  5
81965
  8
0
 10
755.96241999999893
 20
2879.3566999999998
 30
0.0
  0
VERTEX
  5
81966
  8
0
 10
679.27219999999841
 20
2879.3566999999998
 30
0.0
  0
VERTEX
  5
81967
  8
0
 10
624.48947999999905
 20
2991.7237600000012
 30
0.0
  0
VERTEX
  5
81968
  8
0
 10
657.35707999999852
 20
3146.224340000002
 30
0.0
  0
VERTEX
  5
81969
  8
0
 10
745.0074000000003
 20
3146.224340000002
 30
0.0
  0
VERTEX
  5
8196A
  8
0
 10
580.66686000000016
 20
3342.863519999999
 30
0.0
  0
VERTEX
  5
8196B
  8
0
 10
558.75427999999965
 20
3497.3666400000011
 30
0.0
  0
SEQEND
  5
8196C
  8
0
  0
POLYLINE
  5
1BCAB
  8
0
 66
     1
 10
0.0
 20
0.0
 30
0.0
 70
     1
1001
ACDBBLOCKREPETAG
1070
     1
1071
      253
1005
1BCAB
  0
VERTEX
  5
8196D
  8
0
 10
-69.951600000009151
 20
4869.1546000000008
 30
0.0
  0
VERTEX
  5
8196E
  8
0
 10
-172.21200000000499
 20
4644.4153999999889
 30
0.0
  0
VERTEX
  5
8196F
  8
0
 10
-347.52280000000621
 20
4494.6061999999883
 30
0.0
  0
VERTEX
  5
81970
  8
0
 10
-303.68240000000333
 20
4400.95639999999
 30
0.0
  0
VERTEX
  5
81971
  8
0
 10
-245.26239999999871
 20
4382.2365999999975
 30
0.0
  0
VERTEX
  5
81972
  8
0
 10
-362.12780000000163
 20
4326.0518000000011
 30
0.0
  0
VERTEX
  5
81973
  8
0
 10
-347.52280000000621
 20
4251.1471999999967
 30
0.0
  0
VERTEX
  5
81974
  8
0
 10
-552.01820000000407
 20
4007.688199999996
 30
0.0
  0
VERTEX
  5
81975
  8
0
 10
-639.67360000000474
 20
3932.783600000007
 30
0.0
  0
VERTEX
  5
81976
  8
0
 10
-537.41320000000906
 20
3820.4139999999961
 30
0.0
  0
VERTEX
  5
81977
  8
0
 10
-552.01820000000407
 20
3745.5093999999949
 30
0.0
  0
VERTEX
  5
81978
  8
0
 10
-581.25360000000012
 20
3576.9549999999949
 30
0.0
  0
VERTEX
  5
81979
  8
0
 10
-668.88360000000728
 20
3558.2098000000001
 30
0.0
  0
VERTEX
  5
8197A
  8
0
 10
-741.93400000000065
 20
3427.1203999999871
 30
0.0
  0
VERTEX
  5
8197B
  8
0
 10
-727.3289999999937
 20
3277.311199999996
 30
0.0
  0
VERTEX
  5
8197C
  8
0
 10
-829.58940000000121
 20
3258.591399999993
 30
0.0
  0
VERTEX
  5
8197D
  8
0
 10
-917.21939999999665
 20
3052.571999999996
 30
0.0
  0
VERTEX
  5
8197E
  8
0
 10
-873.4043999999991
 20
3015.1323999999931
 30
0.0
  0
VERTEX
  5
8197F
  8
0
 10
-902.61440000000141
 20
2827.858199999991
 30
0.0
  0
VERTEX
  5
81980
  8
0
 10
-990.26980000000185
 20
2696.7433999999948
 30
0.0
  0
VERTEX
  5
81981
  8
0
 10
-873.4043999999991
 20
2734.2083999999932
 30
0.0
  0
VERTEX
  5
81982
  8
0
 10
-1034.084799999998
 20
2509.4691999999941
 30
0.0
  0
VERTEX
  5
81983
  8
0
 10
-946.42939999999885
 20
2434.5645999999929
 30
0.0
  0
VERTEX
  5
81984
  8
0
 10
-1034.084799999998
 20
2303.4751999999912
 30
0.0
  0
VERTEX
  5
81985
  8
0
 10
-1048.6898000000069
 20
2041.2963999999999
 30
0.0
  0
VERTEX
  5
81986
  8
0
 10
-975.66480000000638
 20
1985.111599999999
 30
0.0
  0
VERTEX
  5
81987
  8
0
 10
-931.82440000000349
 20
1797.8373999999981
 30
0.0
  0
VERTEX
  5
81988
  8
0
 10
-1004.874799999997
 20
1816.5571999999891
 30
0.0
  0
VERTEX
  5
81989
  8
0
 10
-946.42939999999885
 20
1629.282999999999
 30
0.0
  0
VERTEX
  5
8198A
  8
0
 10
-975.66480000000638
 20
1460.728599999989
 30
0.0
  0
VERTEX
  5
8198B
  8
0
 10
-917.21939999999665
 20
1479.4737999999959
 30
0.0
  0
VERTEX
  5
8198C
  8
0
 10
-844.19439999999668
 20
1329.6391999999871
 30
0.0
  0
VERTEX
  5
8198D
  8
0
 10
-902.61440000000141
 20
1348.384399999994
 30
0.0
  0
VERTEX
  5
8198E
  8
0
 10
-888.00940000000605
 20
1179.8299999999949
 30
0.0
  0
VERTEX
  5
8198F
  8
0
 10
-771.14400000000319
 20
1142.364999999998
 30
0.0
  0
VERTEX
  5
81990
  8
0
 10
-800.35399999999379
 20
917.6511999999924
 30
0.0
  0
VERTEX
  5
81991
  8
0
 10
-668.88360000000728
 20
936.37099999999441
 30
0.0
  0
VERTEX
  5
81992
  8
0
 10
-595.8586000000073
 20
1011.275599999996
 30
0.0
  0
VERTEX
  5
81993
  8
0
 10
-464.38820000000891
 20
917.6511999999924
 30
0.0
  0
VERTEX
  5
81994
  8
0
 10
-508.20320000000658
 20
842.721199999997
 30
0.0
  0
VERTEX
  5
81995
  8
0
 10
-376.73279999999693
 20
805.28159999999298
 30
0.0
  0
VERTEX
  5
81996
  8
0
 10
-303.68240000000333
 20
842.721199999997
 30
0.0
  0
VERTEX
  5
81997
  8
0
 10
-318.28739999999868
 20
692.91199999999344
 30
0.0
  0
VERTEX
  5
81998
  8
0
 10
-157.6069999999981
 20
580.5423999999939
 30
0.0
  0
VERTEX
  5
81999
  8
0
 10
-99.187000000005071
 20
618.00739999999155
 30
0.0
  0
VERTEX
  5
8199A
  8
0
 10
3.0733999999908499
 20
580.5423999999939
 30
0.0
  0
VERTEX
  5
8199B
  8
0
 10
207.59419999999429
 20
674.19219999999143
 30
0.0
  0
VERTEX
  5
8199C
  8
0
 10
295.24959999999481
 20
636.72719999999345
 30
0.0
  0
VERTEX
  5
8199D
  8
0
 10
309.85460000000171
 20
692.91199999999344
 30
0.0
  0
VERTEX
  5
8199E
  8
0
 10
543.56000000000233
 20
880.18619999999441
 30
0.0
  0
VERTEX
  5
8199F
  8
0
 10
499.7450000000045
 20
992.55579999999395
 30
0.0
  0
VERTEX
  5
819A0
  8
0
 10
602.00539999998875
 20
1142.364999999998
 30
0.0
  0
VERTEX
  5
819A1
  8
0
 10
762.68580000000111
 20
1217.2695999999989
 30
0.0
  0
VERTEX
  5
819A2
  8
0
 10
777.29079999999624
 20
1367.1041999999959
 30
0.0
  0
VERTEX
  5
819A3
  8
0
 10
645.82039999999824
 20
1442.008799999998
 30
0.0
  0
VERTEX
  5
819A4
  8
0
 10
835.7361999999946
 20
1554.378399999998
 30
0.0
  0
VERTEX
  5
819A5
  8
0
 10
864.94619999999691
 20
1704.18759999999
 30
0.0
  0
VERTEX
  5
819A6
  8
0
 10
777.29079999999624
 20
1910.2069999999981
 30
0.0
  0
VERTEX
  5
819A7
  8
0
 10
879.55119999999238
 20
2284.7554000000009
 30
0.0
  0
VERTEX
  5
819A8
  8
0
 10
675.03039999998873
 20
2621.8387999999941
 30
0.0
  0
VERTEX
  5
819A9
  8
0
 10
602.00539999998875
 20
2621.8387999999941
 30
0.0
  0
VERTEX
  5
819AA
  8
0
 10
718.87079999999162
 20
2734.2083999999932
 30
0.0
  0
VERTEX
  5
819AB
  8
0
 10
602.00539999998875
 20
2809.1129999999962
 30
0.0
  0
VERTEX
  5
819AC
  8
0
 10
675.03039999998873
 20
2940.2023999999851
 30
0.0
  0
VERTEX
  5
819AD
  8
0
 10
645.82039999999824
 20
2996.3871999999951
 30
0.0
  0
VERTEX
  5
819AE
  8
0
 10
528.95499999999538
 20
3015.1323999999931
 30
0.0
  0
VERTEX
  5
819AF
  8
0
 10
616.61039999999593
 20
3164.9416000000069
 30
0.0
  0
VERTEX
  5
819B0
  8
0
 10
572.79539999999804
 20
3502.0503999999928
 30
0.0
  0
VERTEX
  5
819B1
  8
0
 10
485.1399999999976
 20
3539.489999999998
 30
0.0
  0
VERTEX
  5
819B2
  8
0
 10
572.79539999999804
 20
3576.9549999999949
 30
0.0
  0
VERTEX
  5
819B3
  8
0
 10
499.7450000000045
 20
3857.8536000000022
 30
0.0
  0
VERTEX
  5
819B4
  8
0
 10
368.27459999999479
 20
3895.3185999999978
 30
0.0
  0
VERTEX
  5
819B5
  8
0
 10
412.08960000000388
 20
4120.057799999996
 30
0.0
  0
VERTEX
  5
819B6
  8
0
 10
309.85460000000171
 20
4326.0518000000011
 30
0.0
  0
VERTEX
  5
819B7
  8
0
 10
266.01419999999888
 20
4251.1471999999967
 30
0.0
  0
VERTEX
  5
819B8
  8
0
 10
149.14879999999599
 20
4550.7909999999983
 30
0.0
  0
VERTEX
  5
819B9
  8
0
 10
105.33379999999831
 20
4513.3260000000009
 30
0.0
  0
VERTEX
  5
819BA
  8
0
 10
17.678399999997779
 20
4756.7849999999899
 30
0.0
  0
VERTEX
  5
819BB
  8
0
 10
-11.53160000000452
 20
4719.3199999999924
 30
0.0
  0
SEQEND
  5
819BC
  8
0
  0
POLYLINE
  5
1BCAC
  8
0
 66
     1
 10
0.0
 20
0.0
 30
0.0
1001
ACDBBLOCKREPETAG
1070
     1
1071
      254
1005
1BCAC
  0
VERTEX
  5
819BD
  8
0
 10
-173.0502000000026
 20
601.19259999999667
 30
0.0
  0
VERTEX
  5
819BE
  8
0
 10
-173.0502000000026
 20
296.39259999999661
 30
0.0
  0
VERTEX
  5
819BF
  8
0
 10
-219.1257999999988
 20
0.0
 30
0.0
  0
SEQEND
  5
819C0
  8
0
  0
POLYLINE
  5
1BCAD
  8
0
 66
     1
 10
0.0
 20
0.0
 30
0.0
1001
ACDBBLOCKREPETAG
1070
     1
1071
      255
1005
1BCAD
  0
VERTEX
  5
819C1
  8
0
 10
9.8297999999927921
 20
601.19259999999667
 30
0.0
  0
VERTEX
  5
819C2
  8
0
 10
-14.630400000000551
 20
337.08339999999311
 30
0.0
  0
VERTEX
  5
819C3
  8
0
 10
-14.630400000000551
 20
93.624399999992235
 30
0.0
  0
VERTEX
  5
819C4
  8
0
 10
0.0
 20
0.0
 30
0.0
  0
SEQEND
  5
819C5
  8
0
  0
POLYLINE
  5
1BCAE
  8
0
 66
     1
 10
0.0
 20
0.0
 30
0.0
1001
ACDBBLOCKREPETAG
1070
     1
1071
      256
1005
1BCAE
  0
VERTEX
  5
819C6
  8
0
 10
-99.059999999990765
 20
3615.690000000011
 30
0.0
  0
VERTEX
  5
819C7
  8
0
 10
-167.53839999998851
 20
3353.7397999999962
 30
0.0
  0
VERTEX
  5
819C8
  8
0
 10
-274.34539999998668
 20
3262.4522000000061
 30
0.0
  0
VERTEX
  5
819C9
  8
0
 10
-452.37399999999838
 20
3201.593800000001
 30
0.0
  0
VERTEX
  5
819CA
  8
0
 10
-523.5955999999893
 20
3110.280799999995
 30
0.0
  0
VERTEX
  5
819CB
  8
0
 10
-452.37399999999838
 20
3140.7100000000141
 30
0.0
  0
VERTEX
  5
819CC
  8
0
 10
-381.1777999999785
 20
3125.4954000000112
 30
0.0
  0
VERTEX
  5
819CD
  8
0
 10
-345.56700000000052
 20
3018.9932000000049
 30
0.0
  0
VERTEX
  5
819CE
  8
0
 10
-428.65039999999351
 20
2897.2510000000129
 30
0.0
  0
VERTEX
  5
819CF
  8
0
 10
-547.34459999998796
 20
2821.1780000000158
 30
0.0
  0
VERTEX
  5
819D0
  8
0
 10
-582.95539999998903
 20
2790.7487999999962
 30
0.0
  0
VERTEX
  5
819D1
  8
0
 10
-487.98479999998801
 20
2805.9634000000001
 30
0.0
  0
VERTEX
  5
819D2
  8
0
 10
-499.87199999999558
 20
2775.5342000000041
 30
0.0
  0
VERTEX
  5
819D3
  8
0
 10
-666.03879999998185
 20
2669.0066000000052
 30
0.0
  0
VERTEX
  5
819D4
  8
0
 10
-879.67819999999483
 20
2577.7190000000151
 30
0.0
  0
VERTEX
  5
819D5
  8
0
 10
-1045.844999999993
 20
2456.0022000000072
 30
0.0
  0
VERTEX
  5
819D6
  8
0
 10
-1105.179399999987
 20
2364.6892000000112
 30
0.0
  0
VERTEX
  5
819D7
  8
0
 10
-1045.844999999993
 20
2395.1184000000071
 30
0.0
  0
VERTEX
  5
819D8
  8
0
 10
-939.01259999998967
 20
2425.547600000004
 30
0.0
  0
VERTEX
  5
819D9
  8
0
 10
-879.67819999999483
 20
2395.1184000000071
 30
0.0
  0
VERTEX
  5
819DA
  8
0
 10
-832.20559999999159
 20
2395.1184000000071
 30
0.0
  0
VERTEX
  5
819DB
  8
0
 10
-749.12219999998672
 20
2425.547600000004
 30
0.0
  0
SEQEND
  5
819DC
  8
0
  0
LINE
  5
1BCAF
  8
0
 10
-209.88019999999801
 20
192.98920000001041
 30
0.0
 11
-222.17379999998451
 21
358.26700000000051
 31
0.0
1001
ACDBBLOCKREPETAG
1070
     1
1071
      257
1005
1BCAF
  0
LINE
  5
1BCB0
  8
0
 10
-247.65000000000001
 20
0.0
 30
0.0
 11
-209.88019999999801
 21
192.98920000001041
 31
0.0
1001
ACDBBLOCKREPETAG
1070
     1
1071
      258
1005
1BCB0
  0
LINE
  5
1BCB1
  8
0
 10
-19.583399999993159
 20
242.82399999999851
 30
0.0
 11
-17.525999999989828
 21
300.55820000001358
 31
0.0
1001
ACDBBLOCKREPETAG
1070
     1
1071
      259
1005
1BCB1
  0
LINE
  5
1BCB2
  8
0
 10
0.0
 20
0.0
 30
0.0
 11
-19.583399999993159
 21
242.82399999999851
 31
0.0
1001
ACDBBLOCKREPETAG
1070
     1
1071
      260
1005
1BCB2
  0
POLYLINE
  5
1BCB3
  8
0
 66
     1
 10
0.0
 20
0.0
 30
0.0
1001
ACDBBLOCKREPETAG
1070
     1
1071
      261
1005
1BCB3
  0
VERTEX
  5
819DD
  8
0
 10
-95.478599999988802
 20
3606.0380000000068
 30
0.0
  0
VERTEX
  5
819DE
  8
0
 10
-27.279599999990211
 20
3343.7322000000122
 30
0.0
  0
VERTEX
  5
819DF
  8
0
 10
61.899800000008973
 20
3229.381400000002
 30
0.0
  0
VERTEX
  5
819E0
  8
0
 10
224.5360000000037
 20
3162.1222000000098
 30
0.0
  0
VERTEX
  5
819E1
  8
0
 10
166.82720000001689
 20
3162.1222000000098
 30
0.0
  0
VERTEX
  5
819E2
  8
0
 10
103.8860000000037
 20
3128.4926000000082
 30
0.0
  0
VERTEX
  5
819E3
  8
0
 10
109.1184000000185
 20
3094.8883999999998
 30
0.0
  0
VERTEX
  5
819E4
  8
0
 10
198.29780000000611
 20
2993.999600000006
 30
0.0
  0
VERTEX
  5
819E5
  8
0
 10
408.15260000001052
 20
2946.9080000000108
 30
0.0
  0
VERTEX
  5
819E6
  8
0
 10
266.49680000000478
 20
2926.7404000000029
 30
0.0
  0
VERTEX
  5
819E7
  8
0
 10
140.58900000000779
 20
2879.6487999999958
 30
0.0
  0
VERTEX
  5
819E8
  8
0
 10
177.31740000001719
 20
2866.2122000000081
 30
0.0
  0
VERTEX
  5
819E9
  8
0
 10
151.07920000001971
 20
2819.1206000000011
 30
0.0
  0
VERTEX
  5
819EA
  8
0
 10
261.26440000001298
 20
2846.0192000000061
 30
0.0
  0
VERTEX
  5
819EB
  8
0
 10
172.08500000000231
 20
2778.785400000007
 30
0.0
  0
VERTEX
  5
819EC
  8
0
 10
297.99280000001079
 20
2745.1557999999941
 30
0.0
  0
VERTEX
  5
819ED
  8
0
 10
250.77420000001271
 20
2724.9628000000039
 30
0.0
  0
VERTEX
  5
819EE
  8
0
 10
350.44380000001217
 20
2603.9064000000021
 30
0.0
  0
VERTEX
  5
819EF
  8
0
 10
555.04080000000795
 20
2570.2768000000001
 30
0.0
  0
VERTEX
  5
819F0
  8
0
 10
659.96820000001549
 20
2637.5360000000151
 30
0.0
  0
VERTEX
  5
819F1
  8
0
 10
712.41920000001721
 20
2704.7952000000068
 30
0.0
  0
VERTEX
  5
819F2
  8
0
 10
707.18680000000245
 20
2671.1656000000048
 30
0.0
  0
VERTEX
  5
819F3
  8
0
 10
696.69660000001375
 20
2577.0077999999971
 30
0.0
  0
VERTEX
  5
819F4
  8
0
 10
612.74960000000624
 20
2482.8500000000108
 30
0.0
  0
VERTEX
  5
819F5
  8
0
 10
586.51140000000873
 20
2375.23020000001
 30
0.0
  0
VERTEX
  5
819F6
  8
0
 10
497.3320000000096
 20
2375.23020000001
 30
0.0
  0
VERTEX
  5
819F7
  8
0
 10
597.02700000000254
 20
2328.1640000000079
 30
0.0
  0
VERTEX
  5
819F8
  8
0
 10
717.67700000000275
 20
2307.9964000000109
 30
0.0
  0
VERTEX
  5
819F9
  8
0
 10
812.1142000000217
 20
2334.8950000000159
 30
0.0
  0
VERTEX
  5
819FA
  8
0
 10
738.65740000001483
 20
2281.0724000000009
 30
0.0
  0
VERTEX
  5
819FB
  8
0
 10
623.23980000000665
 20
2254.1737999999959
 30
0.0
  0
VERTEX
  5
819FC
  8
0
 10
680.94860000000472
 20
2240.7372000000082
 30
0.0
  0
VERTEX
  5
819FD
  8
0
 10
570.78880000000515
 20
2186.9146000000051
 30
0.0
  0
VERTEX
  5
819FE
  8
0
 10
633.73000000000673
 20
2173.4780000000042
 30
0.0
  0
VERTEX
  5
819FF
  8
0
 10
439.62320000001142
 20
2139.8484000000021
 30
0.0
  0
VERTEX
  5
81A00
  8
0
 10
555.04080000000795
 20
2052.4216000000019
 30
0.0
  0
VERTEX
  5
81A01
  8
0
 10
738.65740000001483
 20
2012.061000000004
 30
0.0
  0
VERTEX
  5
81A02
  8
0
 10
932.76420000002213
 20
2032.2285999999999
 30
0.0
  0
VERTEX
  5
81A03
  8
0
 10
1011.453400000009
 20
2092.7568000000069
 30
0.0
  0
VERTEX
  5
81A04
  8
0
 10
1016.711200000018
 20
2032.2285999999999
 30
0.0
  0
VERTEX
  5
81A05
  8
0
 10
1153.1092000000151
 20
1944.8018000000111
 30
0.0
  0
SEQEND
  5
81A06
  8
0
  0
POLYLINE
  5
1BCB4
  8
0
 66
     1
 10
0.0
 20
0.0
 30
0.0
1001
ACDBBLOCKREPETAG
1070
     1
1071
      262
1005
1BCB4
  0
VERTEX
  5
81A07
  8
0
 10
-742.9499999999997
 20
2426.9700000000171
 30
0.0
  0
VERTEX
  5
81A08
  8
0
 10
-642.28979999998353
 20
2395.1184000000071
 30
0.0
  0
VERTEX
  5
81A09
  8
0
 10
-559.20639999999025
 20
2395.1184000000071
 30
0.0
  0
VERTEX
  5
81A0A
  8
0
 10
-606.67899999999395
 20
2319.04540000001
 30
0.0
  0
VERTEX
  5
81A0B
  8
0
 10
-523.5955999999893
 20
2319.04540000001
 30
0.0
  0
VERTEX
  5
81A0C
  8
0
 10
-594.81719999999143
 20
2212.5432000000042
 30
0.0
  0
VERTEX
  5
81A0D
  8
0
 10
-903.4017999999885
 20
2045.1572000000119
 30
0.0
  0
VERTEX
  5
81A0E
  8
0
 10
-915.28899999999624
 20
1953.8695999999991
 30
0.0
  0
VERTEX
  5
81A0F
  8
0
 10
-1045.844999999993
 20
1786.4836000000071
 30
0.0
  0
VERTEX
  5
81A10
  8
0
 10
-1330.680599999991
 20
1664.766800000009
 30
0.0
  0
VERTEX
  5
81A11
  8
0
 10
-1496.847399999989
 20
1619.097600000003
 30
0.0
  0
VERTEX
  5
81A12
  8
0
 10
-1544.319999999992
 20
1558.23920000001
 30
0.0
  0
VERTEX
  5
81A13
  8
0
 10
-1449.374799999986
 20
1512.5954000000099
 30
0.0
  0
VERTEX
  5
81A14
  8
0
 10
-1425.6511999999921
 20
1543.0246000000061
 30
0.0
  0
VERTEX
  5
81A15
  8
0
 10
-1295.0697999999791
 20
1558.23920000001
 30
0.0
  0
VERTEX
  5
81A16
  8
0
 10
-1223.8735999999819
 20
1466.9515999999981
 30
0.0
  0
VERTEX
  5
81A17
  8
0
 10
-1033.957799999984
 20
1497.3808000000049
 30
0.0
  0
VERTEX
  5
81A18
  8
0
 10
-974.62339999999074
 20
1588.6684000000071
 30
0.0
  0
VERTEX
  5
81A19
  8
0
 10
-772.84579999998004
 20
1482.1662000000131
 30
0.0
  0
VERTEX
  5
81A1A
  8
0
 10
-855.92919999999651
 20
1482.1662000000131
 30
0.0
  0
VERTEX
  5
81A1B
  8
0
 10
-891.53999999999746
 20
1436.522400000001
 30
0.0
  0
VERTEX
  5
81A1C
  8
0
 10
-749.12219999998672
 20
1375.638600000002
 30
0.0
  0
VERTEX
  5
81A1D
  8
0
 10
-784.70759999998279
 20
1223.492600000008
 30
0.0
  0
VERTEX
  5
81A1E
  8
0
 10
-915.28899999999624
 20
1056.1066000000039
 30
0.0
  0
VERTEX
  5
81A1F
  8
0
 10
-1128.9283999999859
 20
1025.677400000008
 30
0.0
  0
VERTEX
  5
81A20
  8
0
 10
-1223.8735999999819
 20
858.29140000000393
 30
0.0
  0
VERTEX
  5
81A21
  8
0
 10
-1247.597199999987
 20
919.17520000001389
 30
0.0
  0
VERTEX
  5
81A22
  8
0
 10
-1342.5677999999871
 20
827.86220000000765
 30
0.0
  0
VERTEX
  5
81A23
  8
0
 10
-1508.734599999985
 20
797.43299999999954
 30
0.0
  0
VERTEX
  5
81A24
  8
0
 10
-1663.014199999986
 20
797.43299999999954
 30
0.0
  0
VERTEX
  5
81A25
  8
0
 10
-1781.7083999999929
 20
873.50600000000804
 30
0.0
  0
VERTEX
  5
81A26
  8
0
 10
-1769.846599999991
 20
782.21840000000702
 30
0.0
  0
VERTEX
  5
81A27
  8
0
 10
-1698.625
 20
736.57460000000594
 30
0.0
  0
VERTEX
  5
81A28
  8
0
 10
-1674.901399999995
 20
690.93080000000566
 30
0.0
  0
VERTEX
  5
81A29
  8
0
 10
-1556.207199999988
 20
706.14540000000977
 30
0.0
  0
VERTEX
  5
81A2A
  8
0
 10
-1639.2905999999821
 20
569.18860000000245
 30
0.0
  0
VERTEX
  5
81A2B
  8
0
 10
-1484.985599999987
 20
599.61780000001056
 30
0.0
  0
VERTEX
  5
81A2C
  8
0
 10
-1484.985599999987
 20
477.90100000000109
 30
0.0
  0
VERTEX
  5
81A2D
  8
0
 10
-1378.153199999995
 20
538.75940000000605
 30
0.0
  0
VERTEX
  5
81A2E
  8
0
 10
-1259.4843999999939
 20
553.97399999999845
 30
0.0
  0
VERTEX
  5
81A2F
  8
0
 10
-1295.0697999999791
 20
477.90100000000109
 30
0.0
  0
VERTEX
  5
81A30
  8
0
 10
-1283.2079999999989
 20
401.82800000000401
 30
0.0
  0
VERTEX
  5
81A31
  8
0
 10
-1200.124599999983
 20
401.82800000000401
 30
0.0
  0
VERTEX
  5
81A32
  8
0
 10
-998.37239999998917
 20
462.68640000000892
 30
0.0
  0
VERTEX
  5
81A33
  8
0
 10
-927.15079999998704
 20
538.75940000000605
 30
0.0
  0
VERTEX
  5
81A34
  8
0
 10
-903.4017999999885
 20
401.82800000000401
 30
0.0
  0
VERTEX
  5
81A35
  8
0
 10
-772.84579999998004
 20
340.94420000000582
 30
0.0
  0
VERTEX
  5
81A36
  8
0
 10
-749.12219999998672
 20
386.61340000000001
 30
0.0
  0
VERTEX
  5
81A37
  8
0
 10
-642.28979999998353
 20
432.25720000001218
 30
0.0
  0
VERTEX
  5
81A38
  8
0
 10
-582.95539999998903
 20
386.61340000000001
 30
0.0
  0
VERTEX
  5
81A39
  8
0
 10
-535.45739999999159
 20
295.30040000000508
 30
0.0
  0
VERTEX
  5
81A3A
  8
0
 10
-369.29059999998231
 20
401.82800000000401
 30
0.0
  0
VERTEX
  5
81A3B
  8
0
 10
-333.70519999999789
 20
295.30040000000508
 30
0.0
  0
VERTEX
  5
81A3C
  8
0
 10
-155.6511999999924
 20
401.82800000000401
 30
0.0
  0
VERTEX
  5
81A3D
  8
0
 10
-120.04039999999119
 20
325.72960000000171
 30
0.0
  0
VERTEX
  5
81A3E
  8
0
 10
259.7404000000144
 20
234.44200000000049
 30
0.0
  0
VERTEX
  5
81A3F
  8
0
 10
141.07160000001369
 20
310.51500000000919
 30
0.0
  0
VERTEX
  5
81A40
  8
0
 10
342.82380000000762
 20
264.87120000000863
 30
0.0
  0
VERTEX
  5
81A41
  8
0
 10
259.7404000000144
 20
325.72960000000171
 30
0.0
  0
VERTEX
  5
81A42
  8
0
 10
425.90720000001221
 20
340.94420000000582
 30
0.0
  0
VERTEX
  5
81A43
  8
0
 10
568.35040000001675
 20
295.30040000000508
 30
0.0
  0
VERTEX
  5
81A44
  8
0
 10
698.90640000001338
 20
310.51500000000919
 30
0.0
  0
VERTEX
  5
81A45
  8
0
 10
556.48860000001423
 20
386.61340000000001
 30
0.0
  0
VERTEX
  5
81A46
  8
0
 10
888.82220000002098
 20
386.61340000000001
 30
0.0
  0
VERTEX
  5
81A47
  8
0
 10
1138.0724000000121
 20
325.72960000000171
 30
0.0
  0
VERTEX
  5
81A48
  8
0
 10
1054.9890000000071
 20
417.04260000000789
 30
0.0
  0
VERTEX
  5
81A49
  8
0
 10
1078.712600000013
 20
493.1156000000052
 30
0.0
  0
VERTEX
  5
81A4A
  8
0
 10
1244.8794000000109
 20
356.1842000000035
 30
0.0
  0
VERTEX
  5
81A4B
  8
0
 10
1434.7698000000021
 20
340.94420000000582
 30
0.0
  0
VERTEX
  5
81A4C
  8
0
 10
1695.9072000000119
 20
432.25720000001218
 30
0.0
  0
VERTEX
  5
81A4D
  8
0
 10
1636.547400000012
 20
477.90100000000109
 30
0.0
  0
VERTEX
  5
81A4E
  8
0
 10
1529.740400000014
 20
462.68640000000892
 30
0.0
  0
VERTEX
  5
81A4F
  8
0
 10
1529.740400000014
 20
523.54480000000194
 30
0.0
  0
VERTEX
  5
81A50
  8
0
 10
1446.6570000000099
 20
523.54480000000194
 30
0.0
  0
VERTEX
  5
81A51
  8
0
 10
1446.6570000000099
 20
614.8324000000033
 30
0.0
  0
VERTEX
  5
81A52
  8
0
 10
1375.4354000000189
 20
614.8324000000033
 30
0.0
  0
VERTEX
  5
81A53
  8
0
 10
1304.239200000022
 20
721.36000000000206
 30
0.0
  0
VERTEX
  5
81A54
  8
0
 10
1280.490200000012
 20
660.50159999999755
 30
0.0
  0
VERTEX
  5
81A55
  8
0
 10
1209.268600000009
 20
675.71620000001315
 30
0.0
  0
VERTEX
  5
81A56
  8
0
 10
1114.3234000000141
 20
767.00380000000291
 30
0.0
  0
VERTEX
  5
81A57
  8
0
 10
983.76740000001723
 20
767.00380000000291
 30
0.0
  0
VERTEX
  5
81A58
  8
0
 10
876.93500000000245
 20
767.00380000000291
 30
0.0
  0
VERTEX
  5
81A59
  8
0
 10
710.7682000000159
 20
858.29140000000393
 30
0.0
  0
VERTEX
  5
81A5A
  8
0
 10
983.76740000001723
 20
1040.8920000000001
 30
0.0
  0
VERTEX
  5
81A5B
  8
0
 10
1209.268600000009
 20
1040.8920000000001
 30
0.0
  0
VERTEX
  5
81A5C
  8
0
 10
1149.9342000000149
 20
1162.634200000002
 30
0.0
  0
VERTEX
  5
81A5D
  8
0
 10
1327.9628000000041
 20
1223.492600000008
 30
0.0
  0
VERTEX
  5
81A5E
  8
0
 10
1446.6570000000099
 20
1208.2780000000041
 30
0.0
  0
VERTEX
  5
81A5F
  8
0
 10
1399.1844000000169
 20
1329.994800000002
 30
0.0
  0
VERTEX
  5
81A60
  8
0
 10
1233.0176000000081
 20
1299.565600000004
 30
0.0
  0
VERTEX
  5
81A61
  8
0
 10
995.62920000001941
 20
1329.994800000002
 30
0.0
  0
VERTEX
  5
81A62
  8
0
 10
912.54580000000317
 20
1436.522400000001
 30
0.0
  0
VERTEX
  5
81A63
  8
0
 10
841.32420000001264
 20
1406.0678000000109
 30
0.0
  0
VERTEX
  5
81A64
  8
0
 10
793.85160000000894
 20
1512.5954000000099
 30
0.0
  0
VERTEX
  5
81A65
  8
0
 10
687.04460000001075
 20
1482.1662000000131
 30
0.0
  0
VERTEX
  5
81A66
  8
0
 10
568.35040000001675
 20
1588.6684000000071
 30
0.0
  0
VERTEX
  5
81A67
  8
0
 10
722.65540000001204
 20
1664.766800000009
 30
0.0
  0
VERTEX
  5
81A68
  8
0
 10
995.62920000001941
 20
1695.1960000000061
 30
0.0
  0
VERTEX
  5
81A69
  8
0
 10
1054.9890000000071
 20
1832.127400000008
 30
0.0
  0
VERTEX
  5
81A6A
  8
0
 10
1149.9342000000149
 20
1938.655000000007
 30
0.0
  0
SEQEND
  5
81A6B
  8
0
  0
LINE
  5
1BCB5
  8
0
 10
180.06059999999849
 20
4034.8408000000009
 30
0.0
 11
-24.4602000000049
 21
3922.4712000000031
 31
0.0
1001
ACDBBLOCKREPETAG
1070
     1
1071
      263
1005
1BCB5
  0
LINE
  5
1BCB6
  8
0
 10
-39.065200000000267
 20
4034.8408000000009
 30
0.0
 11
136.24560000000079
 21
4128.465200000006
 31
0.0
1001
ACDBBLOCKREPETAG
1070
     1
1071
      264
1005
1BCB6
  0
LINE
  5
1BCB7
  8
0
 10
19.380199999997959
 20
4203.3697999999958
 30
0.0
 11
121.6151999999887
 21
4278.2998000000007
 31
0.0
1001
ACDBBLOCKREPETAG
1070
     1
1071
      265
1005
1BCB7
  0
LINE
  5
1BCB8
  8
0
 10
19.380199999997959
 20
4259.5546000000068
 30
0.0
 11
77.800199999991065
 21
4184.6499999999933
 31
0.0
1001
ACDBBLOCKREPETAG
1070
     1
1071
      266
1005
1BCB8
  0
LINE
  5
1BCB9
  8
0
 10
-53.670199999995653
 20
4615.3832000000057
 30
0.0
 11
19.380199999997959
 21
4690.2877999999982
 31
0.0
1001
ACDBBLOCKREPETAG
1070
     1
1071
      267
1005
1BCB9
  0
POLYLINE
  5
1BCBA
  8
0
 66
     1
 10
0.0
 20
0.0
 30
0.0
1001
ACDBBLOCKREPETAG
1070
     1
1071
      268
1005
1BCBA
  0
VERTEX
  5
81A6C
  8
0
 10
-24.4602000000049
 20
3416.8333999999991
 30
0.0
  0
VERTEX
  5
81A6D
  8
0
 10
282.3209999999944
 20
3622.8274000000019
 30
0.0
  0
SEQEND
  5
81A6E
  8
0
  0
POLYLINE
  5
1BCBB
  8
0
 66
     1
 10
0.0
 20
0.0
 30
0.0
1001
ACDBBLOCKREPETAG
1070
     1
1071
      269
1005
1BCBB
  0
VERTEX
  5
81A6F
  8
0
 10
-53.670199999995653
 20
2274.4429999999961
 30
0.0
  0
VERTEX
  5
81A70
  8
0
 10
311.53099999999682
 20
2105.888600000008
 30
0.0
  0
VERTEX
  5
81A71
  8
0
 10
676.73219999998912
 20
2049.703799999997
 30
0.0
  0
VERTEX
  5
81A72
  8
0
 10
895.85799999999949
 20
2087.1688000000049
 30
0.0
  0
SEQEND
  5
81A73
  8
0
  0
LINE
  5
1BCBC
  8
0
 10
-9.855199999997966
 20
1225.7024000000019
 30
0.0
 11
691.33719999999596
 21
1150.7978000000001
 31
0.0
1001
ACDBBLOCKREPETAG
1070
     1
1071
      270
1005
1BCBC
  0
LINE
  5
1BCBD
  8
0
 10
691.33719999999596
 20
1150.7978000000001
 30
0.0
 11
1158.7987999999959
 21
1356.791800000002
 31
0.0
1001
ACDBBLOCKREPETAG
1070
     1
1071
      271
1005
1BCBD
  0
POLYLINE
  5
1BCBE
  8
0
 66
     1
 10
0.0
 20
0.0
 30
0.0
1001
ACDBBLOCKREPETAG
1070
     1
1071
      272
1005
1BCBE
  0
VERTEX
  5
81A74
  8
0
 10
-9.855199999997966
 20
2499.182200000007
 30
0.0
  0
VERTEX
  5
81A75
  8
0
 10
340.74099999999919
 20
2405.5323999999978
 30
0.0
  0
VERTEX
  5
81A76
  8
0
 10
662.12719999999376
 20
2686.4563999999959
 30
0.0
  0
SEQEND
  5
81A77
  8
0
  0
LINE
  5
1BCBF
  8
0
 10
-60.985399999995927
 20
4876.7999999999938
 30
0.0
 11
0.0
 21
0.0
 31
0.0
1001
ACDBBLOCKREPETAG
1070
     1
1071
      273
1005
1BCBF
  0
LINE
  5
1BCC0
  8
0
 10
-170.5355999999984
 20
4053.560600000003
 30
0.0
 11
-68.275200000002599
 21
4034.8408000000009
 31
0.0
1001
ACDBBLOCKREPETAG
1070
     1
1071
      274
1005
1BCC0
  0
LINE
  5
1BCC1
  8
0
 10
-82.880199999997956
 20
4109.7454000000034
 30
0.0
 11
-243.58600000000371
 21
4165.9302000000034
 31
0.0
1001
ACDBBLOCKREPETAG
1070
     1
1071
      275
1005
1BCC1
  0
LINE
  5
1BCC2
  8
0
 10
-126.69519999999559
 20
4671.5679999999957
 30
0.0
 11
-68.275200000002599
 21
4596.663399999994
 31
0.0
1001
ACDBBLOCKREPETAG
1070
     1
1071
      276
1005
1BCC2
  0
POLYLINE
  5
1BCC3
  8
0
 66
     1
 10
0.0
 20
0.0
 30
0.0
1001
ACDBBLOCKREPETAG
1070
     1
1071
      277
1005
1BCC3
  0
VERTEX
  5
81A78
  8
0
 10
-375.05640000000182
 20
3491.7379999999998
 30
0.0
  0
VERTEX
  5
81A79
  8
0
 10
-68.275200000002599
 20
3285.743999999997
 30
0.0
  0
SEQEND
  5
81A7A
  8
0
  0
LINE
  5
1BCC4
  8
0
 10
-623.36680000000922
 20
1450.441600000001
 30
0.0
 11
-126.69519999999559
 21
1338.072000000001
 31
0.0
1001
ACDBBLOCKREPETAG
1070
     1
1071
      278
1005
1BCC4
  0
LINE
  5
1BCC5
  8
0
 10
-1076.2234000000019
 20
1712.6204000000041
 30
0.0
 11
-623.36680000000922
 21
1469.1614000000029
 31
0.0
1001
ACDBBLOCKREPETAG
1070
     1
1071
      279
1005
1BCC5
  0
LINE
  5
1BCC6
  8
0
 10
-506.52680000001158
 20
1132.052600000005
 30
0.0
 11
-112.09020000000019
 21
1225.7024000000019
 31
0.0
1001
ACDBBLOCKREPETAG
1070
     1
1071
      280
1005
1BCC6
  0
LINE
  5
1BCC7
  8
0
 10
-1105.4333999999931
 20
1300.606999999992
 30
0.0
 11
-506.52680000001158
 21
1132.052600000005
 31
0.0
1001
ACDBBLOCKREPETAG
1070
     1
1071
      281
1005
1BCC7
  0
POLYLINE
  5
1BCC8
  8
0
 66
     1
 10
0.0
 20
0.0
 30
0.0
1001
ACDBBLOCKREPETAG
1070
     1
1071
      282
1005
1BCC8
  0
VERTEX
  5
81A7B
  8
0
 10
-886.33299999999952
 20
2405.5323999999978
 30
0.0
  0
VERTEX
  5
81A7C
  8
0
 10
-491.89639999999957
 20
2311.907999999994
 30
0.0
  0
VERTEX
  5
81A7D
  8
0
 10
-97.485200000004895
 20
2555.3669999999952
 30
0.0
  0
SEQEND
  5
81A7E
  8
0
  0
LINE
  5
1BCC9
  8
0
 10
-60.985399999995927
 20
4876.7999999999938
 30
0.0
 11
-121.92000000000461
 21
0.0
 31
0.0
1001
ACDBBLOCKREPETAG
1070
     1
1071
      283
1005
1BCC9
  0
POLYLINE
  5
1BCCA
  8
0
 66
     1
 10
0.0
 20
0.0
 30
0.0
1001
ACDBBLOCKREPETAG
1070
     1
1071
      284
1005
1BCCA
  0
VERTEX
  5
81A7F
  8
0
 10
223.87559999999621
 20
3903.751400000001
 30
0.0
  0
VERTEX
  5
81A80
  8
0
 10
92.405199999997933
 20
3753.9168000000041
 30
0.0
  0
VERTEX
  5
81A81
  8
0
 10
-170.5355999999984
 20
3697.7319999999918
 30
0.0
  0
VERTEX
  5
81A82
  8
0
 10
-287.40100000000137
 20
3847.566600000001
 30
0.0
  0
SEQEND
  5
81A83
  8
0
  0
POLYLINE
  5
1BCCB
  8
0
 66
     1
 10
0.0
 20
0.0
 30
0.0
1001
ACDBBLOCKREPETAG
1070
     1
1071
      285
1005
1BCCB
  0
VERTEX
  5
81A84
  8
0
 10
-331.2159999999991
 20
3660.2923999999998
 30
0.0
  0
VERTEX
  5
81A85
  8
0
 10
-68.275200000002599
 20
3547.9228000000021
 30
0.0
  0
VERTEX
  5
81A86
  8
0
 10
180.06059999999849
 20
3697.7319999999918
 30
0.0
  0
SEQEND
  5
81A87
  8
0
  0
POLYLINE
  5
1BCCC
  8
0
 66
     1
 10
0.0
 20
0.0
 30
0.0
1001
ACDBBLOCKREPETAG
1070
     1
1071
      286
1005
1BCCC
  0
VERTEX
  5
81A88
  8
0
 10
-404.2663999999927
 20
3285.743999999997
 30
0.0
  0
VERTEX
  5
81A89
  8
0
 10
33.985199999993362
 20
3248.2790000000018
 30
0.0
  0
VERTEX
  5
81A8A
  8
0
 10
326.13599999999212
 20
3510.4578000000029
 30
0.0
  0
SEQEND
  5
81A8B
  8
0
  0
POLYLINE
  5
1BCCD
  8
0
 66
     1
 10
0.0
 20
0.0
 30
0.0
1001
ACDBBLOCKREPETAG
1070
     1
1071
      287
1005
1BCCD
  0
VERTEX
  5
81A8C
  8
0
 10
-535.7368000000024
 20
3248.2790000000018
 30
0.0
  0
VERTEX
  5
81A8D
  8
0
 10
-331.2159999999991
 20
3079.7246
 30
0.0
  0
VERTEX
  5
81A8E
  8
0
 10
150.85059999999609
 20
3210.8140000000021
 30
0.0
  0
VERTEX
  5
81A8F
  8
0
 10
384.58140000000191
 20
3398.0882000000029
 30
0.0
  0
SEQEND
  5
81A90
  8
0
  0
POLYLINE
  5
1BCCE
  8
0
 66
     1
 10
0.0
 20
0.0
 30
0.0
1001
ACDBBLOCKREPETAG
1070
     1
1071
      288
1005
1BCCE
  0
VERTEX
  5
81A91
  8
0
 10
-214.35059999999621
 20
3173.3743999999979
 30
0.0
  0
VERTEX
  5
81A92
  8
0
 10
48.590199999988727
 20
3042.2849999999962
 30
0.0
  0
VERTEX
  5
81A93
  8
0
 10
399.18640000000892
 20
3023.5398000000018
 30
0.0
  0
SEQEND
  5
81A94
  8
0
  0
POLYLINE
  5
1BCCF
  8
0
 66
     1
 10
0.0
 20
0.0
 30
0.0
1001
ACDBBLOCKREPETAG
1070
     1
1071
      289
1005
1BCCF
  0
VERTEX
  5
81A95
  8
0
 10
-667.20720000000074
 20
2948.6351999999988
 30
0.0
  0
VERTEX
  5
81A96
  8
0
 10
-331.2159999999991
 20
2892.4503999999988
 30
0.0
  0
VERTEX
  5
81A97
  8
0
 10
-126.69519999999559
 20
2911.1702000000018
 30
0.0
  0
VERTEX
  5
81A98
  8
0
 10
472.21140000000878
 20
3117.1895999999979
 30
0.0
  0
SEQEND
  5
81A99
  8
0
  0
POLYLINE
  5
1BCD0
  8
0
 66
     1
 10
0.0
 20
0.0
 30
0.0
1001
ACDBBLOCKREPETAG
1070
     1
1071
      290
1005
1BCD0
  0
VERTEX
  5
81A9A
  8
0
 10
-550.34180000000936
 20
2798.8259999999959
 30
0.0
  0
VERTEX
  5
81A9B
  8
0
 10
-126.69519999999559
 20
2648.9913999999981
 30
0.0
  0
VERTEX
  5
81A9C
  8
0
 10
399.18640000000892
 20
2892.4503999999988
 30
0.0
  0
SEQEND
  5
81A9D
  8
0
  0
POLYLINE
  5
1BCD1
  8
0
 66
     1
 10
0.0
 20
0.0
 30
0.0
1001
ACDBBLOCKREPETAG
1070
     1
1071
      291
1005
1BCD1
  0
VERTEX
  5
81A9E
  8
0
 10
-798.67759999999896
 20
2667.7112000000002
 30
0.0
  0
VERTEX
  5
81A9F
  8
0
 10
-491.89639999999957
 20
2424.2521999999999
 30
0.0
  0
VERTEX
  5
81AA0
  8
0
 10
33.985199999993362
 20
2349.3476000000092
 30
0.0
  0
SEQEND
  5
81AA1
  8
0
  0
POLYLINE
  5
1BCD2
  8
0
 66
     1
 10
0.0
 20
0.0
 30
0.0
1001
ACDBBLOCKREPETAG
1070
     1
1071
      292
1005
1BCD2
  0
VERTEX
  5
81AA2
  8
0
 10
-1003.198400000002
 20
2030.9839999999949
 30
0.0
  0
VERTEX
  5
81AA3
  8
0
 10
-258.19099999999912
 20
1750.0854000000011
 30
0.0
  0
VERTEX
  5
81AA4
  8
0
 10
165.4556000000031
 20
1750.0854000000011
 30
0.0
  0
VERTEX
  5
81AA5
  8
0
 10
837.41260000000125
 20
2199.538399999994
 30
0.0
  0
SEQEND
  5
81AA6
  8
0
  0
POLYLINE
  5
1BCD3
  8
0
 66
     1
 10
0.0
 20
0.0
 30
0.0
1001
ACDBBLOCKREPETAG
1070
     1
1071
      293
1005
1BCD3
  0
VERTEX
  5
81AA7
  8
0
 10
-988.56800000000158
 20
2218.2582000000079
 30
0.0
  0
VERTEX
  5
81AA8
  8
0
 10
-784.07259999999212
 20
2012.2642000000051
 30
0.0
  0
VERTEX
  5
81AA9
  8
0
 10
-302.00600000000838
 20
1899.8946000000051
 30
0.0
  0
VERTEX
  5
81AAA
  8
0
 10
662.12719999999376
 20
2311.907999999994
 30
0.0
  0
SEQEND
  5
81AAB
  8
0
  0
POLYLINE
  5
1BCD4
  8
0
 66
     1
 10
0.0
 20
0.0
 30
0.0
1001
ACDBBLOCKREPETAG
1070
     1
1071
      294
1005
1BCD4
  0
VERTEX
  5
81AAC
  8
0
 10
-959.35799999999972
 20
2274.4429999999961
 30
0.0
  0
VERTEX
  5
81AAD
  8
0
 10
-725.62720000000513
 20
2124.6338000000042
 30
0.0
  0
VERTEX
  5
81AAE
  8
0
 10
-316.61100000000368
 20
2105.888600000008
 30
0.0
  0
VERTEX
  5
81AAF
  8
0
 10
355.34599999999438
 20
2255.7232000000049
 30
0.0
  0
SEQEND
  5
81AB0
  8
0
  0
LINE
  5
1BCD5
  8
0
 10
-24.4602000000049
 20
3922.4712000000031
 30
0.0
 11
-331.2159999999991
 21
3997.3758000000048
 31
0.0
1001
ACDBBLOCKREPETAG
1070
     1
1071
      295
1005
1BCD5
  0
LINE
  5
1BCD6
  8
0
 10
-170.5355999999984
 20
4222.1150000000043
 30
0.0
 11
19.380199999997959
 21
4184.6499999999933
 31
0.0
1001
ACDBBLOCKREPETAG
1070
     1
1071
      296
1005
1BCD6
  0
LINE
  5
1BCD7
  8
0
 10
-126.69519999999559
 20
4315.7393999999958
 30
0.0
 11
19.380199999997959
 21
4259.5546000000068
 31
0.0
1001
ACDBBLOCKREPETAG
1070
     1
1071
      297
1005
1BCD7
  0
LINE
  5
1BCD8
  8
0
 10
-82.880199999997956
 20
4409.3892000000042
 30
0.0
 11
33.985199999993362
 21
4503.0136000000084
 31
0.0
1001
ACDBBLOCKREPETAG
1070
     1
1071
      298
1005
1BCD8
  0
LINE
  5
1BCD9
  8
0
 10
-170.5355999999984
 20
4521.7588000000042
 30
0.0
 11
4.7751999999910364
 21
4409.3892000000042
 31
0.0
1001
ACDBBLOCKREPETAG
1070
     1
1071
      299
1005
1BCD9
  0
LINE
  5
1BCDA
  8
0
 10
-82.880199999997956
 20
4746.4726000000092
 30
0.0
 11
4.7751999999910364
 21
4746.4726000000092
 31
0.0
1001
ACDBBLOCKREPETAG
1070
     1
1071
      300
1005
1BCDA
  0
POLYLINE
  5
1BCDB
  8
0
 66
     1
 10
0.0
 20
0.0
 30
0.0
1001
ACDBBLOCKREPETAG
1070
     1
1071
      301
1005
1BCDB
  0
VERTEX
  5
81AB1
  8
0
 10
-1061.6183999999951
 20
1974.799200000007
 30
0.0
  0
VERTEX
  5
81AB2
  8
0
 10
-711.02219999999829
 20
1731.340200000006
 30
0.0
  0
VERTEX
  5
81AB3
  8
0
 10
121.6151999999887
 20
1600.2508000000039
 30
0.0
  0
VERTEX
  5
81AB4
  8
0
 10
369.95100000000139
 20
1506.626400000001
 30
0.0
  0
VERTEX
  5
81AB5
  8
0
 10
1027.328400000009
 20
1731.340200000006
 30
0.0
  0
SEQEND
  5
81AB6
  8
0
  0
POLYLINE
  5
1BCDC
  8
0
 66
     1
 10
0.0
 20
0.0
 30
0.0
1001
ACDBBLOCKREPETAG
1070
     1
1071
      302
1005
1BCDC
  0
VERTEX
  5
81AB7
  8
0
 10
-1251.5088000000101
 20
1431.696399999993
 30
0.0
  0
VERTEX
  5
81AB8
  8
0
 10
-491.89639999999957
 20
1356.791800000002
 30
0.0
  0
VERTEX
  5
81AB9
  8
0
 10
238.48060000000311
 20
1469.1614000000029
 30
0.0
  0
VERTEX
  5
81ABA
  8
0
 10
925.06799999998975
 20
1956.0794000000051
 30
0.0
  0
SEQEND
  5
81ABB
  8
0
  0
POLYLINE
  5
1BCDD
  8
0
 66
     1
 10
0.0
 20
0.0
 30
0.0
1001
ACDBBLOCKREPETAG
1070
     1
1071
      303
1005
1BCDD
  0
VERTEX
  5
81ABC
  8
0
 10
-1368.3742000000011
 20
738.78440000000035
 30
0.0
  0
VERTEX
  5
81ABD
  8
0
 10
-491.89639999999957
 20
926.05860000000155
 30
0.0
  0
VERTEX
  5
81ABE
  8
0
 10
-53.670199999995653
 20
944.77840000000344
 30
0.0
  0
VERTEX
  5
81ABF
  8
0
 10
457.60640000000183
 20
869.87380000000155
 30
0.0
  0
VERTEX
  5
81AC0
  8
0
 10
1173.403800000003
 20
1057.1480000000031
 30
0.0
  0
SEQEND
  5
81AC1
  8
0
  0
POLYLINE
  5
1BCDE
  8
0
 66
     1
 10
0.0
 20
0.0
 30
0.0
1001
ACDBBLOCKREPETAG
1070
     1
1071
      304
1005
1BCDE
  0
VERTEX
  5
81AC2
  8
0
 10
-1426.8195999999989
 20
926.05860000000155
 30
0.0
  0
VERTEX
  5
81AC3
  8
0
 10
-594.15680000000725
 20
626.41480000000081
 30
0.0
  0
VERTEX
  5
81AC4
  8
0
 10
399.18640000000892
 20
738.78440000000035
 30
0.0
  0
VERTEX
  5
81AC5
  8
0
 10
1231.823799999996
 20
1206.9826
 30
0.0
  0
SEQEND
  5
81AC6
  8
0
  0
LINE
  5
1BCDF
  8
0
 10
457.58099999999672
 20
4499.1020000000026
 30
0.0
 11
663.77819999999485
 21
4549.4702000000007
 31
0.0
1001
ACDBBLOCKREPETAG
1070
     1
1071
      305
1005
1BCDF
  0
LINE
  5
1BCE0
  8
0
 10
300.45660000000453
 20
4517.9996000000001
 30
0.0
 11
457.58099999999672
 21
4549.4702000000007
 31
0.0
1001
ACDBBLOCKREPETAG
1070
     1
1071
      306
1005
1BCE0
  0
LINE
  5
1BCE1
  8
0
 10
187.5536000000003
 20
4530.5726000000031
 30
0.0
 11
266.09040000000277
 21
4555.7440000000033
 31
0.0
1001
ACDBBLOCKREPETAG
1070
     1
1071
      307
1005
1BCE1
  0
LINE
  5
1BCE2
  8
0
 10
904.36700000000042
 20
4713.1224000000038
 30
0.0
 11
943.63540000000717
 21
4706.8231999999998
 31
0.0
1001
ACDBBLOCKREPETAG
1070
     1
1071
      308
1005
1BCE2
  0
LINE
  5
1BCE3
  8
0
 10
825.80480000000443
 20
4731.9945999999991
 30
0.0
 11
894.53719999999612
 21
4731.9945999999991
 31
0.0
1001
ACDBBLOCKREPETAG
1070
     1
1071
      309
1005
1BCE3
  0
LINE
  5
1BCE4
  8
0
 10
761.97460000000638
 20
4744.5930000000008
 30
0.0
 11
840.53680000000224
 21
4757.1660000000047
 31
0.0
1001
ACDBBLOCKREPETAG
1070
     1
1071
      310
1005
1BCE4
  0
LINE
  5
1BCE5
  8
0
 10
629.41199999999333
 20
4763.4651999999969
 30
0.0
 11
801.26840000000675
 21
4794.9357999999929
 31
0.0
1001
ACDBBLOCKREPETAG
1070
     1
1071
      311
1005
1BCE5
  0
LINE
  5
1BCE6
  8
0
 10
491.94719999999819
 20
4757.1660000000047
 30
0.0
 11
663.77819999999485
 21
4820.1072000000004
 31
0.0
1001
ACDBBLOCKREPETAG
1070
     1
1071
      312
1005
1BCE6
  0
LINE
  5
1BCE7
  8
0
 10
398.65299999999257
 20
4731.9945999999991
 30
0.0
 11
491.94719999999819
 21
4794.9357999999929
 31
0.0
1001
ACDBBLOCKREPETAG
1070
     1
1071
      313
1005
1BCE7
  0
LINE
  5
1BCE8
  8
0
 10
241.55399999999401
 20
4681.6517999999996
 30
0.0
 11
393.75079999999878
 21
4776.0636000000031
 31
0.0
1001
ACDBBLOCKREPETAG
1070
     1
1071
      314
1005
1BCE8
  0
LINE
  5
1BCE9
  8
0
 10
968.19719999999836
 20
4681.6517999999996
 30
0.0
 11
978.00160000000915
 21
4618.6851999999981
 31
0.0
1001
ACDBBLOCKREPETAG
1070
     1
1071
      315
1005
1BCE9
  0
LINE
  5
1BCEA
  8
0
 10
850.36660000000677
 20
4725.6954000000042
 30
0.0
 11
874.9029999999924
 21
4643.8820000000042
 31
0.0
1001
ACDBBLOCKREPETAG
1070
     1
1071
      316
1005
1BCEA
  0
LINE
  5
1BCEB
  8
0
 10
909.26919999999393
 20
4706.8231999999998
 30
0.0
 11
938.73319999999023
 21
4612.4114000000009
 31
0.0
1001
ACDBBLOCKREPETAG
1070
     1
1071
      317
1005
1BCEB
  0
LINE
  5
1BCEC
  8
0
 10
712.87640000000658
 20
4757.1660000000047
 30
0.0
 11
786.53640000000871
 21
4637.5827999999956
 31
0.0
1001
ACDBBLOCKREPETAG
1070
     1
1071
      318
1005
1BCEC
  0
LINE
  5
1BCED
  8
0
 10
757.07240000000104
 20
4744.5930000000008
 30
0.0
 11
820.90259999999898
 21
4650.1811999999991
 31
0.0
1001
ACDBBLOCKREPETAG
1070
     1
1071
      319
1005
1BCED
  0
LINE
  5
1BCEE
  8
0
 10
663.77819999999485
 20
4757.1660000000047
 30
0.0
 11
747.24260000000811
 21
4618.6851999999981
 31
0.0
1001
ACDBBLOCKREPETAG
1070
     1
1071
      320
1005
1BCEE
  0
LINE
  5
1BCEF
  8
0
 10
604.87560000000781
 20
4757.1660000000047
 30
0.0
 11
683.43780000000379
 21
4606.1121999999996
 31
0.0
1001
ACDBBLOCKREPETAG
1070
     1
1071
      321
1005
1BCEF
  0
LINE
  5
1BCF0
  8
0
 10
526.3134000000116
 20
4750.866799999998
 30
0.0
 11
639.24179999999774
 21
4606.1121999999996
 31
0.0
1001
ACDBBLOCKREPETAG
1070
     1
1071
      322
1005
1BCF0
  0
LINE
  5
1BCF1
  8
0
 10
369.21440000000138
 20
4719.3961999999938
 30
0.0
 11
506.67919999999629
 21
4593.5137999999988
 31
0.0
1001
ACDBBLOCKREPETAG
1070
     1
1071
      323
1005
1BCF1
  0
LINE
  5
1BCF2
  8
0
 10
285.75
 20
4694.2247999999972
 30
0.0
 11
447.75119999999231
 21
4580.9407999999958
 31
0.0
1001
ACDBBLOCKREPETAG
1070
     1
1071
      324
1005
1BCF2
  0
LINE
  5
1BCF3
  8
0
 10
197.35799999999941
 20
4656.4550000000008
 30
0.0
 11
408.4827999999967
 21
4568.342400000005
 31
0.0
1001
ACDBBLOCKREPETAG
1070
     1
1071
      325
1005
1BCF3
  0
LINE
  5
1BCF4
  8
0
 10
143.3576000000059
 20
4618.6851999999981
 30
0.0
 11
344.65259999999893
 21
4543.1710000000003
 31
0.0
1001
ACDBBLOCKREPETAG
1070
     1
1071
      326
1005
1BCF4
  0
LINE
  5
1BCF5
  8
0
 10
1012.367799999999
 20
4643.8820000000042
 30
0.0
 11
1022.197600000003
 21
4612.4114000000009
 31
0.0
1001
ACDBBLOCKREPETAG
1070
     1
1071
      327
1005
1BCF5
  0
LINE
  5
1BCF6
  8
0
 10
437.94680000000483
 20
4738.2938000000004
 30
0.0
 11
585.24140000000432
 21
4587.2145999999984
 31
0.0
1001
ACDBBLOCKREPETAG
1070
     1
1071
      328
1005
1BCF6
  0
LINE
  5
1BCF7
  8
0
 10
541.04540000000964
 20
4990.0586000000012
 30
0.0
 11
580.31380000000524
 21
5040.4014000000061
 31
0.0
1001
ACDBBLOCKREPETAG
1070
     1
1071
      329
1005
1BCF7
  0
LINE
  5
1BCF8
  8
0
 10
457.58099999999672
 20
4971.1864000000041
 30
0.0
 11
531.21560000000522
 21
5046.7006000000019
 31
0.0
1001
ACDBBLOCKREPETAG
1070
     1
1071
      330
1005
1BCF8
  0
LINE
  5
1BCF9
  8
0
 10
354.48240000000328
 20
4933.4166000000014
 30
0.0
 11
374.11660000000683
 21
5002.6570000000047
 31
0.0
1001
ACDBBLOCKREPETAG
1070
     1
1071
      331
1005
1BCF9
  0
LINE
  5
1BCFA
  8
0
 10
383.94640000001118
 20
4939.7157999999954
 30
0.0
 11
452.67880000000292
 21
5046.7006000000019
 31
0.0
1001
ACDBBLOCKREPETAG
1070
     1
1071
      332
1005
1BCFA
  0
LINE
  5
1BCFB
  8
0
 10
300.45660000000453
 20
4901.9459999999999
 30
0.0
 11
334.82280000000628
 21
5015.2299999999977
 31
0.0
1001
ACDBBLOCKREPETAG
1070
     1
1071
      333
1005
1BCFB
  0
LINE
  5
1BCFC
  8
0
 10
236.65180000000021
 20
4857.8770000000013
 30
0.0
 11
261.18819999999749
 21
5002.6570000000047
 31
0.0
1001
ACDBBLOCKREPETAG
1070
     1
1071
      334
1005
1BCFC
  0
LINE
  5
1BCFD
  8
0
 10
148.2597999999997
 20
4769.7644000000009
 30
0.0
 11
192.45580000000569
 21
4933.4166000000014
 31
0.0
1001
ACDBBLOCKREPETAG
1070
     1
1071
      335
1005
1BCFD
  0
LINE
  5
1BCFE
  8
0
 10
590.14359999999795
 20
4996.357799999997
 30
0.0
 11
599.94799999999725
 21
5021.5292000000018
 31
0.0
1001
ACDBBLOCKREPETAG
1070
     1
1071
      336
1005
1BCFE
  0
LINE
  5
1BCFF
  8
0
 10
560.67960000000164
 20
4996.357799999997
 30
0.0
 11
595.04580000000328
 21
4971.1864000000041
 31
0.0
1001
ACDBBLOCKREPETAG
1070
     1
1071
      337
1005
1BCFF
  0
LINE
  5
1BD00
  8
0
 10
531.21560000000522
 20
4990.0586000000012
 30
0.0
 11
541.04540000000964
 21
4952.2887999999984
 31
0.0
1001
ACDBBLOCKREPETAG
1070
     1
1071
      338
1005
1BD00
  0
LINE
  5
1BD01
  8
0
 10
491.94719999999819
 20
4990.0586000000012
 30
0.0
 11
506.67919999999629
 21
4920.8181999999988
 31
0.0
1001
ACDBBLOCKREPETAG
1070
     1
1071
      339
1005
1BD01
  0
LINE
  5
1BD02
  8
0
 10
457.58099999999672
 20
4964.8872000000019
 30
0.0
 11
482.1174000000056
 21
4889.3476000000046
 31
0.0
1001
ACDBBLOCKREPETAG
1070
     1
1071
      340
1005
1BD02
  0
LINE
  5
1BD03
  8
0
 10
408.4827999999967
 20
4952.2887999999984
 30
0.0
 11
452.67880000000292
 21
4889.3476000000046
 31
0.0
1001
ACDBBLOCKREPETAG
1070
     1
1071
      341
1005
1BD03
  0
LINE
  5
1BD04
  8
0
 10
285.75
 20
4889.3476000000046
 30
0.0
 11
403.58060000000307
 21
4839.004799999997
 31
0.0
1001
ACDBBLOCKREPETAG
1070
     1
1071
      342
1005
1BD04
  0
LINE
  5
1BD05
  8
0
 10
177.723799999996
 20
4788.6365999999998
 30
0.0
 11
310.28640000000883
 21
4769.7644000000009
 31
0.0
1001
ACDBBLOCKREPETAG
1070
     1
1071
      343
1005
1BD05
  0
LINE
  5
1BD06
  8
0
 10
369.21440000000138
 20
4927.1174000000092
 30
0.0
 11
437.94680000000483
 21
4857.8770000000013
 31
0.0
1001
ACDBBLOCKREPETAG
1070
     1
1071
      344
1005
1BD06
  0
LINE
  5
1BD07
  8
0
 10
217.0176000000082
 20
4839.004799999997
 30
0.0
 11
349.58019999999789
 21
4813.8080000000064
 31
0.0
1001
ACDBBLOCKREPETAG
1070
     1
1071
      345
1005
1BD07
  0
LINE
  5
1BD08
  8
0
 10
865.0731999999997
 20
4285.107
 30
0.0
 11
874.9029999999924
 21
4027.043000000001
 31
0.0
1001
ACDBBLOCKREPETAG
1070
     1
1071
      346
1005
1BD08
  0
LINE
  5
1BD09
  8
0
 10
742.34040000000277
 20
4366.9204000000036
 30
0.0
 11
786.53640000000871
 21
4027.043000000001
 31
0.0
1001
ACDBBLOCKREPETAG
1070
     1
1071
      347
1005
1BD09
  0
LINE
  5
1BD0A
  8
0
 10
816.00040000000524
 20
4310.2784000000029
 30
0.0
 11
825.80480000000443
 21
4027.043000000001
 31
0.0
1001
ACDBBLOCKREPETAG
1070
     1
1071
      348
1005
1BD0A
  0
LINE
  5
1BD0B
  8
0
 10
1012.367799999999
 20
4134.0277999999953
 30
0.0
 11
1012.367799999999
 21
4064.7874000000038
 31
0.0
1001
ACDBBLOCKREPETAG
1070
     1
1071
      349
1005
1BD0B
  0
LINE
  5
1BD0C
  8
0
 10
958.36740000000566
 20
4196.969000000001
 30
0.0
 11
938.73319999999023
 21
4045.9151999999999
 31
0.0
1001
ACDBBLOCKREPETAG
1070
     1
1071
      350
1005
1BD0C
  0
LINE
  5
1BD0D
  8
0
 10
978.00160000000915
 20
4178.0967999999984
 30
0.0
 11
978.00160000000915
 21
4052.2144000000012
 31
0.0
1001
ACDBBLOCKREPETAG
1070
     1
1071
      351
1005
1BD0D
  0
LINE
  5
1BD0E
  8
0
 10
924.00119999999231
 20
4228.439599999997
 30
0.0
 11
904.36700000000042
 21
4033.3167999999969
 31
0.0
1001
ACDBBLOCKREPETAG
1070
     1
1071
      352
1005
1BD0E
  0
LINE
  5
1BD0F
  8
0
 10
1036.929600000002
 20
4108.8564000000006
 30
0.0
 11
1046.7340000000011
 21
4064.7874000000038
 31
0.0
1001
ACDBBLOCKREPETAG
1070
     1
1071
      353
1005
1BD0F
  0
LINE
  5
1BD10
  8
0
 10
1046.7340000000011
 20
4102.5572000000002
 30
0.0
 11
1086.027800000001
 21
4071.0866000000001
 31
0.0
1001
ACDBBLOCKREPETAG
1070
     1
1071
      354
1005
1BD10
  0
LINE
  5
1BD11
  8
0
 10
1007.465600000005
 20
4146.6261999999979
 30
0.0
 11
1076.1979999999969
 21
4108.8564000000006
 31
0.0
1001
ACDBBLOCKREPETAG
1070
     1
1071
      355
1005
1BD11
  0
LINE
  5
1BD12
  8
0
 10
963.26959999999929
 20
4196.969000000001
 30
0.0
 11
1051.6615999999999
 21
4159.2245999999986
 31
0.0
1001
ACDBBLOCKREPETAG
1070
     1
1071
      356
1005
1BD12
  0
LINE
  5
1BD13
  8
0
 10
899.46479999999531
 20
4259.9101999999993
 30
0.0
 11
1051.6615999999999
 21
4190.695200000001
 31
0.0
1001
ACDBBLOCKREPETAG
1070
     1
1071
      357
1005
1BD13
  0
LINE
  5
1BD14
  8
0
 10
786.53640000000871
 20
4335.4497999999976
 30
0.0
 11
987.83140000000151
 21
4259.9101999999993
 31
0.0
1001
ACDBBLOCKREPETAG
1070
     1
1071
      358
1005
1BD14
  0
LINE
  5
1BD15
  8
0
 10
732.51059999999825
 20
4373.2195999999967
 30
0.0
 11
924.00119999999231
 21
4335.4497999999976
 31
0.0
1001
ACDBBLOCKREPETAG
1070
     1
1071
      359
1005
1BD15
  0
LINE
  5
1BD16
  8
0
 10
649.07160000000215
 20
4410.9894000000004
 30
0.0
 11
845.43899999999621
 21
4410.9894000000004
 31
0.0
1001
ACDBBLOCKREPETAG
1070
     1
1071
      360
1005
1BD16
  0
LINE
  5
1BD17
  8
0
 10
531.21560000000522
 20
4467.6314000000011
 30
0.0
 11
786.53640000000871
 21
4486.5289999999986
 31
0.0
1001
ACDBBLOCKREPETAG
1070
     1
1071
      361
1005
1BD17
  0
LINE
  5
1BD18
  8
0
 10
673.60799999999938
 20
4398.3910000000042
 30
0.0
 11
712.87640000000658
 21
4058.513600000003
 31
0.0
1001
ACDBBLOCKREPETAG
1070
     1
1071
      362
1005
1BD18
  0
LINE
  5
1BD19
  8
0
 10
604.87560000000781
 20
4429.8615999999975
 30
0.0
 11
649.07160000000215
 21
4071.0866000000001
 31
0.0
1001
ACDBBLOCKREPETAG
1070
     1
1071
      363
1005
1BD19
  0
LINE
  5
1BD1A
  8
0
 10
550.87519999999085
 20
4455.0584000000044
 30
0.0
 11
560.67960000000164
 21
4102.5572000000002
 31
0.0
1001
ACDBBLOCKREPETAG
1070
     1
1071
      364
1005
1BD1A
  0
LINE
  5
1BD1B
  8
0
 10
482.1174000000056
 20
4467.6314000000011
 30
0.0
 11
496.84940000000358
 21
4140.3270000000011
 31
0.0
1001
ACDBBLOCKREPETAG
1070
     1
1071
      365
1005
1BD1B
  0
LINE
  5
1BD1C
  8
0
 10
403.58060000000307
 20
4499.1020000000026
 30
0.0
 11
428.1170000000003
 21
4178.0967999999984
 31
0.0
1001
ACDBBLOCKREPETAG
1070
     1
1071
      366
1005
1BD1C
  0
LINE
  5
1BD1D
  8
0
 10
334.82280000000628
 20
4517.9996000000001
 30
0.0
 11
374.11660000000683
 21
4241.0379999999968
 31
0.0
1001
ACDBBLOCKREPETAG
1070
     1
1071
      367
1005
1BD1D
  0
LINE
  5
1BD1E
  8
0
 10
266.09040000000277
 20
4517.9996000000001
 30
0.0
 11
325.01840000000709
 21
4310.2784000000029
 31
0.0
1001
ACDBBLOCKREPETAG
1070
     1
1071
      368
1005
1BD1E
  0
LINE
  5
1BD1F
  8
0
 10
207.1878000000039
 20
4524.2734000000009
 30
0.0
 11
266.09040000000277
 21
4379.5188000000016
 31
0.0
1001
ACDBBLOCKREPETAG
1070
     1
1071
      369
1005
1BD1F
  0
LINE
  5
1BD20
  8
0
 10
158.089600000004
 20
4524.2734000000009
 30
0.0
 11
207.1878000000039
 21
4448.7591999999959
 31
0.0
1001
ACDBBLOCKREPETAG
1070
     1
1071
      370
1005
1BD20
  0
LINE
  5
1BD21
  8
0
 10
290.6521999999938
 20
4001.8461999999972
 30
0.0
 11
428.1170000000003
 21
3920.0327999999972
 31
0.0
1001
ACDBBLOCKREPETAG
1070
     1
1071
      371
1005
1BD21
  0
LINE
  5
1BD22
  8
0
 10
256.2859999999921
 20
4127.7539999999999
 30
0.0
 11
442.8489999999984
 21
3989.2731999999992
 31
0.0
1001
ACDBBLOCKREPETAG
1070
     1
1071
      372
1005
1BD22
  0
LINE
  5
1BD23
  8
0
 10
217.0176000000082
 20
4215.8666000000003
 30
0.0
 11
423.2147999999948
 21
4077.385799999995
 31
0.0
1001
ACDBBLOCKREPETAG
1070
     1
1071
      373
1005
1BD23
  0
LINE
  5
1BD24
  8
0
 10
162.9917999999978
 20
4329.1506000000008
 30
0.0
 11
374.11660000000683
 21
4178.0967999999984
 31
0.0
1001
ACDBBLOCKREPETAG
1070
     1
1071
      374
1005
1BD24
  0
LINE
  5
1BD25
  8
0
 10
315.18860000000268
 20
3731.209199999998
 30
0.0
 11
349.58019999999789
 21
3718.6107999999949
 31
0.0
1001
ACDBBLOCKREPETAG
1070
     1
1071
      375
1005
1BD25
  0
LINE
  5
1BD26
  8
0
 10
320.1161999999901
 20
3806.7487999999962
 30
0.0
 11
383.94640000001118
 21
3787.8511999999992
 31
0.0
1001
ACDBBLOCKREPETAG
1070
     1
1071
      376
1005
1BD26
  0
LINE
  5
1BD27
  8
0
 10
315.18860000000268
 20
3699.7386000000029
 30
0.0
 11
280.82240000000093
 21
3699.7386000000029
 31
0.0
1001
ACDBBLOCKREPETAG
1070
     1
1071
      377
1005
1BD27
  0
LINE
  5
1BD28
  8
0
 10
310.28640000000883
 20
3762.679799999999
 30
0.0
 11
256.2859999999921
 21
3743.7822000000001
 31
0.0
1001
ACDBBLOCKREPETAG
1070
     1
1071
      378
1005
1BD28
  0
LINE
  5
1BD29
  8
0
 10
320.1161999999901
 20
3838.2194000000009
 30
0.0
 11
217.0176000000082
 21
3768.9789999999998
 31
0.0
1001
ACDBBLOCKREPETAG
1070
     1
1071
      379
1005
1BD29
  0
LINE
  5
1BD2A
  8
0
 10
300.45660000000453
 20
3938.9050000000011
 30
0.0
 11
172.82160000000209
 21
3813.022600000003
 31
0.0
1001
ACDBBLOCKREPETAG
1070
     1
1071
      380
1005
1BD2A
  0
LINE
  5
1BD2B
  8
0
 10
310.28640000000883
 20
3888.5622000000012
 30
0.0
 11
408.4827999999967
 21
3850.7924000000048
 31
0.0
1001
ACDBBLOCKREPETAG
1070
     1
1071
      381
1005
1BD2B
  0
LINE
  5
1BD2C
  8
0
 10
123.7234000000024
 20
4612.4114000000009
 30
0.0
 11
217.0176000000082
 21
4694.2247999999972
 31
0.0
1001
ACDBBLOCKREPETAG
1070
     1
1071
      382
1005
1BD2C
  0
LINE
  5
1BD2D
  8
0
 10
104.0891999999989
 20
4593.5137999999988
 30
0.0
 11
212.0899999999977
 21
4562.0431999999983
 31
0.0
1001
ACDBBLOCKREPETAG
1070
     1
1071
      383
1005
1BD2D
  0
LINE
  5
1BD2E
  8
0
 10
123.7234000000024
 20
4725.6954000000042
 30
0.0
 11
256.2859999999921
 21
4738.2938000000004
 31
0.0
1001
ACDBBLOCKREPETAG
1070
     1
1071
      384
1005
1BD2E
  0
ARC
  5
1BD2F
  8
0
 10
650.11299999999471
 20
4357.8017999999984
 30
0.0
 40
645.04366800000003
 50
91.403189999999995
 51
163.88200000000001
1001
ACDBBLOCKREPETAG
1070
     1
1071
      385
1005
1BD2F
  0
ARC
  5
1BD30
  8
0
 10
601.64979999999753
 20
3945.6614000000031
 30
0.0
 40
817.57672400000001
 50
56.19271999999998
 51
134.32130000000001
1001
ACDBBLOCKREPETAG
1070
     1
1071
      386
1005
1BD30
  0
LINE
  5
1BD31
  8
0
 10
108.99140000000421
 20
4417.2885999999999
 30
0.0
 11
310.28640000000883
 21
4291.4061999999994
 31
0.0
1001
ACDBBLOCKREPETAG
1070
     1
1071
      387
1005
1BD31
  0
LINE
  5
1BD32
  8
0
 10
275.9201999999957
 20
4058.513600000003
 30
0.0
 11
113.893599999998
 21
3869.6900000000041
 31
0.0
1001
ACDBBLOCKREPETAG
1070
     1
1071
      388
1005
1BD32
  0
LINE
  5
1BD33
  8
0
 10
236.65180000000021
 20
4171.7976000000053
 30
0.0
 11
59.893199999992881
 21
3920.0327999999972
 31
0.0
1001
ACDBBLOCKREPETAG
1070
     1
1071
      389
1005
1BD33
  0
LINE
  5
1BD34
  8
0
 10
187.5536000000003
 20
4285.107
 30
0.0
 11
20.624799999997411
 21
4001.8461999999972
 31
0.0
1001
ACDBBLOCKREPETAG
1070
     1
1071
      390
1005
1BD34
  0
LINE
  5
1BD35
  8
0
 10
74.62519999999104
 20
4467.6314000000011
 30
0.0
 11
221.91980000000191
 21
4404.6902
 31
0.0
1001
ACDBBLOCKREPETAG
1070
     1
1071
      391
1005
1BD35
  0
ARC
  5
1BD36
  8
0
 10
148.0311999999993
 20
3371.037200000002
 30
0.0
 40
1159.227298
 50
35.987770000000012
 51
95.822730000000021
1001
ACDBBLOCKREPETAG
1070
     1
1071
      392
1005
1BD36
  0
ARC
  5
1BD37
  8
0
 10
-833.12000000000455
 20
3757.244200000001
 30
0.0
 40
1150.8562199999999
 50
356.1943
 51
41.378479999999989
1001
ACDBBLOCKREPETAG
1070
     1
1071
      393
1005
1BD37
  0
LINE
  5
1BD38
  8
0
 10
-113.1061999999993
 20
2851.9881999999971
 30
0.0
 11
42.722800000006188
 21
2670.378200000001
 31
0.0
1001
ACDBBLOCKREPETAG
1070
     1
1071
      394
1005
1BD38
  0
LINE
  5
1BD39
  8
0
 10
-108.3818000000071
 20
2906.4711999999972
 30
0.0
 11
42.722800000006188
 21
2761.1832000000022
 31
0.0
1001
ACDBBLOCKREPETAG
1070
     1
1071
      395
1005
1BD39
  0
LINE
  5
1BD3A
  8
0
 10
-103.6573999999917
 20
3088.0811999999992
 30
0.0
 11
33.27399999999863
 21
3069.9202000000018
 31
0.0
1001
ACDBBLOCKREPETAG
1070
     1
1071
      396
1005
1BD3A
  0
LINE
  5
1BD3B
  8
0
 10
-103.6573999999917
 20
3233.3692000000001
 30
0.0
 11
33.27399999999863
 21
3130.448400000002
 31
0.0
1001
ACDBBLOCKREPETAG
1070
     1
1071
      397
1005
1BD3B
  0
LINE
  5
1BD3C
  8
0
 10
-103.6573999999917
 20
3281.8070000000039
 30
0.0
 11
28.549600000006379
 21
3221.2534000000041
 31
0.0
1001
ACDBBLOCKREPETAG
1070
     1
1071
      398
1005
1BD3C
  0
LINE
  5
1BD3D
  8
0
 10
-103.6573999999917
 20
3493.6938000000009
 30
0.0
 11
19.126199999992409
 21
3433.1401999999998
 31
0.0
1001
ACDBBLOCKREPETAG
1070
     1
1071
      399
1005
1BD3D
  0
LINE
  5
1BD3E
  8
0
 10
-103.6573999999917
 20
3572.3830000000071
 30
0.0
 11
19.126199999992409
 21
3511.8294000000051
 31
0.0
1001
ACDBBLOCKREPETAG
1070
     1
1071
      400
1005
1BD3E
  0
LINE
  5
1BD3F
  8
0
 10
-117.83059999999161
 20
2004.4664000000039
 30
0.0
 11
71.043800000000644
 21
1949.9834000000039
 31
0.0
1001
ACDBBLOCKREPETAG
1070
     1
1071
      401
1005
1BD3F
  0
LINE
  5
1BD40
  8
0
 10
-117.83059999999161
 20
2064.9946
 30
0.0
 11
71.043800000000644
 21
2004.4664000000039
 31
0.0
1001
ACDBBLOCKREPETAG
1070
     1
1071
      402
1005
1BD40
  0
LINE
  5
1BD41
  8
0
 10
-122.5550000000069
 20
2131.5934000000011
 30
0.0
 11
66.344800000002024
 21
2058.9494000000041
 31
0.0
1001
ACDBBLOCKREPETAG
1070
     1
1071
      403
1005
1BD41
  0
LINE
  5
1BD42
  8
0
 10
-113.1061999999993
 20
2313.203400000004
 30
0.0
 11
61.620400000009781
 21
2276.881400000002
 31
0.0
1001
ACDBBLOCKREPETAG
1070
     1
1071
      404
1005
1BD42
  0
LINE
  5
1BD43
  8
0
 10
-113.1061999999993
 20
2531.1354000000019
 30
0.0
 11
56.895999999994451
 21
2500.8586000000032
 31
0.0
1001
ACDBBLOCKREPETAG
1070
     1
1071
      405
1005
1BD43
  0
LINE
  5
1BD44
  8
0
 10
-117.83059999999161
 20
2597.7341999999981
 30
0.0
 11
47.447199999998418
 21
2555.3416000000011
 31
0.0
1001
ACDBBLOCKREPETAG
1070
     1
1071
      406
1005
1BD44
  0
POLYLINE
  5
1BD45
  8
0
 66
     1
 10
0.0
 20
0.0
 30
0.0
1001
ACDBBLOCKREPETAG
1070
     1
1071
      407
1005
1BD45
  0
VERTEX
  5
81AC7
  8
0
 10
-60.020199999995647
 20
4332.046199999997
 30
0.0
  0
VERTEX
  5
81AC8
  8
0
 10
-98.552000000002764
 20
3772.0270000000041
 30
0.0
  0
VERTEX
  5
81AC9
  8
0
 10
-126.69519999999559
 20
1768.7036000000001
 30
0.0
  0
VERTEX
  5
81ACA
  8
0
 10
-84.455000000006905
 20
631.67260000000351
 30
0.0
  0
VERTEX
  5
81ACB
  8
0
 10
0.0
 20
0.0
 30
0.0
  0
SEQEND
  5
81ACC
  8
0
  0
POLYLINE
  5
1BD46
  8
0
 66
     1
 10
0.0
 20
0.0
 30
0.0
1001
ACDBBLOCKREPETAG
1070
     1
1071
      408
1005
1BD46
  0
VERTEX
  5
81ACD
  8
0
 10
-2.9463999999996271
 20
4136.3391999999967
 30
0.0
  0
VERTEX
  5
81ACE
  8
0
 10
14.071600000002221
 20
3645.712799999998
 30
0.0
  0
VERTEX
  5
81ACF
  8
0
 10
56.311800000002492
 20
2454.5289999999991
 30
0.0
  0
VERTEX
  5
81AD0
  8
0
 10
98.552000000002764
 20
1118.9716000000019
 30
0.0
  0
VERTEX
  5
81AD1
  8
0
 10
197.10399999999399
 20
306.8065999999987
 30
0.0
  0
VERTEX
  5
81AD2
  8
0
 10
295.65599999999682
 20
0.0
 30
0.0
  0
SEQEND
  5
81AD3
  8
0
  0
LINE
  5
1BD47
  8
0
 10
-67.767200000003044
 20
4719.3961999999938
 30
0.0
 11
30.42919999999658
 21
4606.1121999999996
 31
0.0
1001
ACDBBLOCKREPETAG
1070
     1
1071
      409
1005
1BD47
  0
LINE
  5
1BD48
  8
0
 10
25.527000000002769
 20
4637.5827999999956
 30
0.0
 11
74.62519999999104
 21
4738.2938000000004
 31
0.0
1001
ACDBBLOCKREPETAG
1070
     1
1071
      410
1005
1BD48
  0
LINE
  5
1BD49
  8
0
 10
-146.30400000000549
 20
4826.4064000000017
 30
0.0
 11
15.69719999999843
 21
4706.8231999999998
 31
0.0
1001
ACDBBLOCKREPETAG
1070
     1
1071
      411
1005
1BD49
  0
LINE
  5
1BD4A
  8
0
 10
25.527000000002769
 20
4719.3961999999938
 30
0.0
 11
59.893199999992881
 21
4845.2785999999996
 31
0.0
1001
ACDBBLOCKREPETAG
1070
     1
1071
      412
1005
1BD4A
  0
LINE
  5
1BD4B
  8
0
 10
0.9652000000002772
 20
4782.337400000004
 30
0.0
 11
45.161199999994729
 21
4927.1174000000092
 31
0.0
1001
ACDBBLOCKREPETAG
1070
     1
1071
      413
1005
1BD4B
  0
LINE
  5
1BD4C
  8
0
 10
-13.7413999999927
 20
4813.8080000000064
 30
0.0
 11
-185.5978000000062
 21
4889.3476000000046
 31
0.0
1001
ACDBBLOCKREPETAG
1070
     1
1071
      414
1005
1BD4C
  0
LINE
  5
1BD4D
  8
0
 10
-28.47339999999085
 20
4845.2785999999996
 30
0.0
 11
5.8927999999992569
 21
5002.6570000000047
 31
0.0
1001
ACDBBLOCKREPETAG
1070
     1
1071
      415
1005
1BD4D
  0
LINE
  5
1BD4E
  8
0
 10
-62.839599999992501
 20
4920.8181999999988
 30
0.0
 11
-33.401000000001389
 21
5065.5982000000004
 31
0.0
1001
ACDBBLOCKREPETAG
1070
     1
1071
      416
1005
1BD4E
  0
LINE
  5
1BD4F
  8
0
 10
-48.10759999999437
 20
4889.3476000000046
 30
0.0
 11
-234.69600000000599
 21
4920.8181999999988
 31
0.0
1001
ACDBBLOCKREPETAG
1070
     1
1071
      417
1005
1BD4F
  0
LINE
  5
1BD50
  8
0
 10
-87.401399999995022
 20
4939.7157999999954
 30
0.0
 11
-254.33019999999789
 21
4971.1864000000041
 31
0.0
1001
ACDBBLOCKREPETAG
1070
     1
1071
      418
1005
1BD50
  0
LINE
  5
1BD51
  8
0
 10
-111.9378000000039
 20
4971.1864000000041
 30
0.0
 11
-82.473800000007586
 21
5097.0688
 31
0.0
1001
ACDBBLOCKREPETAG
1070
     1
1071
      419
1005
1BD51
  0
LINE
  5
1BD52
  8
0
 10
-141.40180000000021
 20
4996.357799999997
 30
0.0
 11
-126.669800000002
 21
5109.6417999999976
 31
0.0
1001
ACDBBLOCKREPETAG
1070
     1
1071
      420
1005
1BD52
  0
LINE
  5
1BD53
  8
0
 10
-170.86580000000799
 20
5008.9308000000001
 30
0.0
 11
-288.69639999999958
 21
5015.2299999999977
 31
0.0
1001
ACDBBLOCKREPETAG
1070
     1
1071
      421
1005
1BD53
  0
LINE
  5
1BD54
  8
0
 10
-190.5
 20
5071.8720000000012
 30
0.0
 11
-190.5
 21
5027.828400000004
 31
0.0
1001
ACDBBLOCKREPETAG
1070
     1
1071
      422
1005
1BD54
  0
LINE
  5
1BD55
  8
0
 10
-146.30400000000549
 20
4776.0636000000031
 30
0.0
 11
-38.303199999995201
 21
4637.5827999999956
 31
0.0
1001
ACDBBLOCKREPETAG
1070
     1
1071
      423
1005
1BD55
  0
LINE
  5
1BD56
  8
0
 10
-156.13380000000981
 20
4731.9945999999991
 30
0.0
 11
-234.69600000000599
 21
4832.705600000003
 31
0.0
1001
ACDBBLOCKREPETAG
1070
     1
1071
      424
1005
1BD56
  0
LINE
  5
1BD57
  8
0
 10
-509.6255999999961
 20
4870.4754000000048
 30
0.0
 11
-656.9201999999957
 21
4908.2452000000012
 31
0.0
1001
ACDBBLOCKREPETAG
1070
     1
1071
      425
1005
1BD57
  0
LINE
  5
1BD58
  8
0
 10
-239.59819999999971
 20
4801.2350000000006
 30
0.0
 11
-396.69719999999842
 21
4908.2452000000012
 31
0.0
1001
ACDBBLOCKREPETAG
1070
     1
1071
      426
1005
1BD58
  0
LINE
  5
1BD59
  8
0
 10
-386.89280000001082
 20
4857.8770000000013
 30
0.0
 11
-524.35759999999436
 21
4927.1174000000092
 31
0.0
1001
ACDBBLOCKREPETAG
1070
     1
1071
      427
1005
1BD59
  0
LINE
  5
1BD5A
  8
0
 10
-642.18819999999744
 20
4870.4754000000048
 30
0.0
 11
-745.28680000000224
 21
4883.0484000000033
 31
0.0
1001
ACDBBLOCKREPETAG
1070
     1
1071
      428
1005
1BD5A
  0
LINE
  5
1BD5B
  8
0
 10
-755.1165999999954
 20
4845.2785999999996
 30
0.0
 11
-799.31259999998986
 21
4857.8770000000013
 31
0.0
1001
ACDBBLOCKREPETAG
1070
     1
1071
      429
1005
1BD5B
  0
LINE
  5
1BD5C
  8
0
 10
-769.84859999999344
 20
4839.004799999997
 30
0.0
 11
-779.65300000000411
 21
4801.2350000000006
 31
0.0
1001
ACDBBLOCKREPETAG
1070
     1
1071
      430
1005
1BD5C
  0
LINE
  5
1BD5D
  8
0
 10
-730.58019999999772
 20
4845.2785999999996
 30
0.0
 11
-730.58019999999772
 21
4782.337400000004
 31
0.0
1001
ACDBBLOCKREPETAG
1070
     1
1071
      431
1005
1BD5D
  0
LINE
  5
1BD5E
  8
0
 10
-671.65219999999374
 20
4864.1761999999981
 30
0.0
 11
-676.55439999999919
 21
4725.6954000000042
 31
0.0
1001
ACDBBLOCKREPETAG
1070
     1
1071
      432
1005
1BD5E
  0
LINE
  5
1BD5F
  8
0
 10
-602.91980000000194
 20
4870.4754000000048
 30
0.0
 11
-622.55400000000554
 21
4700.524000000004
 31
0.0
1001
ACDBBLOCKREPETAG
1070
     1
1071
      433
1005
1BD5F
  0
LINE
  5
1BD60
  8
0
 10
-534.18739999999855
 20
4876.7492000000011
 30
0.0
 11
-553.82159999999055
 21
4656.4550000000008
 31
0.0
1001
ACDBBLOCKREPETAG
1070
     1
1071
      434
1005
1BD60
  0
LINE
  5
1BD61
  8
0
 10
-445.7953999999981
 20
4864.1761999999981
 30
0.0
 11
-519.45540000000051
 21
4606.1121999999996
 31
0.0
1001
ACDBBLOCKREPETAG
1070
     1
1071
      435
1005
1BD61
  0
LINE
  5
1BD62
  8
0
 10
-362.33099999999672
 20
4845.2785999999996
 30
0.0
 11
-460.52739999999642
 21
4624.9844000000048
 31
0.0
1001
ACDBBLOCKREPETAG
1070
     1
1071
      436
1005
1BD62
  0
LINE
  5
1BD63
  8
0
 10
-298.52620000000388
 20
4820.1072000000004
 30
0.0
 11
-391.79500000000468
 21
4643.8820000000042
 31
0.0
1001
ACDBBLOCKREPETAG
1070
     1
1071
      437
1005
1BD63
  0
LINE
  5
1BD64
  8
0
 10
-205.23199999999821
 20
4776.0636000000031
 30
0.0
 11
-327.96480000000662
 21
4643.8820000000042
 31
0.0
1001
ACDBBLOCKREPETAG
1070
     1
1071
      438
1005
1BD64
  0
LINE
  5
1BD65
  8
0
 10
-126.669800000002
 20
4719.3961999999938
 30
0.0
 11
-278.86659999999529
 21
4624.9844000000048
 31
0.0
1001
ACDBBLOCKREPETAG
1070
     1
1071
      439
1005
1BD65
  0
LINE
  5
1BD66
  8
0
 10
-82.473800000007586
 20
4669.0534000000034
 30
0.0
 11
-205.23199999999821
 21
4618.6851999999981
 31
0.0
1001
ACDBBLOCKREPETAG
1070
     1
1071
      440
1005
1BD66
  0
LINE
  5
1BD67
  8
0
 10
-33.401000000001389
 20
4612.4114000000009
 30
0.0
 11
-136.49959999999481
 21
4599.8130000000001
 31
0.0
1001
ACDBBLOCKREPETAG
1070
     1
1071
      441
1005
1BD67
  0
LINE
  5
1BD68
  8
0
 10
-8.8391999999988897
 20
4580.9407999999958
 30
0.0
 11
-48.10759999999437
 21
4574.6416000000008
 31
0.0
1001
ACDBBLOCKREPETAG
1070
     1
1071
      442
1005
1BD68
  0
LINE
  5
1BD69
  8
0
 10
-210.1342000000034
 20
4574.6416000000008
 30
0.0
 11
-156.13380000000981
 21
4486.5289999999986
 31
0.0
1001
ACDBBLOCKREPETAG
1070
     1
1071
      443
1005
1BD69
  0
LINE
  5
1BD6A
  8
0
 10
-102.1333999999931
 20
4555.7440000000033
 30
0.0
 11
-72.669399999996827
 21
4505.4011999999957
 31
0.0
1001
ACDBBLOCKREPETAG
1070
     1
1071
      444
1005
1BD6A
  0
LINE
  5
1BD6B
  8
0
 10
-161.0360000000035
 20
4562.0431999999983
 30
0.0
 11
-116.8399999999977
 21
4499.1020000000026
 31
0.0
1001
ACDBBLOCKREPETAG
1070
     1
1071
      445
1005
1BD6B
  0
LINE
  5
1BD6C
  8
0
 10
-396.69719999999842
 20
4555.7440000000033
 30
0.0
 11
-524.35759999999436
 21
4536.871799999999
 31
0.0
1001
ACDBBLOCKREPETAG
1070
     1
1071
      446
1005
1BD6C
  0
LINE
  5
1BD6D
  8
0
 10
-534.18739999999855
 20
4511.7004000000043
 30
0.0
 11
-632.38380000000961
 21
4480.2297999999992
 31
0.0
1001
ACDBBLOCKREPETAG
1070
     1
1071
      447
1005
1BD6D
  0
ARC
  5
1BD6E
  8
0
 10
-468.04580000000323
 20
4608.7792000000018
 30
0.0
 40
500.76150799999982
 50
350.28500000000008
 51
64.112290000000002
1001
ACDBBLOCKREPETAG
1070
     1
1071
      448
1005
1BD6E
  0
ARC
  5
1BD6F
  8
0
 10
-552.14519999999561
 20
4218.7876000000006
 30
0.0
 40
657.82342399999982
 50
27.671150000000001
 51
112.5305
1001
ACDBBLOCKREPETAG
1070
     1
1071
      449
1005
1BD6F
  0
LINE
  5
1BD70
  8
0
 10
-67.767200000003044
 20
4480.2297999999992
 30
0.0
 11
-60.35039999999362
 21
4333.0876000000007
 31
0.0
1001
ACDBBLOCKREPETAG
1070
     1
1071
      450
1005
1BD70
  0
LINE
  5
1BD71
  8
0
 10
-647.09039999999118
 20
4436.1607999999951
 30
0.0
 11
-539.08959999999252
 21
4253.6364000000031
 31
0.0
1001
ACDBBLOCKREPETAG
1070
     1
1071
      451
1005
1BD71
  0
LINE
  5
1BD72
  8
0
 10
-617.65180000000021
 20
4467.6314000000011
 30
0.0
 11
-475.25939999999451
 21
4278.8077999999969
 31
0.0
1001
ACDBBLOCKREPETAG
1070
     1
1071
      452
1005
1BD72
  0
LINE
  5
1BD73
  8
0
 10
-563.65139999999474
 20
4486.5289999999986
 30
0.0
 11
-416.33140000000191
 21
4303.9792000000034
 31
0.0
1001
ACDBBLOCKREPETAG
1070
     1
1071
      453
1005
1BD73
  0
LINE
  5
1BD74
  8
0
 10
-440.8932000000043
 20
4536.871799999999
 30
0.0
 11
-337.79459999998789
 21
4410.9894000000004
 31
0.0
1001
ACDBBLOCKREPETAG
1070
     1
1071
      454
1005
1BD74
  0
LINE
  5
1BD75
  8
0
 10
-259.23239999999169
 20
4574.6416000000008
 30
0.0
 11
-205.23199999999821
 21
4467.6314000000011
 31
0.0
1001
ACDBBLOCKREPETAG
1070
     1
1071
      455
1005
1BD75
  0
LINE
  5
1BD76
  8
0
 10
-313.23280000000852
 20
4574.6416000000008
 30
0.0
 11
-239.59819999999971
 21
4461.3322000000007
 31
0.0
1001
ACDBBLOCKREPETAG
1070
     1
1071
      456
1005
1BD76
  0
LINE
  5
1BD77
  8
0
 10
-381.96520000000032
 20
4555.7440000000033
 30
0.0
 11
-273.96440000000149
 21
4429.8615999999975
 31
0.0
1001
ACDBBLOCKREPETAG
1070
     1
1071
      457
1005
1BD77
  0
LINE
  5
1BD78
  8
0
 10
-509.6255999999961
 20
4511.7004000000043
 30
0.0
 11
-401.6248000000088
 21
4385.818000000002
 31
0.0
1001
ACDBBLOCKREPETAG
1070
     1
1071
      458
1005
1BD78
  0
LINE
  5
1BD79
  8
0
 10
-735.4823999999918
 20
4373.2195999999967
 30
0.0
 11
-823.84899999999845
 21
4322.8768
 31
0.0
1001
ACDBBLOCKREPETAG
1070
     1
1071
      459
1005
1BD79
  0
LINE
  5
1BD7A
  8
0
 10
-696.18859999999097
 20
4404.6902
 30
0.0
 11
-779.65300000000411
 21
4385.818000000002
 31
0.0
1001
ACDBBLOCKREPETAG
1070
     1
1071
      460
1005
1BD7A
  0
LINE
  5
1BD7B
  8
0
 10
-637.2860000000037
 20
4448.7591999999959
 30
0.0
 11
-720.75039999999342
 21
4429.8615999999975
 31
0.0
1001
ACDBBLOCKREPETAG
1070
     1
1071
      461
1005
1BD7B
  0
LINE
  5
1BD7C
  8
0
 10
-828.75120000000379
 20
4266.209400000007
 30
0.0
 11
-843.48320000000172
 21
4266.209400000007
 31
0.0
1001
ACDBBLOCKREPETAG
1070
     1
1071
      462
1005
1BD7C
  0
LINE
  5
1BD7D
  8
0
 10
-789.4828000000083
 20
4316.5775999999969
 30
0.0
 11
-823.84899999999845
 21
4297.6800000000012
 31
0.0
1001
ACDBBLOCKREPETAG
1070
     1
1071
      463
1005
1BD7D
  0
LINE
  5
1BD7E
  8
0
 10
-681.45659999999293
 20
4410.9894000000004
 30
0.0
 11
-598.01759999999661
 21
4247.3372000000008
 31
0.0
1001
ACDBBLOCKREPETAG
1070
     1
1071
      464
1005
1BD7E
  0
LINE
  5
1BD7F
  8
0
 10
-710.92059999998935
 20
4379.5188000000016
 30
0.0
 11
-661.82240000000081
 21
4222.1657999999961
 31
0.0
1001
ACDBBLOCKREPETAG
1070
     1
1071
      465
1005
1BD7F
  0
LINE
  5
1BD80
  8
0
 10
-760.01880000000062
 20
4335.4497999999976
 30
0.0
 11
-710.92059999998935
 21
4196.969000000001
 31
0.0
1001
ACDBBLOCKREPETAG
1070
     1
1071
      466
1005
1BD80
  0
LINE
  5
1BD81
  8
0
 10
-804.21480000000645
 20
4285.107
 30
0.0
 11
-789.4828000000083
 21
4203.2681999999986
 31
0.0
1001
ACDBBLOCKREPETAG
1070
     1
1071
      467
1005
1BD81
  0
LINE
  5
1BD82
  8
0
 10
-828.75120000000379
 20
4259.9101999999993
 30
0.0
 11
-823.84899999999845
 21
4215.8666000000003
 31
0.0
1001
ACDBBLOCKREPETAG
1070
     1
1071
      468
1005
1BD82
  0
LINE
  5
1BD83
  8
0
 10
-406.52700000000249
 20
4064.7874000000038
 30
0.0
 11
-494.89359999999812
 21
3913.7336000000009
 31
0.0
1001
ACDBBLOCKREPETAG
1070
     1
1071
      469
1005
1BD83
  0
LINE
  5
1BD84
  8
0
 10
-362.33099999999672
 20
4171.7976000000053
 30
0.0
 11
-499.82119999999691
 21
4014.4445999999998
 31
0.0
1001
ACDBBLOCKREPETAG
1070
     1
1071
      470
1005
1BD84
  0
LINE
  5
1BD85
  8
0
 10
-308.33059999999159
 20
4266.209400000007
 30
0.0
 11
-485.08919999999853
 21
4115.1556000000028
 31
0.0
1001
ACDBBLOCKREPETAG
1070
     1
1071
      471
1005
1BD85
  0
LINE
  5
1BD86
  8
0
 10
-215.03639999999729
 20
4360.6211999999969
 30
0.0
 11
-421.25900000000081
 21
4259.9101999999993
 31
0.0
1001
ACDBBLOCKREPETAG
1070
     1
1071
      472
1005
1BD86
  0
LINE
  5
1BD87
  8
0
 10
-107.0355999999985
 20
4448.7591999999959
 30
0.0
 11
-357.42880000000292
 21
4341.7490000000043
 31
0.0
1001
ACDBBLOCKREPETAG
1070
     1
1071
      473
1005
1BD87
  0
LINE
  5
1BD88
  8
0
 10
-43.20540000000053
 20
4492.8027999999958
 30
0.0
 11
-219.9640000000079
 21
4455.0584000000044
 31
0.0
1001
ACDBBLOCKREPETAG
1070
     1
1071
      474
1005
1BD88
  0
LINE
  5
1BD89
  8
0
 10
-421.25900000000081
 20
4027.043000000001
 30
0.0
 11
-332.89239999999398
 21
3869.6900000000041
 31
0.0
1001
ACDBBLOCKREPETAG
1070
     1
1071
      475
1005
1BD89
  0
LINE
  5
1BD8A
  8
0
 10
-116.8399999999977
 20
4442.4600000000009
 30
0.0
 11
-102.1333999999931
 21
4234.7387999999992
 31
0.0
1001
ACDBBLOCKREPETAG
1070
     1
1071
      476
1005
1BD8A
  0
LINE
  5
1BD8B
  8
0
 10
-278.86659999999529
 20
4278.8077999999969
 30
0.0
 11
-200.3298000000043
 21
4008.145400000004
 31
0.0
1001
ACDBBLOCKREPETAG
1070
     1
1071
      477
1005
1BD8B
  0
LINE
  5
1BD8C
  8
0
 10
-224.86620000000161
 20
4341.7490000000043
 30
0.0
 11
-180.67019999999559
 21
4077.385799999995
 31
0.0
1001
ACDBBLOCKREPETAG
1070
     1
1071
      478
1005
1BD8C
  0
LINE
  5
1BD8D
  8
0
 10
-175.76800000000179
 20
4392.0917999999938
 30
0.0
 11
-136.49959999999481
 21
4146.6261999999979
 31
0.0
1001
ACDBBLOCKREPETAG
1070
     1
1071
      479
1005
1BD8D
  0
LINE
  5
1BD8E
  8
0
 10
-396.69719999999842
 20
4083.6850000000009
 30
0.0
 11
-313.23280000000852
 21
3920.0327999999972
 31
0.0
1001
ACDBBLOCKREPETAG
1070
     1
1071
      480
1005
1BD8E
  0
LINE
  5
1BD8F
  8
0
 10
-362.33099999999672
 20
4159.2245999999986
 30
0.0
 11
-273.96440000000149
 21
3932.6311999999989
 31
0.0
1001
ACDBBLOCKREPETAG
1070
     1
1071
      481
1005
1BD8F
  0
LINE
  5
1BD90
  8
0
 10
-323.06259999998969
 20
4234.7387999999992
 30
0.0
 11
-229.76839999999541
 21
3932.6311999999989
 31
0.0
1001
ACDBBLOCKREPETAG
1070
     1
1071
      482
1005
1BD90
  0
LINE
  5
1BD91
  8
0
 10
-23.571199999997042
 20
4492.8027999999958
 30
0.0
 11
-38.303199999995201
 21
4417.2885999999999
 31
0.0
1001
ACDBBLOCKREPETAG
1070
     1
1071
      483
1005
1BD91
  0
LINE
  5
1BD92
  8
0
 10
64.795400000009749
 20
4467.6314000000011
 30
0.0
 11
-23.571199999997042
 21
4354.3474000000069
 31
0.0
1001
ACDBBLOCKREPETAG
1070
     1
1071
      484
1005
1BD92
  0
LINE
  5
1BD93
  8
0
 10
40.259000000000889
 20
4499.1020000000026
 30
0.0
 11
0.9652000000002772
 21
4436.1607999999951
 31
0.0
1001
ACDBBLOCKREPETAG
1070
     1
1071
      485
1005
1BD93
  0
ARC
  5
1BD94
  8
0
 10
-235.17859999998879
 20
3853.9927999999991
 30
0.0
 40
721.00643199999968
 50
68.383110000000002
 51
147.53219999999999
1001
ACDBBLOCKREPETAG
1070
     1
1071
      486
1005
1BD94
  0
LINE
  5
1BD95
  8
0
 10
94.259400000006082
 20
4429.8615999999975
 30
0.0
 11
-13.7413999999927
 21
4266.209400000007
 31
0.0
1001
ACDBBLOCKREPETAG
1070
     1
1071
      487
1005
1BD95
  0
LINE
  5
1BD96
  8
0
 10
104.0891999999989
 20
4700.524000000004
 30
0.0
 11
118.82119999999701
 21
4839.004799999997
 31
0.0
1001
ACDBBLOCKREPETAG
1070
     1
1071
      488
1005
1BD96
  0
LINE
  5
1BD97
  8
0
 10
133.52780000000149
 20
4366.9204000000036
 30
0.0
 11
-3.9370000000050802
 21
4140.3270000000011
 31
0.0
1001
ACDBBLOCKREPETAG
1070
     1
1071
      489
1005
1BD97
  0
LINE
  5
1BD98
  8
0
 10
-460.52739999999642
 20
3901.1605999999988
 30
0.0
 11
-494.89359999999812
 21
3850.7924000000048
 31
0.0
1001
ACDBBLOCKREPETAG
1070
     1
1071
      490
1005
1BD98
  0
LINE
  5
1BD99
  8
0
 10
-440.8932000000043
 20
3957.8025999999991
 30
0.0
 11
-377.06300000000641
 21
3844.493199999999
 31
0.0
1001
ACDBBLOCKREPETAG
1070
     1
1071
      491
1005
1BD99
  0
LINE
  5
1BD9A
  8
0
 10
-455.62520000000251
 20
3875.9637999999991
 30
0.0
 11
-431.08880000000488
 21
3838.2194000000009
 31
0.0
1001
ACDBBLOCKREPETAG
1070
     1
1071
      492
1005
1BD9A
  0
ARC
  5
1BD9B
  8
0
 10
365.6076000000059
 20
3769.1822000000011
 30
0.0
 40
831.89013199999965
 50
113.75919999999979
 51
177.41329999999999
1001
ACDBBLOCKREPETAG
1070
     1
1071
      493
1005
1BD9B
  0
LINE
  5
1BD9C
  8
0
 10
74.62519999999104
 20
4637.5827999999956
 30
0.0
 11
167.89400000000319
 21
4669.0534000000034
 31
0.0
1001
ACDBBLOCKREPETAG
1070
     1
1071
      494
1005
1BD9C
  0
LINE
  5
1BD9D
  8
0
 10
40.259000000000889
 20
4499.1020000000026
 30
0.0
 11
167.89400000000319
 21
4473.9306000000033
 31
0.0
1001
ACDBBLOCKREPETAG
1070
     1
1071
      495
1005
1BD9D
  0
LINE
  5
1BD9E
  8
0
 10
-158.49600000000021
 20
12.19199999999468
 30
0.0
 11
-85.344000000003234
 21
0.0
 31
0.0
1001
ACDBBLOCKREPETAG
1070
     1
1071
      496
1005
1BD9E
  0
LINE
  5
1BD9F
  8
0
 10
-219.45600000000249
 20
24.383999999995151
 30
0.0
 11
-73.152000000002772
 21
24.383999999995151
 31
0.0
1001
ACDBBLOCKREPETAG
1070
     1
1071
      497
1005
1BD9F
  0
LINE
  5
1BDA0
  8
0
 10
-73.152000000002772
 20
24.383999999995151
 30
0.0
 11
0.0
 21
0.0
 31
0.0
1001
ACDBBLOCKREPETAG
1070
     1
1071
      498
1005
1BDA0
  0
LINE
  5
1BDA1
  8
0
 10
-134.1119999999992
 20
487.67999999999529
 30
0.0
 11
-97.536000000003682
 21
548.63999999999771
 31
0.0
1001
ACDBBLOCKREPETAG
1070
     1
1071
      499
1005
1BDA1
  0
LINE
  5
1BDA2
  8
0
 10
-182.8800000000011
 20
377.95199999999699
 30
0.0
 11
-97.536000000003682
 21
426.71999999999872
 31
0.0
1001
ACDBBLOCKREPETAG
1070
     1
1071
      500
1005
1BDA2
  0
LINE
  5
1BDA3
  8
0
 10
-97.536000000003682
 20
426.71999999999872
 30
0.0
 11
-24.38400000000092
 21
524.25599999999679
 31
0.0
1001
ACDBBLOCKREPETAG
1070
     1
1071
      501
1005
1BDA3
  0
LINE
  5
1BDA4
  8
0
 10
-121.91999999999879
 20
414.52799999999831
 30
0.0
 11
-182.8800000000011
 21
499.87199999999558
 31
0.0
1001
ACDBBLOCKREPETAG
1070
     1
1071
      502
1005
1BDA4
  0
LINE
  5
1BDA5
  8
0
 10
-219.45600000000249
 20
24.383999999995151
 30
0.0
 11
-109.7279999999984
 21
73.151999999996974
 31
0.0
1001
ACDBBLOCKREPETAG
1070
     1
1071
      503
1005
1BDA5
  0
LINE
  5
1BDA6
  8
0
 10
-109.7279999999984
 20
73.151999999996974
 30
0.0
 11
-48.768000000001841
 21
243.8399999999977
 31
0.0
1001
ACDBBLOCKREPETAG
1070
     1
1071
      504
1005
1BDA6
  0
LINE
  5
1BDA7
  8
0
 10
-48.768000000001841
 20
243.8399999999977
 30
0.0
 11
24.38400000000092
 21
304.80000000000001
 31
0.0
1001
ACDBBLOCKREPETAG
1070
     1
1071
      505
1005
1BDA7
  0
LINE
  5
1BDA8
  8
0
 10
24.38400000000092
 20
304.80000000000001
 30
0.0
 11
73.151999999996974
 21
377.95199999999699
 31
0.0
1001
ACDBBLOCKREPETAG
1070
     1
1071
      506
1005
1BDA8
  0
LINE
  5
1BDA9
  8
0
 10
-85.344000000003234
 20
134.1119999999992
 30
0.0
 11
-73.152000000002772
 21
329.18399999999508
 31
0.0
1001
ACDBBLOCKREPETAG
1070
     1
1071
      507
1005
1BDA9
  0
LINE
  5
1BDAA
  8
0
 10
-73.152000000002772
 20
329.18399999999508
 30
0.0
 11
-109.7279999999984
 21
499.87199999999558
 31
0.0
1001
ACDBBLOCKREPETAG
1070
     1
1071
      508
1005
1BDAA
  0
LINE
  5
1BDAB
  8
0
 10
-24.38400000000092
 20
268.22399999999851
 30
0.0
 11
-73.152000000002772
 21
402.3359999999978
 31
0.0
1001
ACDBBLOCKREPETAG
1070
     1
1071
      509
1005
1BDAB
  0
LINE
  5
1BDAC
  8
0
 10
-73.152000000002772
 20
402.3359999999978
 30
0.0
 11
-60.96000000000231
 21
512.06399999999633
 31
0.0
1001
ACDBBLOCKREPETAG
1070
     1
1071
      510
1005
1BDAC
  0
LINE
  5
1BDAD
  8
0
 10
24.38400000000092
 20
304.80000000000001
 30
0.0
 11
36.576000000001393
 21
390.1439999999975
 31
0.0
1001
ACDBBLOCKREPETAG
1070
     1
1071
      511
1005
1BDAD
  0
LINE
  5
1BDAE
  8
0
 10
36.576000000001393
 20
390.1439999999975
 30
0.0
 11
73.151999999996974
 21
438.9119999999993
 31
0.0
1001
ACDBBLOCKREPETAG
1070
     1
1071
      512
1005
1BDAE
  0
LINE
  5
1BDAF
  8
0
 10
48.768000000001841
 20
341.3759999999956
 30
0.0
 11
60.959999999996512
 21
390.1439999999975
 31
0.0
1001
ACDBBLOCKREPETAG
1070
     1
1071
      513
1005
1BDAF
  0
LINE
  5
1BDB0
  8
0
 10
60.959999999996512
 20
390.1439999999975
 30
0.0
 11
85.34399999999745
 21
414.52799999999831
 31
0.0
1001
ACDBBLOCKREPETAG
1070
     1
1071
      514
1005
1BDB0
  0
LINE
  5
1BDB1
  8
0
 10
-12.19200000000046
 20
274.31999999999891
 30
0.0
 11
8.7884000000000881
 21
335.35619999999358
 31
0.0
1001
ACDBBLOCKREPETAG
1070
     1
1071
      515
1005
1BDB1
  0
LINE
  5
1BDB2
  8
0
 10
8.7884000000000881
 20
335.35619999999358
 30
0.0
 11
33.604200000002358
 21
412.8515999999974
 31
0.0
1001
ACDBBLOCKREPETAG
1070
     1
1071
      516
1005
1BDB2
  0
LINE
  5
1BDB3
  8
0
 10
33.604200000002358
 20
412.8515999999974
 30
0.0
 11
92.50680000000132
 21
464.5405999999939
 31
0.0
1001
ACDBBLOCKREPETAG
1070
     1
1071
      517
1005
1BDB3
  0
LINE
  5
1BDB4
  8
0
 10
8.7884000000000881
 20
335.35619999999358
 30
0.0
 11
-5.15619999999935
 21
486.38459999999702
 31
0.0
1001
ACDBBLOCKREPETAG
1070
     1
1071
      518
1005
1BDB4
  0
LINE
  5
1BDB5
  8
0
 10
-5.15619999999935
 20
486.38459999999702
 30
0.0
 11
2.590800000002262
 21
542.0359999999979
 31
0.0
1001
ACDBBLOCKREPETAG
1070
     1
1071
      519
1005
1BDB5
  0
LINE
  5
1BDB6
  8
0
 10
2.590800000002262
 20
542.0359999999979
 30
0.0
 11
21.20900000000093
 21
555.95519999999215
 31
0.0
1001
ACDBBLOCKREPETAG
1070
     1
1071
      520
1005
1BDB6
  0
LINE
  5
1BDB7
  8
0
 10
-85.775799999998782
 20
389.00099999999571
 30
0.0
 11
-129.1843999999945
 21
452.60259999999312
 31
0.0
1001
ACDBBLOCKREPETAG
1070
     1
1071
      521
1005
1BDB7
  0
LINE
  5
1BDB8
  8
0
 10
-129.1843999999945
 20
450.6213999999996
 30
0.0
 11
-140.0301999999979
 21
542.0359999999979
 31
0.0
1001
ACDBBLOCKREPETAG
1070
     1
1071
      522
1005
1BDB8
  0
LINE
  5
1BDB9
  8
0
 10
-70.256399999996162
 20
426.77079999999182
 30
0.0
 11
-85.775799999998782
 21
472.49079999999049
 31
0.0
1001
ACDBBLOCKREPETAG
1070
     1
1071
      523
1005
1BDB9
  0
LINE
  5
1BDBA
  8
0
 10
-85.775799999998782
 20
472.49079999999049
 30
0.0
 11
-73.35519999999795
 21
548.00499999999522
 31
0.0
1001
ACDBBLOCKREPETAG
1070
     1
1071
      524
1005
1BDBA
  0
LINE
  5
1BDBB
  8
0
 10
1.0413999999984751
 20
526.13559999999848
 30
0.0
 11
35.153600000006143
 21
559.9175999999967
 31
0.0
1001
ACDBBLOCKREPETAG
1070
     1
1071
      525
1005
1BDBB
  0
LINE
  5
1BDBC
  8
0
 10
-0.5079999999995382
 20
508.25399999999968
 30
0.0
 11
22.758399999998929
 21
536.06699999999455
 31
0.0
1001
ACDBBLOCKREPETAG
1070
     1
1071
      526
1005
1BDBC
  0
LINE
  5
1BDBD
  8
0
 10
-3.6067999999955642
 20
492.35359999999469
 30
0.0
 11
14.985999999997921
 21
518.18540000000155
 31
0.0
1001
ACDBBLOCKREPETAG
1070
     1
1071
      527
1005
1BDBD
  0
LINE
  5
1BDBE
  8
0
 10
-12.90319999999519
 20
555.95519999999215
 30
0.0
 11
-2.0573999999975512
 21
522.1731999999937
 31
0.0
1001
ACDBBLOCKREPETAG
1070
     1
1071
      528
1005
1BDBE
  0
LINE
  5
1BDBF
  8
0
 10
-451.10399999999959
 20
219.45599999999681
 30
0.0
 11
-587.45119999999804
 21
234.23879999999369
 31
0.0
1001
ACDBBLOCKREPETAG
1070
     1
1071
      529
1005
1BDBF
  0
LINE
  5
1BDC0
  8
0
 10
-451.10399999999959
 20
219.45599999999681
 30
0.0
 11
-601.04020000000025
 21
303.80940000000032
 31
0.0
1001
ACDBBLOCKREPETAG
1070
     1
1071
      530
1005
1BDC0
  0
LINE
  5
1BDC1
  8
0
 10
-463.29599999999419
 20
280.41599999999909
 30
0.0
 11
-552.57699999999693
 21
423.03699999999913
 31
0.0
1001
ACDBBLOCKREPETAG
1070
     1
1071
      531
1005
1BDC1
  0
LINE
  5
1BDC2
  8
0
 10
-402.3359999999978
 20
207.26399999999629
 30
0.0
 11
-463.29599999999419
 21
280.41599999999909
 31
0.0
1001
ACDBBLOCKREPETAG
1070
     1
1071
      532
1005
1BDC2
  0
LINE
  5
1BDC3
  8
0
 10
-402.3359999999978
 20
207.26399999999629
 30
0.0
 11
-426.71999999999872
 21
316.99199999999468
 31
0.0
1001
ACDBBLOCKREPETAG
1070
     1
1071
      533
1005
1BDC3
  0
LINE
  5
1BDC4
  8
0
 10
-268.22399999999851
 20
109.7279999999984
 30
0.0
 11
-329.18399999999508
 21
316.99199999999468
 31
0.0
1001
ACDBBLOCKREPETAG
1070
     1
1071
      534
1005
1BDC4
  0
LINE
  5
1BDC5
  8
0
 10
-219.45600000000249
 20
195.0719999999958
 30
0.0
 11
-207.26400000000211
 21
304.80000000000001
 31
0.0
1001
ACDBBLOCKREPETAG
1070
     1
1071
      535
1005
1BDC5
  0
LINE
  5
1BDC6
  8
0
 10
-170.6880000000007
 20
219.45599999999681
 30
0.0
 11
-195.07200000000159
 21
316.99199999999468
 31
0.0
1001
ACDBBLOCKREPETAG
1070
     1
1071
      536
1005
1BDC6
  0
LINE
  5
1BDC7
  8
0
 10
-243.84000000000341
 20
24.383999999995151
 30
0.0
 11
-341.3759999999956
 21
12.19199999999468
 31
0.0
1001
ACDBBLOCKREPETAG
1070
     1
1071
      537
1005
1BDC7
  0
LINE
  5
1BDC8
  8
0
 10
-329.18399999999508
 20
121.91999999999879
 30
0.0
 11
-377.95199999999699
 21
146.30399999999969
 31
0.0
1001
ACDBBLOCKREPETAG
1070
     1
1071
      538
1005
1BDC8
  0
LINE
  5
1BDC9
  8
0
 10
-341.3759999999956
 20
12.19199999999468
 30
0.0
 11
-402.3359999999978
 21
12.19199999999468
 31
0.0
1001
ACDBBLOCKREPETAG
1070
     1
1071
      539
1005
1BDC9
  0
LINE
  5
1BDCA
  8
0
 10
-402.3359999999978
 20
12.19199999999468
 30
0.0
 11
-451.10399999999959
 21
0.0
 31
0.0
1001
ACDBBLOCKREPETAG
1070
     1
1071
      540
1005
1BDCA
  0
LINE
  5
1BDCB
  8
0
 10
-377.95199999999699
 20
146.30399999999969
 30
0.0
 11
-402.3359999999978
 21
207.26399999999629
 31
0.0
1001
ACDBBLOCKREPETAG
1070
     1
1071
      541
1005
1BDCB
  0
LINE
  5
1BDCC
  8
0
 10
-377.95199999999699
 20
146.30399999999969
 30
0.0
 11
-451.10399999999959
 21
219.45599999999681
 31
0.0
1001
ACDBBLOCKREPETAG
1070
     1
1071
      542
1005
1BDCC
  0
LINE
  5
1BDCD
  8
0
 10
-414.52799999999831
 20
182.87999999999531
 30
0.0
 11
-463.29599999999419
 21
182.87999999999531
 31
0.0
1001
ACDBBLOCKREPETAG
1070
     1
1071
      543
1005
1BDCD
  0
LINE
  5
1BDCE
  8
0
 10
-219.45600000000249
 20
24.383999999995151
 30
0.0
 11
-292.60799999999949
 21
60.959999999996512
 31
0.0
1001
ACDBBLOCKREPETAG
1070
     1
1071
      544
1005
1BDCE
  0
LINE
  5
1BDCF
  8
0
 10
-219.45600000000249
 20
24.383999999995151
 30
0.0
 11
-219.45600000000249
 21
48.767999999996071
 31
0.0
1001
ACDBBLOCKREPETAG
1070
     1
1071
      545
1005
1BDCF
  0
LINE
  5
1BDD0
  8
0
 10
-219.45600000000249
 20
24.383999999995151
 30
0.0
 11
-158.49600000000021
 21
73.151999999996974
 31
0.0
1001
ACDBBLOCKREPETAG
1070
     1
1071
      546
1005
1BDD0
  0
LINE
  5
1BDD1
  8
0
 10
-243.84000000000341
 20
24.383999999995151
 30
0.0
 11
-329.18399999999508
 21
0.0
 31
0.0
1001
ACDBBLOCKREPETAG
1070
     1
1071
      547
1005
1BDD1
  0
LINE
  5
1BDD2
  8
0
 10
-243.84000000000341
 20
24.383999999995151
 30
0.0
 11
-195.07200000000159
 21
24.383999999995151
 31
0.0
1001
ACDBBLOCKREPETAG
1070
     1
1071
      548
1005
1BDD2
  0
LINE
  5
1BDD3
  8
0
 10
-195.07200000000159
 20
24.383999999995151
 30
0.0
 11
-158.49600000000021
 21
12.19199999999468
 31
0.0
1001
ACDBBLOCKREPETAG
1070
     1
1071
      549
1005
1BDD3
  0
LINE
  5
1BDD4
  8
0
 10
-292.60799999999949
 20
60.959999999996512
 30
0.0
 11
-329.18399999999508
 21
121.91999999999879
 31
0.0
1001
ACDBBLOCKREPETAG
1070
     1
1071
      550
1005
1BDD4
  0
LINE
  5
1BDD5
  8
0
 10
-219.45600000000249
 20
48.767999999996071
 30
0.0
 11
-268.22399999999851
 21
109.7279999999984
 31
0.0
1001
ACDBBLOCKREPETAG
1070
     1
1071
      551
1005
1BDD5
  0
LINE
  5
1BDD6
  8
0
 10
-268.22399999999851
 20
109.7279999999984
 30
0.0
 11
-219.45600000000249
 21
195.0719999999958
 31
0.0
1001
ACDBBLOCKREPETAG
1070
     1
1071
      552
1005
1BDD6
  0
LINE
  5
1BDD7
  8
0
 10
-158.49600000000021
 20
73.151999999996974
 30
0.0
 11
-146.30399999999969
 21
134.1119999999992
 31
0.0
1001
ACDBBLOCKREPETAG
1070
     1
1071
      553
1005
1BDD7
  0
LINE
  5
1BDD8
  8
0
 10
-146.30399999999969
 20
134.1119999999992
 30
0.0
 11
-170.6880000000007
 21
219.45599999999681
 31
0.0
1001
ACDBBLOCKREPETAG
1070
     1
1071
      554
1005
1BDD8
  0
LINE
  5
1BDD9
  8
0
 10
-329.18399999999508
 20
316.99199999999468
 30
0.0
 11
-499.87199999999558
 21
414.52799999999831
 31
0.0
1001
ACDBBLOCKREPETAG
1070
     1
1071
      555
1005
1BDD9
  0
LINE
  5
1BDDA
  8
0
 10
-207.26400000000211
 20
304.80000000000001
 30
0.0
 11
-377.95199999999699
 21
463.29599999999999
 31
0.0
1001
ACDBBLOCKREPETAG
1070
     1
1071
      556
1005
1BDDA
  0
LINE
  5
1BDDB
  8
0
 10
-377.95199999999699
 20
463.29599999999999
 30
0.0
 11
-329.18399999999508
 21
524.25599999999679
 31
0.0
1001
ACDBBLOCKREPETAG
1070
     1
1071
      557
1005
1BDDB
  0
LINE
  5
1BDDC
  8
0
 10
-329.18399999999508
 20
316.99199999999468
 30
0.0
 11
-353.567999999996
 21
316.99199999999468
 31
0.0
1001
ACDBBLOCKREPETAG
1070
     1
1071
      558
1005
1BDDC
  0
LINE
  5
1BDDD
  8
0
 10
-338.45499999999538
 20
424.78959999999819
 30
0.0
 11
-290.3981999999998
 21
464.5405999999939
 31
0.0
1001
ACDBBLOCKREPETAG
1070
     1
1071
      559
1005
1BDDD
  0
LINE
  5
1BDDE
  8
0
 10
-426.71999999999872
 20
414.52799999999831
 30
0.0
 11
-390.1439999999975
 21
499.87199999999558
 31
0.0
1001
ACDBBLOCKREPETAG
1070
     1
1071
      560
1005
1BDDE
  0
LINE
  5
1BDDF
  8
0
 10
-463.29599999999419
 20
280.41599999999909
 30
0.0
 11
-512.06399999999633
 21
292.60799999999949
 31
0.0
1001
ACDBBLOCKREPETAG
1070
     1
1071
      561
1005
1BDDF
  0
LINE
  5
1BDE0
  8
0
 10
-426.71999999999872
 20
316.99199999999468
 30
0.0
 11
-451.10399999999959
 21
329.18399999999508
 31
0.0
1001
ACDBBLOCKREPETAG
1070
     1
1071
      562
1005
1BDE0
  0
LINE
  5
1BDE1
  8
0
 10
-426.71999999999872
 20
316.99199999999468
 30
0.0
 11
-426.71999999999872
 21
414.52799999999831
 31
0.0
1001
ACDBBLOCKREPETAG
1070
     1
1071
      563
1005
1BDE1
  0
LINE
  5
1BDE2
  8
0
 10
-426.71999999999872
 20
414.52799999999831
 30
0.0
 11
-475.48799999999488
 21
475.48799999999488
 31
0.0
1001
ACDBBLOCKREPETAG
1070
     1
1071
      564
1005
1BDE2
  0
LINE
  5
1BDE3
  8
0
 10
-377.95199999999699
 20
463.29599999999999
 30
0.0
 11
-451.10399999999959
 21
487.67999999999529
 31
0.0
1001
ACDBBLOCKREPETAG
1070
     1
1071
      565
1005
1BDE3
  0
LINE
  5
1BDE4
  8
0
 10
-353.567999999996
 20
316.99199999999468
 30
0.0
 11
-487.67999999999529
 21
377.95199999999699
 31
0.0
1001
ACDBBLOCKREPETAG
1070
     1
1071
      566
1005
1BDE4
  0
LINE
  5
1BDE5
  8
0
 10
-207.26400000000211
 20
451.10399999999959
 30
0.0
 11
-268.22399999999851
 21
548.63999999999771
 31
0.0
1001
ACDBBLOCKREPETAG
1070
     1
1071
      567
1005
1BDE5
  0
LINE
  5
1BDE6
  8
0
 10
-302.79339999999547
 20
478.43440000000032
 30
0.0
 11
-270.25600000000247
 21
518.18540000000155
 31
0.0
1001
ACDBBLOCKREPETAG
1070
     1
1071
      568
1005
1BDE6
  0
LINE
  5
1BDE7
  8
0
 10
-296.59579999999761
 20
484.4033999999977
 30
0.0
 11
-316.76339999999431
 21
502.2849999999965
 31
0.0
1001
ACDBBLOCKREPETAG
1070
     1
1071
      569
1005
1BDE7
  0
LINE
  5
1BDE8
  8
0
 10
-268.70659999999867
 20
458.57159999999618
 30
0.0
 11
-250.08839999999429
 21
500.30379999999121
 31
0.0
1001
ACDBBLOCKREPETAG
1070
     1
1071
      570
1005
1BDE8
  0
LINE
  5
1BDE9
  8
0
 10
-290.3981999999998
 20
464.5405999999939
 30
0.0
 11
-265.60779999999693
 21
577.82459999999446
 31
0.0
1001
ACDBBLOCKREPETAG
1070
     1
1071
      571
1005
1BDE9
  0
LINE
  5
1BDEA
  8
0
 10
-329.18399999999508
 20
316.99199999999468
 30
0.0
 11
-207.26400000000211
 21
451.10399999999959
 31
0.0
1001
ACDBBLOCKREPETAG
1070
     1
1071
      572
1005
1BDEA
  0
LINE
  5
1BDEB
  8
0
 10
-207.26400000000211
 20
451.10399999999959
 30
0.0
 11
-134.1119999999992
 21
487.67999999999529
 31
0.0
1001
ACDBBLOCKREPETAG
1070
     1
1071
      573
1005
1BDEB
  0
LINE
  5
1BDEC
  8
0
 10
-195.07200000000159
 20
316.99199999999468
 30
0.0
 11
-182.8800000000011
 21
377.95199999999699
 31
0.0
1001
ACDBBLOCKREPETAG
1070
     1
1071
      574
1005
1BDEC
  0
LINE
  5
1BDED
  8
0
 10
-305.89219999999727
 20
396.9511999999923
 30
0.0
 11
-302.79339999999547
 21
478.43440000000032
 31
0.0
1001
ACDBBLOCKREPETAG
1070
     1
1071
      575
1005
1BDED
  0
LINE
  5
1BDEE
  8
0
 10
-304.34279999999922
 20
426.77079999999182
 30
0.0
 11
-268.70659999999867
 21
458.57159999999618
 31
0.0
1001
ACDBBLOCKREPETAG
1070
     1
1071
      576
1005
1BDEE
  0
LINE
  5
1BDEF
  8
0
 10
-182.8800000000011
 20
499.87199999999558
 30
0.0
 11
-158.49600000000021
 21
536.44799999999714
 31
0.0
1001
ACDBBLOCKREPETAG
1070
     1
1071
      577
1005
1BDEF
  0
LINE
  5
1BDF0
  8
0
 10
-182.8800000000011
 20
499.87199999999558
 30
0.0
 11
-219.45600000000249
 21
512.06399999999633
 31
0.0
1001
ACDBBLOCKREPETAG
1070
     1
1071
      578
1005
1BDF0
  0
LINE
  5
1BDF1
  8
0
 10
-286.51199999999932
 20
498.32259999999769
 30
0.0
 11
-307.44160000000107
 21
538.07359999999335
 31
0.0
1001
ACDBBLOCKREPETAG
1070
     1
1071
      579
1005
1BDF1
  0
LINE
  5
1BDF2
  8
0
 10
-316.76339999999431
 20
502.2849999999965
 30
0.0
 11
-327.60919999999771
 21
559.9175999999967
 31
0.0
1001
ACDBBLOCKREPETAG
1070
     1
1071
      580
1005
1BDF2
  0
LINE
  5
1BDF3
  8
0
 10
-240.79200000000051
 20
502.2849999999965
 30
0.0
 11
-228.39679999999899
 21
573.83679999999072
 31
0.0
1001
ACDBBLOCKREPETAG
1070
     1
1071
      581
1005
1BDF3
  0
ENDBLK
  5
1BDF4
  8
0
  0
BLOCK
  8
0
  2
_CLOSEDBLANK
 70
     0
 10
0.0
 20
0.0
 30
0.0
  3
_CLOSEDBLANK
  1

  0
LINE
  5
63DE2
  8
0
  6
BYBLOCK
 62
     0
 10
-1.0
 20
0.1666666666666666
 30
0.0
 11
0.0
 21
0.0
 31
0.0
  0
LINE
  5
63DE3
  8
0
  6
BYBLOCK
 62
     0
 10
0.0
 20
0.0
 30
0.0
 11
-1.0
 21
-0.1666666666666666
 31
0.0
  0
LINE
  5
63DE4
  8
0
  6
BYBLOCK
 62
     0
 10
-1.0
 20
0.1666666666666666
 30
0.0
 11
-1.0
 21
-0.1666666666666666
 31
0.0
  0
ENDBLK
  5
63DE6
  8
0
  0
BLOCK
  8
0
  2
_DATUMFILLED
 70
     0
 10
0.0
 20
0.0
 30
0.0
  3
_DATUMFILLED
  1

  0
SOLID
  5
685A7
  8
0
  6
BYBLOCK
 62
     0
 10
0.0
 20
0.5773502700000001
 30
0.0
 11
-1.0
 21
0.0
 31
0.0
 12
0.0
 22
-0.5773502700000001
 32
0.0
 13
0.0
 23
-0.5773502700000001
 33
0.0
  0
ENDBLK
  5
685A9
  8
0
  0
BLOCK
  8
0
  2
*U16
 70
     1
 10
0.0
 20
0.0
 30
0.0
  3
*U16
  1

  0
ENDBLK
  5
81493
  8
0
  0
BLOCK
  8
0
  2
*U17
 70
     1
 10
0.0
 20
0.0
 30
0.0
  3
*U17
  1

  0
TEXT
  5
81495
  8
TRACK_CL
 62
     0
 10
30056.564281740892
 20
38433.833566771631
 30
0.0
 40
14.99999999999998
  1
713.61
  7
ROMANS
  0
ENDBLK
  5
81497
  8
0
  0
BLOCK
  8
0
  2
*U18
 70
     1
 10
0.0
 20
0.0
 30
0.0
  3
*U18
  1

  0
TEXT
  5
81499
  8
TRACK_CL
 62
     0
 10
28837.703668006001
 20
37307.070819689383
 30
0.0
 40
14.99999999999998
  1
1267.36
  7
ROMANS
  0
ENDBLK
  5
8149B
  8
0
  0
BLOCK
  8
0
  2
*U19
 70
     1
 10
0.0
 20
0.0
 30
0.0
  3
*U19
  1

  0
TEXT
  5
8149D
  8
TRACK_CL
 62
     0
 10
31732.289954398719
 20
37911.107864752252
 30
0.0
 40
14.99999999999998
  1
1463.36
  7
ROMANS
  0
ENDBLK
  5
8149F
  8
0
  0
BLOCK
  8
0
  2
*U20
 70
     1
 10
0.0
 20
0.0
 30
0.0
  3
*U20
  1

  0
TEXT
  5
814A1
  8
DIMENSIONS
 62
     0
 10
21894.976537760322
 20
39279.199020307991
 30
0.0
 40
14.99999999999998
  1
315.84
  7
ROMANS
  0
ENDBLK
  5
814A3
  8
0
  0
BLOCK
  8
0
  2
*U21
 70
     1
 10
0.0
 20
0.0
 30
0.0
  3
*U21
  1

  0
TEXT
  5
814A5
  8
DIMENSIONS
 62
     0
 10
22070.398076765301
 20
39209.545778488617
 30
0.0
 40
14.99999999999998
  1
20.00
  7
ROMANS
  0
ENDBLK
  5
814A7
  8
0
  0
BLOCK
  8
0
  2
*U22
 70
     1
 10
0.0
 20
0.0
 30
0.0
  3
*U22
  1

  0
TEXT
  5
814A9
  8
DIMENSIONS
 62
     0
 10
21978.544140556562
 20
39280.466017000261
 30
0.0
 40
14.99999999999998
  1
147.28
  7
ROMANS
  0
ENDBLK
  5
814AB
  8
0
  0
BLOCK
  8
0
  2
*U23
 70
     1
 10
0.0
 20
0.0
 30
0.0
  3
*U23
  1

  0
TEXT
  5
814AD
  8
TRACK
 62
     0
 10
23546.112361431671
 20
39585.345537318251
 30
0.0
 40
14.99999999999998
  1
5919.62
  7
ROMANS
  0
ENDBLK
  5
814AF
  8
0
  0
BLOCK
  8
0
  2
*U24
 70
     1
 10
0.0
 20
0.0
 30
0.0
  3
*U24
  1

  0
TEXT
  5
814B1
  8
TRACK
 62
     0
 10
15523.641318804061
 20
35206.083427724938
 30
0.0
 40
14.99999999999998
  1
6429.00
  7
ROMANS
  0
ENDBLK
  5
814B3
  8
0
  0
BLOCK
  8
0
  2
*U25
 70
     1
 10
0.0
 20
0.0
 30
0.0
  3
*U25
  1

  0
TEXT
  5
814B5
  8
TRACK
 62
     0
 10
58666.628516102341
 20
47839.899331095767
 30
0.0
 40
14.99999999999998
  1
2617.70
  7
ROMANS
  0
ENDBLK
  5
814B7
  8
0
  0
BLOCK
  8
0
  2
*U26
 70
     1
 10
0.0
 20
0.0
 30
0.0
  3
*U26
  1

  0
TEXT
  5
814B9
  8
BASEBOARD
 62
     0
 10
15139.802463589331
 20
37532.427586309917
 30
0.0
 40
14.99999999999998
  1
5919.62
 50
24.08475827035128
  7
ROMANS
  0
ENDBLK
  5
814BB
  8
0
  0
BLOCK
  8
0
  2
*U27
 70
     1
 10
0.0
 20
0.0
 30
0.0
  3
*U27
  1

  0
TEXT
  5
814BD
  8
BASEBOARD
 62
     0
 10
15523.641318804061
 20
45484.897604046047
 30
0.0
 40
14.99999999999998
  1
6429.00
  7
ROMANS
  0
ENDBLK
  5
814BF
  8
0
  0
BLOCK
  8
0
  2
*U28
 70
     1
 10
0.0
 20
0.0
 30
0.0
  3
*U28
  1

  0
TEXT
  5
814C1
  8
BASEBOARD
 62
     0
 10
18031.75049931377
 20
44193.50982161874
 30
0.0
 40
14.99999999999998
  1
990.00
 50
21.7773838834818
  7
ROMANS
  0
ENDBLK
  5
814C3
  8
0
  0
BLOCK
  8
0
  2
*U29
 70
     1
 10
0.0
 20
0.0
 30
0.0
  3
*U29
  1

  0
TEXT
  5
814C5
  8
BASEBOARD
 62
     0
 10
15479.44852481801
 20
43163.841264058552
 30
0.0
 40
14.99999999999998
  1
6479.99
 50
21.900967538697309
  7
ROMANS
  0
ENDBLK
  5
814C7
  8
0
  0
BLOCK
  8
0
  2
*U30
 70
     1
 10
0.0
 20
0.0
 30
0.0
  3
*U30
  1

  0
TEXT
  5
814C9
  8
BASEBOARD
 62
     0
 10
28511.858570603359
 20
45814.99038099622
 30
0.0
 40
14.99999999999998
  1
440.97
 50
77.55843165146851
  7
ROMANS
  0
ENDBLK
  5
814CB
  8
0
  0
BLOCK
  8
0
  2
*U31
 70
     1
 10
0.0
 20
0.0
 30
0.0
  3
*U31
  1

  0
TEXT
  5
814CD
  8
BASEBOARD
 62
     0
 10
29280.952672157269
 20
42312.546327401004
 30
0.0
 40
14.99999999999998
  1
316.10
 50
47.648644954928493
  7
ROMANS
  0
ENDBLK
  5
814CF
  8
0
  0
BLOCK
  8
0
  2
*U32
 70
     1
 10
0.0
 20
0.0
 30
0.0
  3
*U32
  1

  0
TEXT
  5
814D1
  8
BASEBOARD
 62
     0
 10
19013.170868860208
 20
50799.188525388578
 30
0.0
 40
14.99999999999998
  1
2700.00
 50
294.05500082866217
  7
ROMANS
  0
ENDBLK
  5
814D3
  8
0
  0
BLOCK
  8
0
  2
*U33
 70
     1
 10
0.0
 20
0.0
 30
0.0
  3
*U33
  1

  0
TEXT
  5
814D5
  8
BASEBOARD
 62
     0
 10
15111.44105757071
 20
49020.381325414717
 30
0.0
 40
14.99999999999998
  1
5700.00
 50
24.055000828677059
  7
ROMANS
  0
ENDBLK
  5
814D7
  8
0
  0
BLOCK
  8
0
  2
*U34
 70
     1
 10
0.0
 20
0.0
 30
0.0
  3
*U34
  1

  0
TEXT
  5
814D9
  8
DIMENSIONS
 62
     0
 10
21130.141295566889
 20
45541.412967686309
 30
0.0
 40
14.99999999999998
  1
2591.03
 50
90.0
  7
ROMANS
  0
ENDBLK
  5
814DB
  8
0
  0
BLOCK
  8
0
  2
*U35
 70
     1
 10
0.0
 20
0.0
 30
0.0
  3
*U35
  1

  0
TEXT
  5
814DD
  8
DIMENSIONS
 62
     0
 10
24153.924146984711
 20
47138.408314491768
 30
0.0
 40
14.99999999999998
  1
5659.81
  7
ROMANS
  0
ENDBLK
  5
814DF
  8
0
  0
BLOCK
  8
0
  2
*U36
 70
     1
 10
0.0
 20
0.0
 30
0.0
  3
*U36
  1

  0
TEXT
  5
814E1
  8
DIMENSIONS
 62
     0
 10
21130.141295566889
 20
49135.758062079512
 30
0.0
 40
14.99999999999998
  1
2591.03
 50
90.0
  7
ROMANS
  0
ENDBLK
  5
814E3
  8
0
  0
BLOCK
  8
0
  2
*U37
 70
     1
 10
0.0
 20
0.0
 30
0.0
  3
*U37
  1

  0
TEXT
  5
814E5
  8
DIMENSIONS
 62
     0
 10
21130.141295566889
 20
53206.166118278808
 30
0.0
 40
14.99999999999998
  1
2475.00
 50
90.0
  7
ROMANS
  0
ENDBLK
  5
814E7
  8
0
  0
BLOCK
  8
0
  2
*U38
 70
     1
 10
0.0
 20
0.0
 30
0.0
  3
*U38
  1

  0
TEXT
  5
814E9
  8
DIMENSIONS
 62
     0
 10
24153.924146984711
 20
54861.174166976511
 30
0.0
 40
14.99999999999998
  1
5659.81
  7
ROMANS
  0
ENDBLK
  5
814EB
  8
0
  0
BLOCK
  8
0
  2
*U39
 70
     1
 10
0.0
 20
0.0
 30
0.0
  3
*U39
  1

  0
TEXT
  5
814ED
  8
BASEBOARD
 62
     0
 10
27949.533466112069
 20
49077.745360187291
 30
0.0
 40
14.99999999999998
  1
2475.00
 50
90.0
  7
ROMANS
  0
ENDBLK
  5
814EF
  8
0
  0
BLOCK
  8
0
  2
*U40
 70
     1
 10
0.0
 20
0.0
 30
0.0
  3
*U40
  1

  0
TEXT
  5
814F1
  8
DIMENSIONS
 62
     0
 10
25450.977730874991
 20
50732.753408885008
 30
0.0
 40
14.99999999999998
  1
8257.49
  7
ROMANS
  0
ENDBLK
  5
814F3
  8
0
  0
BLOCK
  8
0
  2
*U41
 70
     1
 10
0.0
 20
0.0
 30
0.0
  3
*U41
  1

  0
TEXT
  5
814F5
  8
TRACK
 62
     0
 10
24295.756395528759
 20
41993.975989821367
 30
0.0
 40
14.99999999999998
  1
6480.00
  7
ROMANS
  0
ENDBLK
  5
814F7
  8
0
  0
BLOCK
  8
0
  2
*U42
 70
     1
 10
0.0
 20
0.0
 30
0.0
  3
*U42
  1

  0
TEXT
  5
814F9
  8
DIMENSIONS
 62
     0
 10
29426.026527708022
 20
49219.182085313631
 30
0.0
 40
14.99999999999998
  1
1507.15
  7
ROMANS
  0
ENDBLK
  5
814FB
  8
0
  0
BLOCK
  8
0
  2
*U43
 70
     1
 10
0.0
 20
0.0
 30
0.0
  3
*U43
  1

  0
TEXT
  5
814FD
  8
BASEBOARD
 62
     0
 10
30104.114136040342
 20
48884.48343415936
 30
0.0
 40
14.99999999999998
  1
114.90
 50
90.0
  7
ROMANS
  0
ENDBLK
  5
814FF
  8
0
  0
BLOCK
  8
0
  2
*U44
 70
     1
 10
0.0
 20
0.0
 30
0.0
  3
*U44
  1

  0
TEXT
  5
81501
  8
DIMENSIONS
 62
     0
 10
30277.005555234158
 20
49526.271383706393
 30
0.0
 40
14.99999999999998
  1
180.52
  7
ROMANS
  0
ENDBLK
  5
81503
  8
0
  0
BLOCK
  8
0
  2
*U45
 70
     1
 10
0.0
 20
0.0
 30
0.0
  3
*U45
  1

  0
TEXT
  5
81505
  8
TRACK
 62
     0
 10
31241.76783766161
 20
51471.187016644777
 30
0.0
 40
14.99999999999998
  1
6066.00
  7
ROMANS
  0
ENDBLK
  5
81507
  8
0
  0
BLOCK
  8
0
  2
*U46
 70
     1
 10
0.0
 20
0.0
 30
0.0
  3
*U46
  1

  0
TEXT
  5
81509
  8
BASEBOARD
 62
     0
 10
29507.92284679717
 20
48364.472559005997
 30
0.0
 40
14.99999999999998
  1
1275.81
  7
ROMANS
  0
ENDBLK
  5
8150B
  8
0
  0
BLOCK
  8
0
  2
*U47
 70
     1
 10
0.0
 20
0.0
 30
0.0
  3
*U47
  1

  0
TEXT
  5
8150D
  8
BASEBOARD
 62
     0
 10
31965.451893171619
 20
44329.576608520998
 30
0.0
 40
14.99999999999998
  1
80.00
 50
90.0
  7
ROMANS
  0
ENDBLK
  5
8150F
  8
0
  0
BLOCK
  8
0
  2
*U48
 70
     1
 10
0.0
 20
0.0
 30
0.0
  3
*U48
  1

  0
TEXT
  5
81511
  8
BASEBOARD
 62
     0
 10
31047.91444257402
 20
44467.713133470039
 30
0.0
 40
14.99999999999998
  1
1542.00
  7
ROMANS
  0
ENDBLK
  5
81513
  8
0
  0
BLOCK
  8
0
  2
*U49
 70
     1
 10
0.0
 20
0.0
 30
0.0
  3
*U49
  1

  0
TEXT
  5
81515
  8
BASEBOARD
 62
     0
 10
31047.914732103269
 20
44131.757014501512
 30
0.0
 40
14.99999999999998
  1
1524.00
  7
ROMANS
  0
ENDBLK
  5
81517
  8
0
  0
BLOCK
  8
0
  2
*U50
 70
     1
 10
0.0
 20
0.0
 30
0.0
  3
*U50
  1

  0
TEXT
  5
81519
  8
BASEBOARD
 62
     0
 10
30596.679497219
 20
43790.680975955642
 30
0.0
 40
14.99999999999998
  1
588.00
  7
ROMANS
  0
ENDBLK
  5
8151B
  8
0
  0
BLOCK
  8
0
  2
*U51
 70
     1
 10
0.0
 20
0.0
 30
0.0
  3
*U51
  1

  0
TEXT
  5
8151D
  8
BASEBOARD
 62
     0
 10
30984.217286801249
 20
43660.574046708229
 30
0.0
 40
14.99999999999998
  1
80.00
 50
90.0
  7
ROMANS
  0
ENDBLK
  5
8151F
  8
0
  0
BLOCK
  8
0
  2
*U52
 70
     1
 10
0.0
 20
0.0
 30
0.0
  3
*U52
  1

  0
TEXT
  5
81521
  8
BASEBOARD
 62
     0
 10
31927.7193374692
 20
43975.157454114502
 30
0.0
 40
14.99999999999998
  1
80.00
 50
90.0
  7
ROMANS
  0
ENDBLK
  5
81523
  8
0
  0
BLOCK
  8
0
  2
*U53
 70
     1
 10
0.0
 20
0.0
 30
0.0
  3
*U53
  1

  0
TEXT
  5
81525
  8
BASEBOARD
 62
     0
 10
31047.91444257112
 20
44660.361293346279
 30
0.0
 40
14.99999999999998
  1
1560.00
  7
ROMANS
  0
ENDBLK
  5
81527
  8
0
  0
BLOCK
  8
0
  2
*U54
 70
     1
 10
0.0
 20
0.0
 30
0.0
  3
*U54
  1

  0
TEXT
  5
81529
  8
BASEBOARD
 62
     0
 10
31733.89714081429
 20
42947.552279953103
 30
0.0
 40
14.99999999999998
  1
119.00
  7
ROMANS
  0
ENDBLK
  5
8152B
  8
0
  0
BLOCK
  8
0
  2
*U55
 70
     1
 10
0.0
 20
0.0
 30
0.0
  3
*U55
  1

  0
TEXT
  5
8152D
  8
BASEBOARD
 62
     0
 10
31873.41875491216
 20
43137.98937754683
 30
0.0
 40
14.99999999999998
  1
80.00
 50
90.0
  7
ROMANS
  0
ENDBLK
  5
8152F
  8
0
  0
BLOCK
  8
0
  2
*U56
 70
     1
 10
0.0
 20
0.0
 30
0.0
  3
*U56
  1

  0
TEXT
  5
81531
  8
BASEBOARD
 62
     0
 10
31200.942522877911
 20
43176.199582027482
 30
0.0
 40
14.99999999999998
  1
40.00
 50
90.0
  7
ROMANS
  0
ENDBLK
  5
81533
  8
0
  0
BLOCK
  8
0
  2
*U57
 70
     1
 10
0.0
 20
0.0
 30
0.0
  3
*U57
  1

  0
TEXT
  5
81535
  8
BASEBOARD
 62
     0
 10
31284.64077956574
 20
43287.82012514722
 30
0.0
 40
14.99999999999998
  1
125.00
  7
ROMANS
  0
ENDBLK
  5
81537
  8
0
  0
BLOCK
  8
0
  2
*U58
 70
     1
 10
0.0
 20
0.0
 30
0.0
  3
*U58
  1

  0
TEXT
  5
81539
  8
BASEBOARD
 62
     0
 10
31500.11142652858
 20
43327.084559244082
 30
0.0
 40
14.99999999999998
  1
600.00
  7
ROMANS
  0
ENDBLK
  5
8153B
  8
0
  0
BLOCK
  8
0
  2
*U59
 70
     1
 10
0.0
 20
0.0
 30
0.0
  3
*U59
  1

  0
TEXT
  5
8153D
  8
BASEBOARD
 62
     0
 10
31736.89714081429
 20
43260.151915141207
 30
0.0
 40
14.99999999999998
  1
125.00
  7
ROMANS
  0
ENDBLK
  5
8153F
  8
0
  0
BLOCK
  8
0
  2
*U60
 70
     1
 10
0.0
 20
0.0
 30
0.0
  3
*U60
  1

  0
TEXT
  5
81541
  8
BASEBOARD
 62
     0
 10
31867.41875491216
 20
42825.389742358711
 30
0.0
 40
14.99999999999998
  1
80.00
 50
90.0
  7
ROMANS
  0
ENDBLK
  5
81543
  8
0
  0
BLOCK
  8
0
  2
*U61
 70
     1
 10
0.0
 20
0.0
 30
0.0
  3
*U61
  1

  0
TEXT
  5
81545
  8
BASEBOARD
 62
     0
 10
31206.942522877911
 20
42863.599946839371
 30
0.0
 40
14.99999999999998
  1
40.00
 50
90.0
  7
ROMANS
  0
ENDBLK
  5
81547
  8
0
  0
BLOCK
  8
0
  2
*U62
 70
     1
 10
0.0
 20
0.0
 30
0.0
  3
*U62
  1

  0
TEXT
  5
81549
  8
BASEBOARD
 62
     0
 10
31284.64077956574
 20
42975.220489959123
 30
0.0
 40
14.99999999999998
  1
119.00
  7
ROMANS
  0
ENDBLK
  5
8154B
  8
0
  0
BLOCK
  8
0
  2
*U63
 70
     1
 10
0.0
 20
0.0
 30
0.0
  3
*U63
  1

  0
TEXT
  5
8154D
  8
BASEBOARD
 62
     0
 10
31500.46856938571
 20
43014.484924055963
 30
0.0
 40
14.99999999999998
  1
588.00
  7
ROMANS
  0
ENDBLK
  5
8154F
  8
0
  0
BLOCK
  8
0
  2
*U64
 70
     1
 10
0.0
 20
0.0
 30
0.0
  3
*U64
  1

  0
TEXT
  5
81551
  8
BASEBOARD
 62
     0
 10
30305.435447232361
 20
43137.98937754683
 30
0.0
 40
14.99999999999998
  1
80.00
 50
90.0
  7
ROMANS
  0
ENDBLK
  5
81553
  8
0
  0
BLOCK
  8
0
  2
*U65
 70
     1
 10
0.0
 20
0.0
 30
0.0
  3
*U65
  1

  0
TEXT
  5
81555
  8
BASEBOARD
 62
     0
 10
30977.91167926661
 20
43176.199582027482
 30
0.0
 40
14.99999999999998
  1
40.00
 50
90.0
  7
ROMANS
  0
ENDBLK
  5
81557
  8
0
  0
BLOCK
  8
0
  2
*U66
 70
     1
 10
0.0
 20
0.0
 30
0.0
  3
*U66
  1

  0
TEXT
  5
81559
  8
BASEBOARD
 62
     0
 10
30798.499136864491
 20
43287.82012514722
 30
0.0
 40
14.99999999999998
  1
125.00
  7
ROMANS
  0
ENDBLK
  5
8155B
  8
0
  0
BLOCK
  8
0
  2
*U67
 70
     1
 10
0.0
 20
0.0
 30
0.0
  3
*U67
  1

  0
TEXT
  5
8155D
  8
BASEBOARD
 62
     0
 10
30584.457061330231
 20
43327.084559244082
 30
0.0
 40
14.99999999999998
  1
600.00
  7
ROMANS
  0
ENDBLK
  5
8155F
  8
0
  0
BLOCK
  8
0
  2
*U68
 70
     1
 10
0.0
 20
0.0
 30
0.0
  3
*U68
  1

  0
TEXT
  5
81561
  8
BASEBOARD
 62
     0
 10
30346.242775615941
 20
43260.151915141207
 30
0.0
 40
14.99999999999998
  1
125.00
  7
ROMANS
  0
ENDBLK
  5
81563
  8
0
  0
BLOCK
  8
0
  2
*U69
 70
     1
 10
0.0
 20
0.0
 30
0.0
  3
*U69
  1

  0
TEXT
  5
81565
  8
BASEBOARD
 62
     0
 10
30311.435447232361
 20
42825.389742358711
 30
0.0
 40
14.99999999999998
  1
80.00
 50
90.0
  7
ROMANS
  0
ENDBLK
  5
81567
  8
0
  0
BLOCK
  8
0
  2
*U70
 70
     1
 10
0.0
 20
0.0
 30
0.0
  3
*U70
  1

  0
TEXT
  5
81569
  8
BASEBOARD
 62
     0
 10
30971.91167926661
 20
42863.599946839371
 30
0.0
 40
14.99999999999998
  1
40.00
 50
90.0
  7
ROMANS
  0
ENDBLK
  5
8156B
  8
0
  0
BLOCK
  8
0
  2
*U71
 70
     1
 10
0.0
 20
0.0
 30
0.0
  3
*U71
  1

  0
TEXT
  5
8156D
  8
BASEBOARD
 62
     0
 10
30798.499136864491
 20
42975.220489959123
 30
0.0
 40
14.99999999999998
  1
119.00
  7
ROMANS
  0
ENDBLK
  5
8156F
  8
0
  0
BLOCK
  8
0
  2
*U72
 70
     1
 10
0.0
 20
0.0
 30
0.0
  3
*U72
  1

  0
TEXT
  5
81571
  8
BASEBOARD
 62
     0
 10
30584.814204187369
 20
43014.484924055963
 30
0.0
 40
14.99999999999998
  1
588.00
  7
ROMANS
  0
ENDBLK
  5
81573
  8
0
  0
BLOCK
  8
0
  2
*U73
 70
     1
 10
0.0
 20
0.0
 30
0.0
  3
*U73
  1

  0
TEXT
  5
81575
  8
BASEBOARD
 62
     0
 10
30349.242775615941
 20
42947.552279953103
 30
0.0
 40
14.99999999999998
  1
119.00
  7
ROMANS
  0
ENDBLK
  5
81577
  8
0
  0
BLOCK
  8
0
  2
*U74
 70
     1
 10
0.0
 20
0.0
 30
0.0
  3
*U74
  1

  0
TEXT
  5
81579
  8
BASEBOARD
 62
     0
 10
20100.424857234779
 20
49081.270763971799
 30
0.0
 40
14.99999999999998
  1
2700.00
 50
90.0
  7
ROMANS
  0
ENDBLK
  5
8157B
  8
0
  0
BLOCK
  8
0
  2
*U75
 70
     1
 10
0.0
 20
0.0
 30
0.0
  3
*U75
  1

  0
TEXT
  5
8157D
  8
BASEBOARD
 62
     0
 10
24296.112361431671
 20
44976.749290794469
 30
0.0
 40
14.99999999999998
  1
4500.00
  7
ROMANS
  0
ENDBLK
  5
8157F
  8
0
  0
ENDSEC
  0
SECTION
  2
ENTITIES
  0
TEXT
  5
81580
  8
TRACK
 10
36825.400000000001
 20
13728.0
 30
0.0
 40
2.5
  1
\pt42.5,72.5;
  7
ROMANS
  0
LINE
  5
5D139
  8
GRID
  6
DASHED
 10
58747.880891704001
 20
14011.09163063404
 30
0.0
 11
57187.729919055033
 21
14011.091592650329
 31
0.0
  0
LINE
  5
5D13A
  8
GRID
  6
DASHED
 10
58747.880891704001
 20
14056.09163063403
 30
0.0
 11
57187.729919055033
 21
14056.091592650329
 31
0.0
  0
LINE
  5
5D13B
  8
GRID
  6
DASHED
 10
58747.880891704001
 20
14101.09163063403
 30
0.0
 11
57187.729919055033
 21
14101.09159265032
 31
0.0
  0
LINE
  5
5D13F
  8
GRID
  6
DASHED
 10
58747.880891704001
 20
14166.09163063403
 30
0.0
 11
57187.729919055033
 21
14166.09159265032
 31
0.0
  0
LINE
  5
5D140
  8
GRID
  6
DASHED
 10
58747.880891704001
 20
14231.09163063404
 30
0.0
 11
57187.729919055033
 21
14231.091592650329
 31
0.0
  0
LINE
  5
5D14F
  8
GRID
  6
DASHED
 10
58747.880886347848
 20
14276.09163063404
 30
0.0
 11
57187.729913698873
 21
14276.091592650329
 31
0.0
  0
LINE
  5
5D150
  8
GRID
  6
DASHED
 10
58747.880886347848
 20
14321.09163063404
 30
0.0
 11
57187.729913698873
 21
14321.09159265032
 31
0.0
  0
LINE
  5
5D151
  8
GRID
  6
DASHED
 10
58747.880891704001
 20
14386.09163063403
 30
0.0
 11
57187.729919055033
 21
14386.09159265032
 31
0.0
  0
LINE
  5
5D152
  8
GRID
  6
DASHED
 10
58747.880890121487
 20
14451.09163063404
 30
0.0
 11
57187.729917472512
 21
14451.09159265034
 31
0.0
  0
LINE
  5
5D153
  8
GRID
  6
DASHED
 10
58747.882046851919
 20
14516.091484031051
 30
0.0
 11
57187.73107716746
 21
14516.09144660114
 31
0.0
  0
LINE
  5
5D154
  8
GRID
  6
DASHED
 10
58747.882046481383
 20
14581.09148403106
 30
0.0
 11
57187.73107716746
 21
14581.09144587803
 31
0.0
  0
LINE
  5
61FF3
  8
GRID
  6
DASHED
 10
66315.464823345188
 20
14216.18282420899
 30
0.0
 11
64755.313850696191
 21
14216.182786225279
 31
0.0
  0
LINE
  5
61FF4
  8
GRID
  6
DASHED
 10
66315.464823345188
 20
14261.18282420899
 30
0.0
 11
64755.313850696191
 21
14261.18278622529
 31
0.0
  0
LINE
  5
61FF5
  8
GRID
  6
DASHED
 10
66315.464823345159
 20
14306.18282420899
 30
0.0
 11
64755.313850696191
 21
14306.182786225279
 31
0.0
  0
LINE
  5
61FF8
  8
GRID
  6
DASHED
 10
66315.464822376001
 20
14371.1828254666
 30
0.0
 11
64755.313850696191
 21
14371.182786225279
 31
0.0
  0
LINE
  5
61FF9
  8
GRID
  6
DASHED
 10
66315.464823345159
 20
14436.18282420899
 30
0.0
 11
64755.313850696191
 21
14436.182786225279
 31
0.0
  0
LINE
  5
62005
  8
GRID
  6
DASHED
 10
66315.464817989021
 20
14481.18282420899
 30
0.0
 11
64755.313845340032
 21
14481.18278622529
 31
0.0
  0
LINE
  5
62006
  8
GRID
  6
DASHED
 10
66315.464817989021
 20
14526.18282420899
 30
0.0
 11
64755.313845340032
 21
14526.182786225279
 31
0.0
  0
LINE
  5
62007
  8
GRID
  6
DASHED
 10
66315.464823345159
 20
14591.18282420899
 30
0.0
 11
64755.313850696191
 21
14591.182786225279
 31
0.0
  0
LINE
  5
62008
  8
GRID
  6
DASHED
 10
66315.464821762682
 20
14656.18282420899
 30
0.0
 11
64755.313849113692
 21
14656.18278622529
 31
0.0
  0
LINE
  5
62009
  8
GRID
  6
DASHED
 10
66315.464820180176
 20
14721.182824209
 30
0.0
 11
64755.313847531193
 21
14721.18278622529
 31
0.0
  0
LINE
  5
6200A
  8
GRID
  6
DASHED
 10
66315.464817015163
 20
14786.182824209011
 30
0.0
 11
64755.313844366181
 21
14786.182786225299
 31
0.0
  0
INSERT
  5
79223
  8
HATCH
  6
CONTINUOUS
 62
   252
  2
*U16
 10
0.0
 20
0.0
 30
0.0
1001
ACAD
1002
{
1000
R14_HATCH_DATA
1000
79223
1011
1.0
1021
-0.0
1031
0.0
1021
0.0
1031
0.0
1011
0.0
1021
-0.0
1031
0.0
1021
1.0
1031
0.0
1011
0.0
1021
-0.0
1031
0.0
1021
0.0
1031
1.0
1040
0.0
1010
0.0
1020
0.0
1030
1.0
1000
SOLID
1070
     1
1070
     0
1071
        0
1070
     0
1070
     1
1071
        1
1040
67445.156321265938
1040
14433.81979987092
1040
0.0
1002
}
  0
LINE
  5
79486
  8
GRID
  6
DASHED
 10
66315.473008715373
 20
15099.045325564621
 30
0.0
 11
64755.322036066413
 21
15099.045287580921
 31
0.0
  0
LINE
  5
79487
  8
GRID
  6
DASHED
 10
66315.473008715373
 20
15144.045325564621
 30
0.0
 11
64755.322036066413
 21
15144.045287580921
 31
0.0
  0
LINE
  5
79488
  8
GRID
  6
DASHED
 10
66315.473008715373
 20
15189.045325564621
 30
0.0
 11
64755.322036066398
 21
15189.045287580921
 31
0.0
  0
LINE
  5
79489
  8
GRID
  6
DASHED
 10
66315.473008715373
 20
15254.045325564621
 30
0.0
 11
64755.322036066398
 21
15254.045287580921
 31
0.0
  0
LINE
  5
7948A
  8
GRID
  6
DASHED
 10
66315.473008715373
 20
15319.045325564621
 30
0.0
 11
64755.322036066398
 21
15319.045287580921
 31
0.0
  0
LINE
  5
7948B
  8
GRID
  6
DASHED
 10
66315.473003359235
 20
15364.045325564621
 30
0.0
 11
64755.322030710253
 21
15364.045287580921
 31
0.0
  0
LINE
  5
7948C
  8
GRID
  6
DASHED
 10
66315.473003359235
 20
15409.04532556463
 30
0.0
 11
64755.322030710253
 21
15409.045287580921
 31
0.0
  0
LINE
  5
7948D
  8
GRID
  6
DASHED
 10
66315.473008715373
 20
15474.045325564621
 30
0.0
 11
64755.322036066398
 21
15474.045287580921
 31
0.0
  0
LINE
  5
7948E
  8
GRID
  6
DASHED
 10
66315.473007132867
 20
15539.04532556463
 30
0.0
 11
64755.322034483892
 21
15539.045287580921
 31
0.0
  0
LINE
  5
7948F
  8
GRID
  6
DASHED
 10
66315.474163863299
 20
15604.04517896164
 30
0.0
 11
64755.323194178847
 21
15604.045141531729
 31
0.0
  0
LINE
  5
79490
  8
GRID
  6
DASHED
 10
66315.47416349272
 20
15669.045178961651
 30
0.0
 11
64755.323194178847
 21
15669.04514080861
 31
0.0
  0
LINE
  5
809B8
  8
TRACK
 10
25465.470264062711
 20
50177.717372478692
 30
0.0
 11
22698.209861270429
 21
50177.634749356701
 31
0.0
  0
LINE
  5
809BA
  8
TRACK
 10
24750.653866855111
 20
50042.611512697062
 30
0.0
 11
23455.924790496221
 21
50042.734022426463
 31
0.0
  0
ARC
  5
809BB
  8
TRACK
 10
23462.41155560347
 20
51262.73401745825
 30
0.0
 40
1220.0
 50
255.64557225633001
 51
269.9950073975246
  0
ARC
  5
809BC
  8
TRACK
 10
23462.41155560347
 20
51262.73401745825
 30
0.0
 40
1200.0
 50
255.64557225633001
 51
269.9950073975246
  0
LINE
  5
809BD
  8
TRACK
 10
24750.653866855118
 20
50062.612201089571
 30
0.0
 11
23455.926533243259
 21
50062.734022350538
 31
0.0
  0
LINE
  5
809C0
  8
TRACK
 10
25461.759491891211
 20
50222.645070126957
 30
0.0
 11
22698.209861270429
 21
50222.634720317881
 31
0.0
  0
LINE
  5
809C2
  8
TRACK
 10
25461.75503262191
 20
50202.645087901568
 30
0.0
 11
22698.209861270429
 21
50202.63388504833
 31
0.0
  0
LINE
  5
809C4
  8
TRACK
 10
24516.920972861772
 20
50233.274197246312
 30
0.0
 11
24164.21732517971
 21
50174.031969720301
 31
0.0
  0
LINE
  5
809C5
  8
TRACK
 10
24513.608161986798
 20
50252.997298960821
 30
0.0
 11
24160.904412668799
 21
50193.755676539622
 31
0.0
  0
ARC
  5
809C6
  8
TRACK
 10
23967.099030780959
 20
51347.592525470762
 30
0.0
 40
1170.0
 50
270.00427834562288
 51
279.53474221304981
  0
ARC
  5
809C7
  8
TRACK
 10
23967.099030780959
 20
51347.592525470762
 30
0.0
 40
1190.0
 50
270.00427834562288
 51
279.53474221304981
  0
LINE
  5
809C8
  8
TRACK
 10
23967.186396116838
 20
50177.592528732588
 30
0.0
 11
23967.188043874601
 21
50157.596657856993
 31
0.0
  0
LINE
  5
809C9
  8
TRACK
 10
24247.366089914962
 20
50187.998136703041
 30
0.0
 11
24244.053177404028
 21
50207.721843522369
 31
0.0
  0
LINE
  5
809CA
  8
TRACK
 10
24423.905318766501
 20
50202.562052790898
 30
0.0
 11
24423.926801508569
 21
50222.554389917423
 31
0.0
  0
ARC
  5
809CB
  8
TRACK
 10
24421.512516329829
 20
49153.756363362692
 30
0.0
 40
1068.80075334002
 50
89.87057599979353
 51
99.557419672196275
  0
ARC
  5
809CC
  8
TRACK
 10
24421.646030846259
 20
49152.689858510821
 30
0.0
 40
1049.874625231201
 50
89.876701694338664
 51
99.555373100035311
  0
LINE
  5
809CE
  8
TRACK
 10
24164.636520325341
 20
50157.180094116877
 30
0.0
 11
24164.63803135751
 21
50177.179038940041
 31
0.0
  0
LINE
  5
809CF
  8
TRACK
 10
24199.936271994022
 20
50180.031539013311
 30
0.0
 11
24196.62342316487
 21
50199.755193240628
 31
0.0
  0
LINE
  5
809D2
  8
TRACK
 10
25450.692856604779
 20
50267.729849056879
 30
0.0
 11
24354.658887220168
 21
50267.904527016348
 31
0.0
  0
LINE
  5
809D3
  8
TRACK
 10
25450.689539122912
 20
50247.72984933202
 30
0.0
 11
24354.6573943277
 21
50247.91165267249
 31
0.0
  0
LINE
  5
809D4
  8
TRACK
 10
24354.65863035465
 20
50267.574070180257
 30
0.0
 11
24354.65732064785
 21
50247.581195821287
 31
0.0
  0
LINE
  5
809D5
  8
TRACK
 10
24516.920972860709
 20
50233.27419724613
 30
0.0
 11
24513.608060349779
 21
50252.997904065451
 31
0.0
  0
LINE
  5
809D6
  8
TRACK
 10
24693.46020171226
 20
50247.838113333972
 30
0.0
 11
24693.48168445432
 21
50267.830450460518
 31
0.0
  0
ARC
  5
809D7
  8
TRACK
 10
24691.06739927558
 20
49199.032423905803
 30
0.0
 40
1068.80075334002
 50
89.87057599979353
 51
99.557419672196275
  0
ARC
  5
809D8
  8
TRACK
 10
24691.20091379201
 20
49197.965919053917
 30
0.0
 40
1049.874625231201
 50
89.876701694345172
 51
99.555373100035311
  0
LINE
  5
809D9
  8
TRACK
 10
24926.27617211462
 20
50282.300065245203
 30
0.0
 11
24761.84759222874
 21
50309.918479189582
 31
0.0
  0
LINE
  5
809DA
  8
TRACK
 10
24922.963361240709
 20
50262.576963530497
 30
0.0
 11
24758.534679717839
 21
50290.194772370232
 31
0.0
  0
LINE
  5
809DB
  8
TRACK
 10
24926.276273751639
 20
50282.300670349832
 30
0.0
 11
24922.963361240709
 21
50262.576963530497
 31
0.0
  0
LINE
  5
809DC
  8
TRACK
 10
25102.815502603189
 20
50267.736754261983
 30
0.0
 11
25102.83698534526
 21
50247.744417135458
 31
0.0
  0
ARC
  5
809DD
  8
TRACK
 10
25100.42270016652
 20
51316.542443690189
 30
0.0
 40
1068.80075334002
 50
260.44258032777242
 51
270.12942400020643
  0
ARC
  5
809DE
  8
TRACK
 10
25100.55621468294
 20
51317.60894854206
 30
0.0
 40
1049.874625231201
 50
260.44462689993958
 51
270.12329830566131
  0
LINE
  5
809DF
  8
TRACK
 10
24224.92331004993
 20
50177.684184715094
 30
0.0
 11
24224.924961410601
 21
50157.68440236969
 31
0.0
  0
LINE
  5
809E0
  8
TRACK
 10
24505.103007450962
 20
50147.191049886518
 30
0.0
 11
24421.95424271571
 21
50161.15721686928
 31
0.0
  0
LINE
  5
809E1
  8
TRACK
 10
24501.790119006859
 20
50127.467486351132
 30
0.0
 11
24418.641330204799
 21
50141.433510049952
 31
0.0
  0
ARC
  5
809E2
  8
TRACK
 10
24223.236981809459
 20
48974.853920158363
 30
0.0
 40
1182.831686641608
 50
80.491119733964453
 51
89.918235078608689
  0
ARC
  5
809E3
  8
TRACK
 10
24223.241364227179
 20
48974.88884522608
 30
0.0
 40
1202.796515474761
 50
80.490620754473341
 51
89.919879691054348
  0
LINE
  5
809E4
  8
TRACK
 10
24505.103007450951
 20
50147.191049886518
 30
0.0
 11
24501.790094940028
 21
50127.467343067219
 31
0.0
  0
ARC
  5
809E5
  8
TRACK
 10
24679.249433865829
 20
51181.432823226882
 30
0.0
 40
1068.80075334002
 50
260.44258032777242
 51
270.12942400020643
  0
ARC
  5
809E6
  8
TRACK
 10
24679.382948382259
 20
51182.499328078753
 30
0.0
 40
1049.874625231201
 50
260.44462689993958
 51
270.12329830566131
  0
LINE
  5
809E7
  8
TRACK
 10
24457.673189530029
 20
50155.15764757627
 30
0.0
 11
24454.36034070087
 21
50135.433993348946
 31
0.0
  0
LINE
  5
809E8
  8
TRACK
 10
25465.471619991142
 20
50132.717372499137
 30
0.0
 11
24681.663719046959
 21
50132.58812366223
 31
0.0
  0
LINE
  5
809E9
  8
TRACK
 10
25465.466876578321
 20
50112.786759866562
 30
0.0
 11
24681.66371904697
 21
50112.634796672151
 31
0.0
  0
LINE
  5
809EA
  8
TRACK
 10
24681.66371904697
 20
50112.634796672151
 30
0.0
 11
24681.66371904697
 21
50132.58812366223
 31
0.0
  0
LINE
  5
809EB
  8
TRACK
 10
24505.103007450962
 20
50098.031870447878
 30
0.0
 11
24273.47638724987
 21
50059.126469198942
 31
0.0
  0
LINE
  5
809EC
  8
TRACK
 10
24501.790119006859
 20
50117.755433983279
 30
0.0
 11
24270.16347800447
 21
50078.872774035663
 31
0.0
  0
ARC
  5
809ED
  8
TRACK
 10
24076.358096118169
 20
51232.70962296705
 30
0.0
 40
1170.0
 50
270.00427834562288
 51
279.5347422130435
  0
ARC
  5
809EE
  8
TRACK
 10
24076.223353428199
 20
51235.942158570309
 30
0.0
 40
1193.232553236149
 50
270.01073673257002
 51
279.51523180339763
  0
LINE
  5
809EF
  8
TRACK
 10
24076.445461454048
 20
50062.709626228861
 30
0.0
 11
24076.447109211811
 21
50042.713755353281
 31
0.0
  0
LINE
  5
809F0
  8
TRACK
 10
24505.103007450951
 20
50098.031870447878
 30
0.0
 11
24501.790094940028
 21
50117.75557726722
 31
0.0
  0
ARC
  5
809F1
  8
TRACK
 10
24679.249433865829
 20
49063.790097107543
 30
0.0
 40
1068.80075334002
 50
89.87057599979353
 51
99.557419672281824
  0
ARC
  5
809F2
  8
TRACK
 10
24679.382948382259
 20
49062.723592255672
 30
0.0
 40
1049.874625231201
 50
89.876701694338664
 51
99.555373100095906
  0
LINE
  5
809F3
  8
TRACK
 10
24750.63238411153
 20
50112.634796672151
 30
0.0
 11
24750.63238411153
 21
50132.58812366223
 31
0.0
  0
LINE
  5
809F4
  8
TRACK
 10
24927.193095707538
 20
50098.031870447878
 30
0.0
 11
25169.033471327159
 21
50057.410905364013
 31
0.0
  0
LINE
  5
809F5
  8
TRACK
 10
24930.505984151641
 20
50117.755433983279
 30
0.0
 11
25172.346383838922
 21
50077.176117177158
 31
0.0
  0
LINE
  5
809F6
  8
TRACK
 10
24927.193095707538
 20
50098.031870447878
 30
0.0
 11
24930.506008218468
 21
50117.75557726722
 31
0.0
  0
ARC
  5
809F7
  8
TRACK
 10
24753.046669292671
 20
49063.790097107543
 30
0.0
 40
1068.80075334002
 50
80.442580327784952
 51
90.129424000193438
  0
ARC
  5
809F8
  8
TRACK
 10
24752.913154776241
 20
49062.723592255672
 30
0.0
 40
1049.874625231201
 50
80.444626899977123
 51
90.123298305706882
  0
LINE
  5
809F9
  8
TRACK
 10
24927.193095707538
 20
50077.176117177412
 30
0.0
 11
25168.786737491169
 21
50117.673960806831
 31
0.0
  0
LINE
  5
809FA
  8
TRACK
 10
24930.505984151641
 20
50057.452553642011
 30
0.0
 11
25172.099650002099
 21
50097.95025398751
 31
0.0
  0
LINE
  5
809FB
  8
TRACK
 10
24927.193095707538
 20
50077.176117177412
 30
0.0
 11
24930.506008218468
 21
50057.452410358077
 31
0.0
  0
ARC
  5
809FC
  8
TRACK
 10
24753.046669292671
 20
51111.417890517761
 30
0.0
 40
1068.80075334002
 50
269.87057599980648
 51
279.55741967224623
  0
ARC
  5
809FD
  8
TRACK
 10
24752.913154776241
 20
51112.484395369633
 30
0.0
 40
1049.874625231201
 50
269.87670169429299
 51
279.55537310004161
  0
LINE
  5
809FE
  8
TRACK
 10
24750.653866856221
 20
50062.612201089571
 30
0.0
 11
24750.63238411416
 21
50042.619863963017
 31
0.0
  0
LINE
  5
809FF
  8
TRACK
 10
25348.660361598111
 20
50112.553180211813
 30
0.0
 11
25348.660361598111
 21
50132.506507201892
 31
0.0
  0
LINE
  5
80A00
  8
TRACK
 10
25172.099650002099
 20
50097.95025398751
 30
0.0
 11
25168.786737491169
 21
50117.673960806831
 31
0.0
  0
ARC
  5
80A01
  8
TRACK
 10
25346.24607641697
 20
49063.708480647168
 30
0.0
 40
1068.80075334002
 50
89.870575999806533
 51
99.557419672215019
  0
ARC
  5
80A02
  8
TRACK
 10
25346.3795909334
 20
49062.641975795283
 30
0.0
 40
1049.874625231201
 50
89.876701694293047
 51
99.555373100016595
  0
LINE
  5
80A03
  8
TRACK
 10
25348.885612689861
 20
50042.611512697062
 30
0.0
 11
25465.45022945711
 21
50042.839796109787
 31
0.0
  0
LINE
  5
80A04
  8
TRACK
 10
25348.885612689861
 20
50062.612201089571
 30
0.0
 11
25465.454989939892
 21
50062.842132392951
 31
0.0
  0
ARC
  5
80A05
  8
TRACK
 10
25346.492810252312
 20
51111.417890517761
 30
0.0
 40
1068.80075334002
 50
260.44258032778498
 51
270.12942400019352
  0
ARC
  5
80A06
  8
TRACK
 10
25346.626324768731
 20
51112.484395369633
 30
0.0
 40
1049.874625231201
 50
260.44462689998329
 51
270.12329830570701
  0
LINE
  5
80A07
  8
TRACK
 10
25348.885612688751
 20
50062.612201089571
 30
0.0
 11
25348.907095430812
 21
50042.619863963017
 31
0.0
  0
LINE
  5
80A14
  8
TRACK
 10
22718.209863366261
 20
50222.65904008635
 30
0.0
 11
22718.209863365249
 21
50222.639832458692
 31
0.0
  0
LINE
  5
80A15
  8
TRACK
 10
22727.538315664529
 20
50177.634720341681
 30
0.0
 11
22727.538314609661
 21
50157.634720341674
 31
0.0
  0
LINE
  5
80A1B
  8
TRACK
 10
23698.204647222279
 20
50402.58239178903
 30
0.0
 11
24172.69619800997
 21
50375.709975891907
 31
0.0
  0
LINE
  5
80A1C
  8
TRACK
 10
23697.073776772781
 20
50382.614389084032
 30
0.0
 11
24171.565327560478
 21
50355.741973186901
 31
0.0
  0
ARC
  5
80A1D
  8
TRACK
 10
23867.361176644979
 20
44984.34924554488
 30
0.0
 40
5400.0
 50
80.465257786864626
 51
86.758566000276119
  0
ARC
  5
80A1E
  8
TRACK
 10
23867.361176644979
 20
44984.34924554488
 30
0.0
 40
5380.0
 50
80.465257786864626
 51
86.758566000276119
  0
LINE
  5
80A27
  8
TRACK
 10
23164.908262197769
 20
50100.197226465047
 30
0.0
 11
22992.843671551589
 21
50144.230054322499
 31
0.0
  0
LINE
  5
80A28
  8
TRACK
 10
23159.94987397435
 20
50080.821613281827
 30
0.0
 11
22987.885393524171
 21
50124.854412939152
 31
0.0
  0
ARC
  5
80A2F
  8
TRACK
 10
25461.339244798139
 20
48337.821833647569
 30
0.0
 40
1864.840989829029
 50
81.661327531622902
 51
89.987225123334198
  0
ARC
  5
80A30
  8
TRACK
 10
25461.339244798139
 20
48337.821833647569
 30
0.0
 40
1884.840989829029
 50
81.661327531622902
 51
89.987225123334198
  0
ARC
  5
80A31
  8
TRACK
 10
25556.306943979511
 20
48985.739928835741
 30
0.0
 40
1229.9999999999991
 50
80.047636281820616
 51
81.661327531622902
  0
ARC
  5
80A32
  8
TRACK
 10
25556.306943979511
 20
48985.739928835741
 30
0.0
 40
1210.0
 50
80.047636281820616
 51
81.661327531622902
  0
LINE
  5
80A6C
  8
TRACK
 10
24354.43653338472
 20
50412.255328788277
 30
0.0
 11
24457.103536608251
 21
50412.255328788277
 31
0.0
  0
LINE
  5
80A6D
  8
TRACK
 10
24354.43653338472
 20
50392.255328788298
 30
0.0
 11
24457.103536608251
 21
50392.255328788298
 31
0.0
  0
LINE
  5
80A6E
  8
TRACK
 10
25295.866804091718
 20
50326.529415157063
 30
0.0
 11
25689.147366373069
 21
50244.15909294122
 31
0.0
  0
LINE
  5
80A6F
  8
TRACK
 10
25291.766880878291
 20
50306.954159612258
 30
0.0
 11
25685.047443159659
 21
50224.583837396429
 31
0.0
  0
ARC
  5
80A70
  8
TRACK
 10
24382.499285580841
 20
45536.11387718781
 30
0.0
 40
4876.7121352698077
 50
79.205229323971011
 51
89.123451345016093
  0
ARC
  5
80A71
  8
TRACK
 10
24382.499285580841
 20
45536.11387718781
 30
0.0
 40
4856.7121352698077
 50
79.205229323971011
 51
89.123451345016093
  0
ARC
  5
80A79
  8
TRACK
 10
25557.998699566549
 20
48995.595858545101
 30
0.0
 40
1200.0
 50
58.671356295707781
 51
80.045894108351263
  0
ARC
  5
80A7A
  8
TRACK
 10
25557.998699566549
 20
48995.595858545101
 30
0.0
 40
1220.0
 50
58.671356295707781
 51
80.045894108351263
  0
ARC
  5
80A7B
  8
TRACK
 10
25353.538720870201
 20
48717.561282056493
 30
0.0
 40
1544.0981922962019
 50
57.55488735842426
 51
73.183631459852506
  0
ARC
  5
80A7C
  8
TRACK
 10
25353.571596037891
 20
48717.66608131212
 30
0.0
 40
1563.988359122028
 50
57.568120296781487
 51
73.183179366737932
  0
LINE
  5
80A7D
  8
TRACK
 10
26181.934156292609
 20
50020.634660659482
 30
0.0
 11
26192.333080571381
 21
50037.718640694729
 31
0.0
  0
LINE
  5
80A7E
  8
TRACK
 10
25800.254475934082
 20
50195.629028010691
 30
0.0
 11
25806.05349425388
 21
50214.76985836168
 31
0.0
  0
LINE
  5
80A7F
  8
TRACK
 10
25768.887030663089
 20
50197.23062493933
 30
0.0
 11
25765.429844907419
 21
50177.53169434271
 31
0.0
  0
ARC
  5
80A80
  8
TRACK
 10
25676.265828880591
 20
48901.325813139832
 30
0.0
 40
1200.0
 50
44.201356295790532
 51
65.575894108392674
  0
ARC
  5
80A81
  8
TRACK
 10
25676.265828880591
 20
48901.325813139832
 30
0.0
 40
1220.0
 50
44.201356295790532
 51
65.575894108392674
  0
ARC
  5
80A82
  8
TRACK
 10
25246.129366312889
 20
48483.01656919493
 30
0.0
 40
1800.0
 50
44.201356295790532
 51
58.674982542186271
  0
ARC
  5
80A83
  8
TRACK
 10
25246.129366312889
 20
48483.01656919493
 30
0.0
 40
1820.0
 50
44.201356295790532
 51
58.674982542186271
  0
LINE
  5
80A84
  8
TRACK
 10
26536.53875401599
 20
49737.944301029609
 30
0.0
 11
26550.87663610157
 21
49751.887942494453
 31
0.0
  0
LINE
  5
80A85
  8
TRACK
 10
26181.935237557162
 20
50020.634002545899
 30
0.0
 11
26192.333080570981
 21
50037.71864069422
 31
0.0
  0
LINE
  5
80A86
  8
TRACK
 10
26180.720630872169
 20
50012.14773979938
 30
0.0
 11
26172.45088001986
 21
49993.937544280372
 31
0.0
  0
LINE
  5
80A87
  8
TRACK
 10
26127.099145670581
 20
50014.5330147352
 30
0.0
 11
26172.45088001986
 21
49993.937544280372
 31
0.0
  0
LINE
  5
80A88
  8
TRACK
 10
26135.36889652289
 20
50032.743210254237
 30
0.0
 11
26180.720630872169
 21
50012.14773979938
 31
0.0
  0
ARC
  5
80A89
  8
TRACK
 10
25465.519077485718
 20
48557.717373214116
 30
0.0
 40
1600.0
 50
65.575894108528601
 51
90.001726421681724
  0
ARC
  5
80A8A
  8
TRACK
 10
25465.519077485689
 20
48557.717373214007
 30
0.0
 40
1555.000000000083
 50
57.408028510286663
 51
90.001726421681724
  0
ARC
  5
80A8B
  8
TRACK
 10
25465.519077485689
 20
48557.717373214007
 30
0.0
 40
1485.050000000082
 50
65.379171913662603
 51
90.001726421681724
  0
ARC
  5
80A8C
  8
TRACK
 10
25465.519077485718
 20
48557.717373214116
 30
0.0
 40
1620.0
 50
65.575894108528601
 51
90.001726421681724
  0
ARC
  5
80A8D
  8
TRACK
 10
25465.5190774857
 20
48557.717373214051
 30
0.0
 40
1575.000000000073
 50
57.408028510286663
 51
90.001726421681724
  0
ARC
  5
80A8E
  8
TRACK
 10
25465.5190774857
 20
48557.717373214051
 30
0.0
 40
1505.0500000000729
 50
65.379171913662603
 51
90.001726421681724
  0
LINE
  5
80A8F
  8
TRACK
 10
25465.47086669756
 20
50157.717372487787
 30
0.0
 11
25465.470866697571
 21
50177.717372496751
 31
0.0
  0
LINE
  5
80A90
  8
TRACK
 10
26303.124075698819
 20
49867.848231933371
 30
0.0
 11
26313.89713033821
 21
49884.698789601789
 31
0.0
  0
LINE
  5
80A91
  8
TRACK
 10
26084.207672306839
 20
49907.753641296673
 30
0.0
 11
26092.539898088071
 21
49925.935335759248
 31
0.0
  0
LINE
  5
80A92
  8
TRACK
 10
26538.4758793664
 20
49736.196504307532
 30
0.0
 11
26550.876636101952
 21
49751.887942494817
 31
0.0
  0
ARC
  5
80A98
  8
TRACK
 10
25450.480198765192
 20
49047.590097384091
 30
0.0
 40
1200.139770205551
 50
73.055536761583085
 51
89.990005898199811
  0
ARC
  5
80A99
  8
TRACK
 10
25450.4803637367
 20
49047.592337867631
 30
0.0
 40
1220.1375296925739
 50
73.057613883662754
 51
89.990021662082896
  0
LINE
  5
80A9A
  8
TRACK
 10
25450.692856604779
 20
50267.729849056879
 30
0.0
 11
25450.692856604779
 21
50247.72984877714
 31
0.0
  0
LINE
  5
80A9B
  8
TRACK
 10
25689.147366373069
 20
50244.15909294122
 30
0.0
 11
25685.23495856714
 21
50224.545499054322
 31
0.0
  0
ARC
  5
80ACB
  8
TRACK
 10
22727.5700117942
 20
49107.634720820111
 30
0.0
 40
1050.0
 50
75.645572256331818
 51
90.0017296332353
  0
ARC
  5
80ACC
  8
TRACK
 10
22698.23827298449
 20
49107.691319181722
 30
0.0
 40
1049.9434015443719
 50
90.001550437196926
 51
103.2920915619793
  0
ARC
  5
80AD4
  8
TRACK
 10
22698.23827298449
 20
49107.691319181722
 30
0.0
 40
1069.9434015443719
 50
90.001550437196926
 51
103.2920915619793
  0
ARC
  5
80AD5
  8
TRACK
 10
22698.238272388178
 20
49107.691322573817
 30
0.0
 40
1114.9433981060299
 50
90.001460017738523
 51
103.2920915722347
  0
ARC
  5
80AD6
  8
TRACK
 10
22698.227493222581
 20
49107.752645403278
 30
0.0
 40
1094.881239787039
 50
90.000922690430542
 51
103.29228041598491
  0
LINE
  5
80AD7
  8
TRACK
 10
25465.470805267389
 20
50157.717372485997
 30
0.0
 11
22698.210402475099
 21
50157.634749364013
 31
0.0
  0
ARC
  5
80AD8
  8
TRACK
 10
22727.5700117942
 20
49107.634720820111
 30
0.0
 40
1070.0
 50
75.645572256331818
 51
90.0017296332353
  0
VIEWPORT
  5
1FB
 67
     1
  8
0
 10
414.70625019073458
 20
307.38284363502009
 30
0.0
 40
1011.083563995183
 41
654.12861252473272
 68
    -1
 69
     1
1001
ACAD
1000
MVIEW
1002
{
1070
    16
1010
0.0
1020
0.0
1030
0.0
1010
0.0
1020
0.0
1030
1.0
1040
0.0
1040
654.12861252473272
1040
414.70625019073458
1040
307.38284363502009
1040
50.0
1040
0.0
1040
0.0
1070
     0
1070
 10000
1070
     1
1070
     1
1070
     0
1070
     0
1070
     0
1070
     0
1040
0.0
1040
0.0
1040
0.0
1040
12.0
1040
12.0
1040
120.0
1040
120.0
1070
     0
1002
{
1002
}
1002
}
  0
VIEWPORT
  5
BCE
 67
     1
  8
G-ANNO-VIEW
 10
206.5
 20
277.0
 30
0.0
 40
413.0
 41
554.0
 68
    -1
 69
     2
1001
ACAD
1000
MVIEW
1002
{
1070
    16
1010
0.0
1020
0.0
1030
0.0
1010
-1.0
1020
-1.0
1030
1.0
1040
0.0
1040
90862.031480862046
1040
4313.3513652379406
1040
19391.793797033501
1040
50.0
1040
0.0
1040
0.0
1070
     0
1070
 10000
1070
     1
1070
     1
1070
     1
1070
     1
1070
     0
1070
     0
1040
0.0
1040
0.0
1040
0.0
1040
1.0
1040
1.0
1040
3000.0
1040
3000.0
1070
     0
1002
{
1002
}
1002
}
1001
AECBASE
1070
 10000
1005
1EA
  0
VIEWPORT
  5
1040
 67
     1
  8
G-ANNO-VIEW
 10
619.5
 20
277.0
 30
0.0
 40
413.0
 41
554.0
 68
     1
 69
     3
1001
ACAD
1000
MVIEW
1002
{
1070
    16
1010
0.0
1020
0.0
1030
0.0
1010
0.0
1020
0.0
1030
1.0
1040
0.0
1040
72500.941169319281
1040
26800.0
1040
20700.0
1040
50.0
1040
0.0
1040
0.0
1070
     0
1070
 10000
1070
     1
1070
     1
1070
     1
1070
     1
1070
     0
1070
     0
1040
0.0
1040
0.0
1040
0.0
1040
1.0
1040
1.0
1040
3000.0
1040
3000.0
1070
     0
1002
{
1002
}
1002
}
1001
AECBASE
1070
 10000
1005
1EA
  0
ENDSEC
  0
EOF
