  0
SECTION
  2
HEADER
  9
$ACADVER
  1
AC1015
  9
$ACADMAINTVER
 70
     6
  9
$DWGCODEPAGE
  3
ANSI_1252
  9
$INSBASE
 10
0.0
 20
0.0
 30
0.0
  9
$EXTMIN
 10
0.0
 20
-2.766677
 30
0.0
  9
$EXTMAX
 10
7010.399902
 20
2745.057617
 30
0.0
  9
$LIMMIN
 10
3451.969945
 20
1333.809974
  9
$LIMMAX
 10
10462.369847
 20
4077.009925
  9
$ORTHOMODE
 70
     1
  9
$REGENMODE
 70
     1
  9
$FILLMODE
 70
     1
  9
$QTEXTMODE
 70
     0
  9
$MIRRTEXT
 70
     1
  9
$LTSCALE
 40
1.0
  9
$ATTMODE
 70
     1
  9
$TEXTSIZE
 40
10.0
  9
$TRACEWID
 40
0.05
  9
$TEXTSTYLE
  7
STANDARD
  9
$CLAYER
  8
0
  9
$CELTYPE
  6
Continuous
  9
$CECOLOR
 62
     7
  9
$CELTSCALE
 40
1.0
  9
$DISPSILH
 70
     0
  9
$DIMSCALE
 40
25.4
  9
$DIMASZ
 40
0.18
  9
$DIMEXO
 40
0.0625
  9
$DIMDLI
 40
0.38
  9
$DIMRND
 40
0.0
  9
$DIMDLE
 40
0.0
  9
$DIMEXE
 40
0.18
  9
$DIMTP
 40
0.0
  9
$DIMTM
 40
0.0
  9
$DIMTXT
 40
0.18
  9
$DIMCEN
 40
0.09
  9
$DIMTSZ
 40
0.0
  9
$DIMTOL
 70
     0
  9
$DIMLIM
 70
     0
  9
$DIMTIH
 70
     1
  9
$DIMTOH
 70
     1
  9
$DIMSE1
 70
     0
  9
$DIMSE2
 70
     0
  9
$DIMTAD
 70
     0
  9
$DIMZIN
 70
     0
  9
$DIMBLK
  1

  9
$DIMASO
 70
     0
  9
$DIMSHO
 70
     1
  9
$DIMPOST
  1

  9
$DIMAPOST
  1

  9
$DIMALT
 70
     0
  9
$DIMALTD
 70
     2
  9
$DIMALTF
 40
25.4
  9
$DIMLFAC
 40
0.03937
  9
$DIMTOFL
 70
     0
  9
$DIMTVP
 40
0.0
  9
$DIMTIX
 70
     0
  9
$DIMSOXD
 70
     0
  9
$DIMSAH
 70
     0
  9
$DIMBLK1
  1

  9
$DIMBLK2
  1

  9
$DIMSTYLE
  2
STANDARD
  9
$DIMCLRD
 70
     0
  9
$DIMCLRE
 70
     0
  9
$DIMCLRT
 70
     0
  9
$DIMTFAC
 40
1.0
  9
$DIMGAP
 40
0.09
  9
$DIMJUST
 70
     0
  9
$DIMSD1
 70
     0
  9
$DIMSD2
 70
     0
  9
$DIMTOLJ
 70
     1
  9
$DIMTZIN
 70
     0
  9
$DIMALTZ
 70
     0
  9
$DIMALTTZ
 70
     0
  9
$DIMUPT
 70
     0
  9
$DIMDEC
 70
     4
  9
$DIMTDEC
 70
     4
  9
$DIMALTU
 70
     2
  9
$DIMALTTD
 70
     2
  9
$DIMTXSTY
  7
STANDARD
  9
$DIMAUNIT
 70
     0
  9
$DIMADEC
 70
     4
  9
$DIMALTRND
 40
0.0
  9
$DIMAZIN
 70
     0
  9
$DIMDSEP
 70
     0
  9
$DIMATFIT
 70
     0
  9
$DIMFRAC
 70
     0
  9
$DIMLDRBLK
  1

  9
$DIMLUNIT
 70
     2
  9
$DIMLWD
 70
     0
  9
$DIMLWE
 70
     0
  9
$DIMTMOVE
 70
     0
  9
$LUNITS
 70
     2
  9
$LUPREC
 70
     4
  9
$SKETCHINC
 40
0.1
  9
$FILLETRAD
 40
0.5
  9
$AUNITS
 70
     0
  9
$AUPREC
 70
     0
  9
$MENU
  1
acad
  9
$ELEVATION
 40
0.0
  9
$PELEVATION
 40
0.0
  9
$THICKNESS
 40
0.0
  9
$LIMCHECK
 70
     0
  9
$CHAMFERA
 40
0.0
  9
$CHAMFERB
 40
0.0
  9
$CHAMFERC
 40
0.0
  9
$CHAMFERD
 40
0.0
  9
$SKPOLY
 70
     0
  9
$TDCREATE
 40
0.000000000
  9
$TDUCREATE
 40
0.000000000
  9
$TDUPDATE
 40
0.000000000
  9
$TDUUPDATE
 40
0.000000000
  9
$TDINDWG
 40
0.3181694676
  9
$TDUSRTIMER
 40
0.0000000000
  9
$USRTIMER
 70
     1
  9
$ANGBASE
 50
0.0
  9
$ANGDIR
 70
     0
  9
$PDMODE
 70
    35
  9
$PDSIZE
 40
3.0
  9
$PLINEWID
 40
0.0
  9
$SPLFRAME
 70
     0
  9
$SPLINETYPE
 70
     6
  9
$SPLINESEGS
 70
     8
  9
$HANDSEED
  5
506
  9
$SURFTAB1
 70
     6
  9
$SURFTAB2
 70
     6
  9
$SURFTYPE
 70
     6
  9
$SURFU
 70
     6
  9
$SURFV
 70
     6
  9
$UCSBASE
  2

  9
$UCSNAME
  2

  9
$UCSORG
 10
0.0
 20
0.0
 30
0.0
  9
$UCSXDIR
 10
1.0
 20
0.0
 30
0.0
  9
$UCSYDIR
 10
0.0
 20
1.0
 30
0.0
  9
$UCSORTHOREF
  2

  9
$UCSORTHOVIEW
 70
     0
  9
$UCSORGTOP
 10
0.0
 20
0.0
 30
0.0
  9
$UCSORGBOTTOM
 10
0.0
 20
0.0
 30
0.0
  9
$UCSORGLEFT
 10
0.0
 20
0.0
 30
0.0
  9
$UCSORGRIGHT
 10
0.0
 20
0.0
 30
0.0
  9
$UCSORGFRONT
 10
0.0
 20
0.0
 30
0.0
  9
$UCSORGBACK
 10
0.0
 20
0.0
 30
0.0
  9
$PUCSBASE
  2

  9
$PUCSNAME
  2

  9
$PUCSORG
 10
0.0
 20
0.0
 30
0.0
  9
$PUCSXDIR
 10
1.0
 20
0.0
 30
0.0
  9
$PUCSYDIR
 10
0.0
 20
1.0
 30
0.0
  9
$PUCSORTHOREF
  2

  9
$PUCSORTHOVIEW
 70
     0
  9
$PUCSORGTOP
 10
0.0
 20
0.0
 30
0.0
  9
$PUCSORGBOTTOM
 10
0.0
 20
0.0
 30
0.0
  9
$PUCSORGLEFT
 10
0.0
 20
0.0
 30
0.0
  9
$PUCSORGRIGHT
 10
0.0
 20
0.0
 30
0.0
  9
$PUCSORGFRONT
 10
0.0
 20
0.0
 30
0.0
  9
$PUCSORGBACK
 10
0.0
 20
0.0
 30
0.0
  9
$USERI1
 70
     0
  9
$USERI2
 70
     0
  9
$USERI3
 70
     0
  9
$USERI4
 70
     0
  9
$USERI5
 70
     0
  9
$USERR1
 40
0.0
  9
$USERR2
 40
0.0
  9
$USERR3
 40
0.0
  9
$USERR4
 40
0.0
  9
$USERR5
 40
0.0
  9
$WORLDVIEW
 70
     1
  9
$SHADEDGE
 70
     3
  9
$SHADEDIF
 70
    70
  9
$TILEMODE
 70
     1
  9
$MAXACTVP
 70
    16
  9
$PINSBASE
 10
0.0
 20
0.0
 30
0.0
  9
$PLIMCHECK
 70
     0
  9
$PEXTMIN
 10
4.851627
 20
-73.972513
 30
0.0
  9
$PEXTMAX
 10
919.207465
 20
535.583946
 30
0.0
  9
$PLIMMIN
 10
4.851627
 20
-73.972513
  9
$PLIMMAX
 10
919.207465
 20
535.583946
  9
$UNITMODE
 70
     0
  9
$VISRETAIN
 70
     0
  9
$PLINEGEN
 70
     1
  9
$PSLTSCALE
 70
     1
  9
$TREEDEPTH
 70
  3020
  9
$CMLSTYLE
  2
STANDARD
  9
$CMLJUST
 70
     0
  9
$CMLSCALE
 40
1.0
  9
$PROXYGRAPHICS
 70
     0
  9
$MEASUREMENT
 70
     0
  9
$CELWEIGHT
370
     0
  9
$ENDCAPS
280
     0
  9
$JOINSTYLE
280
     0
  9
$LWDISPLAY
290
     0
  9
$INSUNITS
 70
     0
  9
$HYPERLINKBASE
  1

  9
$XEDIT
290
     1
  9
$CEPSNTYPE
380
     0
  9
$PSTYLEMODE
290
     1
  9
$FINGERPRINTGUID
  2

  9
$VERSIONGUID
  2

  9
$EXTNAMES
290
     1
  9
$PSVPSCALE
 40
0.0
  0
ENDSEC
  0
SECTION
  2
CLASSES
  0
CLASS
  1
LWPOLYLINE
  2
AcDbPolyline
  3
AutoCAD 2000
 90
    32768
280
     0
281
     1
  0
CLASS
  1
IMAGE
  2
AcDbRasterImage
  3
ISM
 90
    32895
280
     0
281
     1
  0
CLASS
  1
OLE2FRAME
  2
AcDbOle2Frame
  3
AutoCAD 2000
 90
    32768
280
     0
281
     1
  0
CLASS
  1
HATCH
  2
AcDbHatch
  3
AutoCAD 2000
 90
    32768
280
     0
281
     1
  0
CLASS
  1
DICTIONARYVAR
  2
AcDbDictionaryVar
  3
AutoCAD 2000
 90
    32768
280
     0
281
     0
  0
CLASS
  1
RASTERVARIABLES
  2
AcDbRasterVariables
  3
ISM
 90
    32768
280
     0
281
     0
  0
CLASS
  1
IMAGEDEF
  2
AcDbRasterImageDef
  3
ISM
 90
    32768
280
     0
281
     0
  0
CLASS
  1
IMAGEDEF_REACTOR
  2
AcDbRasterImageDefReactor
  3
ISM
 90
    32769
280
     0
281
     0
  0
CLASS
  1
IDBUFFER
  2
AcDbIdBuffer
  3
AutoCAD 2000
 90
    32768
280
     0
281
     0
  0
CLASS
  1
SPATIAL_FILTER
  2
AcDbSpatialFilter
  3
AutoCAD 2000
 90
    32768
280
     0
281
     0
  0
CLASS
  1
XRECORD
  2
AcDbXrecord
  3
AutoCAD 2000
 90
    32768
280
     0
281
     0
  0
CLASS
  1
SORTENTSTABLE
  2
AcDbSortentsTable
  3
AutoCAD 2000
 90
    32768
280
     0
281
     0
  0
CLASS
  1
LAYER_INDEX
  2
AcDbLayerIndex
  3
AutoCAD 2000
 90
    32768
280
     0
281
     0
  0
CLASS
  1
SPATIAL_INDEX
  2
AcDbSpatialIndex
  3
AutoCAD 2000
 90
    32768
280
     0
281
     0
  0
CLASS
  1
OBJECT_PTR
  2
CAseDLPNTableRecord
  3
"ASE-LPNTableRecord"
 90
    32769
280
     0
281
     0
  0
CLASS
  1
LAYOUT
  2
AcDbLayout
  3
AutoCAD 2000
 90
        0
280
     0
281
     0
  0
CLASS
  1
PLOTSETTINGS
  2
AcDbPlotSettings
  3
AutoCAD 2000
 90
    32768
280
     0
281
     0
  0
CLASS
  1
ACDBDICTIONARYWDFLT
  2
AcDbDictionaryWithDefault
  3
AutoCAD 2000
 90
        0
280
     0
281
     0
  0
CLASS
  1
ACDBPLACEHOLDER
  2
AcDbPlaceHolder
  3
AutoCAD 2000
 90
        0
280
     0
281
     0
  0
ENDSEC
  0
SECTION
  2
TABLES
  0
TABLE
  2
VPORT
  5
7
100
AcDbSymbolTable
 70
     1
  0
VPORT
  5
15
100
AcDbSymbolTableRecord
100
AcDbViewportTableRecord
  2
*ACTIVE
 70
     0
 10
0.0
 20
0.0
 11
1.0
 21
1.0
 12
0.0
 22
0.0
 13
0.0
 23
0.0
 14
0.5
 24
0.5
 15
0.5
 25
0.5
 16
0.0
 26
0.0
 36
1.0
 17
3041.314923
 27
1530.797884
 37
3.0
 40
4915.706055
 41
1.477387
 42
50.0
 43
0.0
 44
0.0
 50
0.0
 51
0.0
 71
     0
 72
   100
 73
     1
 74
     1
 75
     0
 76
     0
 77
     0
 78
     0
281
     0
 65
     0
110
0.0
120
0.0
130
0.0
111
1.0
121
0.0
131
0.0
112
0.0
122
1.0
132
0.0
345
0
346
0
 79
     0
146
0.0
  0
ENDTAB
  0
TABLE
  2
LTYPE
  5
4
100
AcDbSymbolTable
 70
    16
  0
LTYPE
  5
11
100
AcDbSymbolTableRecord
100
AcDbLinetypeTableRecord
  2
ByBlock
 70
    64
  3

 72
    65
 73
     0
 40
0.0
  0
LTYPE
  5
12
100
AcDbSymbolTableRecord
100
AcDbLinetypeTableRecord
  2
ByLayer
 70
    64
  3

 72
    65
 73
     0
 40
0.0
  0
LTYPE
  5
13
100
AcDbSymbolTableRecord
100
AcDbLinetypeTableRecord
  2
Continuous
 70
    64
  3
Solid line
 72
    65
 73
     0
 40
0.0
  0
LTYPE
  5
24
100
AcDbSymbolTableRecord
100
AcDbLinetypeTableRecord
  2
BORDER
 70
     0
  3
BORDER
 72
    65
 73
     6
 40
1.75
 49
0.5
 74
     0
 49
-0.25
 74
     0
 49
0.5
 74
     0
 49
-0.25
 74
     0
 49
0.0
 74
     0
 49
-0.25
 74
     0
  0
LTYPE
  5
25
100
AcDbSymbolTableRecord
100
AcDbLinetypeTableRecord
  2
CENTER
 70
     0
  3
CENTER
 72
    65
 73
     4
 40
2.0
 49
1.25
 74
     0
 49
-0.25
 74
     0
 49
0.25
 74
     0
 49
-0.25
 74
     0
  0
LTYPE
  5
26
100
AcDbSymbolTableRecord
100
AcDbLinetypeTableRecord
  2
DASHDOT
 70
     0
  3
DASHDOT
 72
    65
 73
     4
 40
1.0
 49
0.5
 74
     0
 49
-0.25
 74
     0
 49
0.0
 74
     0
 49
-0.25
 74
     0
  0
LTYPE
  5
27
100
AcDbSymbolTableRecord
100
AcDbLinetypeTableRecord
  2
DASHED
 70
     0
  3
DASHED
 72
    65
 73
     2
 40
0.75
 49
0.5
 74
     0
 49
-0.25
 74
     0
  0
LTYPE
  5
28
100
AcDbSymbolTableRecord
100
AcDbLinetypeTableRecord
  2
DIVIDE
 70
     0
  3
DIVIDE
 72
    65
 73
     6
 40
1.25
 49
0.5
 74
     0
 49
-0.25
 74
     0
 49
0.0
 74
     0
 49
-0.25
 74
     0
 49
0.0
 74
     0
 49
-0.25
 74
     0
  0
LTYPE
  5
29
100
AcDbSymbolTableRecord
100
AcDbLinetypeTableRecord
  2
DOT
 70
     0
  3
DOT
 72
    65
 73
     2
 40
0.25
 49
0.0
 74
     0
 49
-0.25
 74
     0
  0
LTYPE
  5
2A
100
AcDbSymbolTableRecord
100
AcDbLinetypeTableRecord
  2
HIDDEN
 70
     0
  3
HIDDEN
 72
    65
 73
     2
 40
0.375
 49
0.25
 74
     0
 49
-0.125
 74
     0
  0
LTYPE
  5
2B
100
AcDbSymbolTableRecord
100
AcDbLinetypeTableRecord
  2
PHANTOM
 70
     0
  3
PHANTOM
 72
    65
 73
     6
 40
2.5
 49
1.25
 74
     0
 49
-0.25
 74
     0
 49
0.25
 74
     0
 49
-0.25
 74
     0
 49
0.25
 74
     0
 49
-0.25
 74
     0
  0
LTYPE
  5
2C
100
AcDbSymbolTableRecord
100
AcDbLinetypeTableRecord
  2
$INVISIBLE
 70
     0
  3
$INVISIBLE
 72
    65
 73
     2
 40
200.0
 49
-100.0
 74
     0
 49
-100.0
 74
     0
  0
LTYPE
  5
2D
100
AcDbSymbolTableRecord
100
AcDbLinetypeTableRecord
  2
DASHEDX2
 70
     0
  3
DASHEDX2
 72
    65
 73
     2
 40
1.5
 49
1.0
 74
     0
 49
-0.5
 74
     0
  0
LTYPE
  5
2E
100
AcDbSymbolTableRecord
100
AcDbLinetypeTableRecord
  2
HIDDENX2
 70
     0
  3
HIDDENX2
 72
    65
 73
     2
 40
0.75
 49
0.5
 74
     0
 49
-0.25
 74
     0
  0
LTYPE
  5
2F
100
AcDbSymbolTableRecord
100
AcDbLinetypeTableRecord
  2
$SNAPEXT
 70
     0
  3
$SNAPEXT
 72
    65
 73
     2
 40
0.04
 49
0.02
 74
     0
 49
-0.02
 74
     0
  0
LTYPE
  5
30
100
AcDbSymbolTableRecord
100
AcDbLinetypeTableRecord
  2
$AUXILIARY
 70
     0
  3
$AUXILIARY
 72
    65
 73
     2
 40
0.1
 49
0.05
 74
     0
 49
-0.05
 74
     0
  0
ENDTAB
  0
TABLE
  2
LAYER
  5
2
100
AcDbSymbolTable
 70
     8
  0
LAYER
  5
14
100
AcDbSymbolTableRecord
100
AcDbLayerTableRecord
  2
0
 70
     0
 62
     7
  6
Continuous
290
     1
370
    -3
390
0
1001
TCAD
1000
TCW_LAYER_ORDER
1002
{
1071
        0
1002
}
  0
LAYER
  5
31
100
AcDbSymbolTableRecord
100
AcDbLayerTableRecord
  2
Board Numbers
 70
     0
 62
     7
  6
Continuous
290
     1
370
    -3
390
0
1001
TCAD
1000
TCW_LAYER_ORDER
1002
{
1071
        0
1002
}
  0
LAYER
  5
32
100
AcDbSymbolTableRecord
100
AcDbLayerTableRecord
  2
cross
 70
     0
 62
     3
  6
Continuous
290
     1
370
    -3
390
0
1001
TCAD
1000
TCW_LAYER_ORDER
1002
{
1071
        0
1002
}
  0
LAYER
  5
33
100
AcDbSymbolTableRecord
100
AcDbLayerTableRecord
  2
Track  Plan
 70
     0
 62
     7
  6
Continuous
290
     1
370
    -3
390
0
1001
TCAD
1000
TCW_LAYER_ORDER
1002
{
1071
        0
1002
}
  0
LAYER
  5
34
100
AcDbSymbolTableRecord
100
AcDbLayerTableRecord
  2
Text
 70
     0
 62
     7
  6
Continuous
290
     1
370
    -3
390
0
1001
TCAD
1000
TCW_LAYER_ORDER
1002
{
1071
        0
1002
}
  0
LAYER
  5
35
100
AcDbSymbolTableRecord
100
AcDbLayerTableRecord
  2
Scenery
 70
     0
 62
     3
  6
Continuous
290
     1
370
    -3
390
0
1001
TCAD
1000
TCW_LAYER_ORDER
1002
{
1071
        0
1002
}
  0
LAYER
  5
36
100
AcDbSymbolTableRecord
100
AcDbLayerTableRecord
  2
Board Outlines
 70
     0
 62
     7
  6
Continuous
290
     1
370
    -3
390
0
1001
TCAD
1000
TCW_LAYER_ORDER
1002
{
1071
        0
1002
}
  0
LAYER
  5
37
100
AcDbSymbolTableRecord
100
AcDbLayerTableRecord
  2
Tadpole
 70
     0
 62
    71
  6
Continuous
290
     1
370
    -3
390
0
1001
TCAD
1000
TCW_LAYER_ORDER
1002
{
1071
        0
1002
}
  0
ENDTAB
  0
TABLE
  2
STYLE
  5
3
100
AcDbSymbolTable
 70
     1
  0
STYLE
  5
17
100
AcDbSymbolTableRecord
100
AcDbTextStyleTableRecord
  2
STANDARD
 70
     0
 40
0.0
 41
1.0
 50
0.0
 71
     0
 42
10.0
  3
TAHOMA.TTF
  4

1001
ACAD
1000
Tahoma
1071
       34
  0
ENDTAB
  0
TABLE
  2
VIEW
  5
5
100
AcDbSymbolTable
 70
     5
  0
VIEW
  5
38
100
AcDbSymbolTableRecord
100
AcDbViewTableRecord
  2
View_0
 70
     0
 40
8.267716
 10
5.846457
 20
4.133858
 41
11.692913
 11
0.0
 21
0.0
 31
1.0
 12
0.0
 22
0.0
 32
0.0
 42
50.0
 43
0.0
 44
0.0
 50
0.0
 71
     0
281
     0
 72
     0
110
0.0
120
0.0
130
0.0
111
1.0
121
0.0
131
0.0
112
0.0
122
1.0
132
0.0
  0
VIEW
  5
39
100
AcDbSymbolTableRecord
100
AcDbViewTableRecord
  2
Option-1
 70
     0
 40
145.38583
 10
132.000007
 20
48.000002
 41
264.566942
 11
0.0
 21
0.0
 31
1.0
 12
0.0
 22
0.0
 32
0.0
 42
50.0
 43
0.0
 44
0.0
 50
0.0
 71
     0
281
     0
 72
     0
110
0.0
120
0.0
130
0.0
111
1.0
121
0.0
131
0.0
112
0.0
122
1.0
132
0.0
  0
VIEW
  5
3A
100
AcDbSymbolTableRecord
100
AcDbViewTableRecord
  2
Option-2
 70
     0
 40
145.385818
 10
132.000007
 20
259.999992
 41
264.566942
 11
0.0
 21
0.0
 31
1.0
 12
0.0
 22
0.0
 32
0.0
 42
50.0
 43
0.0
 44
0.0
 50
0.0
 71
     0
281
     0
 72
     0
110
0.0
120
0.0
130
0.0
111
1.0
121
0.0
131
0.0
112
0.0
122
1.0
132
0.0
  0
VIEW
  5
3B
100
AcDbSymbolTableRecord
100
AcDbViewTableRecord
  2
Option-3
 70
     0
 40
145.385834
 10
132.000007
 20
460.000015
 41
264.566942
 11
0.0
 21
0.0
 31
1.0
 12
0.0
 22
0.0
 32
0.0
 42
50.0
 43
0.0
 44
0.0
 50
0.0
 71
     0
281
     0
 72
     0
110
0.0
120
0.0
130
0.0
111
1.0
121
0.0
131
0.0
112
0.0
122
1.0
132
0.0
  0
VIEW
  5
3C
100
AcDbSymbolTableRecord
100
AcDbViewTableRecord
  2
Option-4
 70
     0
 40
145.385834
 10
132.000007
 20
-151.76178
 41
264.566941
 11
0.0
 21
0.0
 31
1.0
 12
0.0
 22
0.0
 32
0.0
 42
50.0
 43
0.0
 44
0.0
 50
0.0
 71
     0
281
     0
 72
     0
110
0.0
120
0.0
130
0.0
111
1.0
121
0.0
131
0.0
112
0.0
122
1.0
132
0.0
  0
ENDTAB
  0
TABLE
  2
UCS
  5
6
100
AcDbSymbolTable
 70
     0
  0
ENDTAB
  0
TABLE
  2
APPID
  5
8
100
AcDbSymbolTable
 70
     2
  0
APPID
  5
16
100
AcDbSymbolTableRecord
100
AcDbRegAppTableRecord
  2
ACAD
 70
     0
  0
APPID
  5
23
100
AcDbSymbolTableRecord
100
AcDbRegAppTableRecord
  2
TCAD
 70
     0
  0
ENDTAB
  0
TABLE
  2
DIMSTYLE
  5
9
100
AcDbSymbolTable
 70
     1
100
AcDbDimStyleTable
 71
     0
  0
DIMSTYLE
105
18
100
AcDbSymbolTableRecord
100
AcDbDimStyleTableRecord
  2
STANDARD
 70
     0
  3

  4

 40
25.4
 41
0.18
 42
0.0625
 43
0.38
 44
0.18
 45
0.0
 46
0.0
 47
0.0
 48
0.0
 71
     0
 72
     0
 73
     1
 74
     1
 75
     0
 76
     0
 77
     0
 78
     0
 79
     0
140
0.18
141
0.09
142
0.0
143
25.4
144
0.03937
145
0.0
146
1.0
147
0.09
148
0.01
170
     0
171
     2
172
     0
173
     0
174
     0
175
     0
176
     0
177
     0
178
     0
179
     4
271
     4
272
     4
273
     2
274
     2
275
     0
276
     0
277
     2
278
    46
279
     0
280
     0
281
     0
282
     0
283
     1
284
     0
285
     0
286
     0
288
     0
340
17
341
0
342
0
343
0
344
0
371
    -2
372
    -2
  0
ENDTAB
  0
TABLE
  2
BLOCK_RECORD
  5
1
100
AcDbSymbolTable
 70
     0
  0
BLOCK_RECORD
  5
A
100
AcDbSymbolTableRecord
100
AcDbBlockTableRecord
  2
*MODEL_SPACE
340
502
  0
BLOCK_RECORD
  5
B
100
AcDbSymbolTableRecord
100
AcDbBlockTableRecord
  2
*PAPER_SPACE
340
505
  0
ENDTAB
  0
ENDSEC
  0
SECTION
  2
BLOCKS
  0
BLOCK
  5
D
100
AcDbEntity
  8
0
100
AcDbBlockBegin
  2
*MODEL_SPACE
 70
     0
 10
0.0
 20
0.0
 30
0.0
  3
*MODEL_SPACE
  1

  0
ENDBLK
  5
E
100
AcDbEntity
  8
0
100
AcDbBlockEnd
  0
BLOCK
  5
F
100
AcDbEntity
 67
     1
  8
0
100
AcDbBlockBegin
  2
*PAPER_SPACE
 70
     0
 10
0.0
 20
0.0
 30
0.0
  3
*PAPER_SPACE
  1

  0
ENDBLK
  5
10
100
AcDbEntity
 67
     1
  8
0
100
AcDbBlockEnd
  0
ENDSEC
  0
SECTION
  2
ENTITIES
  0
VIEWPORT
  5
503
100
AcDbEntity
 67
     1
  8
0
100
AcDbViewport
 10
11616.419983
 20
17241.42041
 30
0.0
 40
22605.999878
 41
11724.639648
 68
     1
 69
     1
 12
11616.419983
 22
17241.42041
 13
0.0
 23
0.0
 14
0.5
 24
0.5
 15
0.5
 25
0.5
 16
0.0
 26
0.0
 36
1.0
 17
0.0
 27
0.0
 37
0.0
 42
50.0
 43
0.0
 44
0.0
 45
11724.639648
 50
0.0
 51
0.0
 72
   100
 90
    32800
340
0
  1

281
     0
 71
     0
 74
     1
110
0.0
120
0.0
130
0.0
111
1.0
121
0.0
131
0.0
112
0.0
122
1.0
132
0.0
345
0
346
0
 79
     0
146
0.0
  0
VIEWPORT
  5
504
100
AcDbEntity
 67
     1
  8
0
  6
$INVISIBLE
 48
25.4
100
AcDbViewport
 10
11616.420057
 20
17241.42014
 30
0.0
 40
22606.0
 41
11724.64
 68
     2
 69
     2
 12
0.0
 22
0.0
 13
0.0
 23
0.0
 14
0.5
 24
0.5
 15
0.5
 25
0.5
 16
0.0
 26
0.0
 36
1.0
 17
3505.37932
 27
1372.591507
 37
0.0
 42
50.0
 43
0.0
 44
0.0
 45
3692.800049
 50
0.0
 51
0.0
 72
   100
 90
    32800
340
0
  1

281
     0
 71
     0
 74
     1
110
0.0
120
0.0
130
0.0
111
1.0
121
0.0
131
0.0
112
0.0
122
1.0
132
0.0
345
0
346
0
 79
     0
146
0.0
  0
POLYLINE
  5
3D
100
AcDbEntity
  8
Board Outlines
100
AcDb2dPolyline
 66
     1
 10
0.0
 20
0.0
 30
0.0
 70
     1
  0
VERTEX
  5
3E
100
AcDbEntity
  8
Board Outlines
100
AcDbVertex
100
AcDb2dVertex
 10
3505.2
 20
2743.2
 30
0.0
  0
VERTEX
  5
3F
100
AcDbEntity
  8
Board Outlines
100
AcDbVertex
100
AcDb2dVertex
 10
4572.0
 20
2743.2
 30
0.0
  0
VERTEX
  5
40
100
AcDbEntity
  8
Board Outlines
100
AcDbVertex
100
AcDb2dVertex
 10
4572.0
 20
2133.6
 30
0.0
  0
VERTEX
  5
41
100
AcDbEntity
  8
Board Outlines
100
AcDbVertex
100
AcDb2dVertex
 10
3505.2
 20
2133.6
 30
0.0
  0
VERTEX
  5
42
100
AcDbEntity
  8
Board Outlines
100
AcDbVertex
100
AcDb2dVertex
 10
3505.2
 20
2743.2
 30
0.0
  0
SEQEND
  5
43
100
AcDbEntity
  8
Board Outlines
  0
POLYLINE
  5
44
100
AcDbEntity
  8
Board Outlines
100
AcDb2dPolyline
 66
     1
 10
0.0
 20
0.0
 30
0.0
 70
     1
  0
VERTEX
  5
45
100
AcDbEntity
  8
Board Outlines
100
AcDbVertex
100
AcDb2dVertex
 10
3505.2
 20
609.6
 30
0.0
  0
VERTEX
  5
46
100
AcDbEntity
  8
Board Outlines
100
AcDbVertex
100
AcDb2dVertex
 10
4572.0
 20
609.6
 30
0.0
  0
VERTEX
  5
47
100
AcDbEntity
  8
Board Outlines
100
AcDbVertex
100
AcDb2dVertex
 10
4572.0
 20
0.0
 30
0.0
  0
VERTEX
  5
48
100
AcDbEntity
  8
Board Outlines
100
AcDbVertex
100
AcDb2dVertex
 10
3505.2
 20
0.0
 30
0.0
  0
VERTEX
  5
49
100
AcDbEntity
  8
Board Outlines
100
AcDbVertex
100
AcDb2dVertex
 10
3505.2
 20
609.6
 30
0.0
  0
SEQEND
  5
4A
100
AcDbEntity
  8
Board Outlines
  0
POINT
  5
4B
100
AcDbEntity
  8
Board Outlines
  6
Continuous
100
AcDbPoint
 10
1371.6
 20
1371.6
 30
0.0
1001
TCAD
1000
TC25ExternalObject
1002
{
1000
TCW30POINT
1000

1070
     0
1071
       -3
1040
1.0
1040
0.0
1000
Continuous
1000
Board Outlines
1070
    15
1070
    21
1071
        1
1071
      242
1010
1371.6
1020
1371.6
1030
0.0
1070
     3
1071
        3
1000
$POINTSIZE
1070
     5
1040
3.0
1000
$POINTTYPE
1070
    18
1070
     5
1000
ExplodeScale
1070
     5
1040
1.0
1002
}
  0
POLYLINE
  5
4C
100
AcDbEntity
  8
Board Outlines
100
AcDb2dPolyline
 66
     1
 10
0.0
 20
0.0
 30
0.0
 70
     1
  0
VERTEX
  5
4D
100
AcDbEntity
  8
Board Outlines
100
AcDbVertex
100
AcDb2dVertex
 10
1371.6
 20
2743.2
 30
0.0
  0
VERTEX
  5
4E
100
AcDbEntity
  8
Board Outlines
100
AcDbVertex
100
AcDb2dVertex
 10
2438.4
 20
2743.2
 30
0.0
  0
VERTEX
  5
4F
100
AcDbEntity
  8
Board Outlines
100
AcDbVertex
100
AcDb2dVertex
 10
2438.4
 20
2133.6
 30
0.0
  0
VERTEX
  5
50
100
AcDbEntity
  8
Board Outlines
100
AcDbVertex
100
AcDb2dVertex
 10
1371.6
 20
2133.6
 30
0.0
  0
VERTEX
  5
51
100
AcDbEntity
  8
Board Outlines
100
AcDbVertex
100
AcDb2dVertex
 10
1371.6
 20
2743.2
 30
0.0
  0
SEQEND
  5
52
100
AcDbEntity
  8
Board Outlines
  0
POLYLINE
  5
53
100
AcDbEntity
  8
Board Outlines
100
AcDb2dPolyline
 66
     1
 10
0.0
 20
0.0
 30
0.0
 70
     1
  0
VERTEX
  5
54
100
AcDbEntity
  8
Board Outlines
100
AcDbVertex
100
AcDb2dVertex
 10
1371.6
 20
609.6
 30
0.0
  0
VERTEX
  5
55
100
AcDbEntity
  8
Board Outlines
100
AcDbVertex
100
AcDb2dVertex
 10
2438.4
 20
609.6
 30
0.0
  0
VERTEX
  5
56
100
AcDbEntity
  8
Board Outlines
100
AcDbVertex
100
AcDb2dVertex
 10
2438.4
 20
0.0
 30
0.0
  0
VERTEX
  5
57
100
AcDbEntity
  8
Board Outlines
100
AcDbVertex
100
AcDb2dVertex
 10
1371.6
 20
0.0
 30
0.0
  0
VERTEX
  5
58
100
AcDbEntity
  8
Board Outlines
100
AcDbVertex
100
AcDb2dVertex
 10
1371.6
 20
609.6
 30
0.0
  0
SEQEND
  5
59
100
AcDbEntity
  8
Board Outlines
  0
POLYLINE
  5
5A
100
AcDbEntity
  8
Board Outlines
100
AcDb2dPolyline
 66
     1
 10
0.0
 20
0.0
 30
0.0
 70
     1
  0
VERTEX
  5
5B
100
AcDbEntity
  8
Board Outlines
100
AcDbVertex
100
AcDb2dVertex
 10
2438.4
 20
2743.2
 30
0.0
  0
VERTEX
  5
5C
100
AcDbEntity
  8
Board Outlines
100
AcDbVertex
100
AcDb2dVertex
 10
3505.2
 20
2743.2
 30
0.0
  0
VERTEX
  5
5D
100
AcDbEntity
  8
Board Outlines
100
AcDbVertex
100
AcDb2dVertex
 10
3505.2
 20
2133.6
 30
0.0
  0
VERTEX
  5
5E
100
AcDbEntity
  8
Board Outlines
100
AcDbVertex
100
AcDb2dVertex
 10
2438.4
 20
2133.6
 30
0.0
  0
VERTEX
  5
5F
100
AcDbEntity
  8
Board Outlines
100
AcDbVertex
100
AcDb2dVertex
 10
2438.4
 20
2743.2
 30
0.0
  0
SEQEND
  5
60
100
AcDbEntity
  8
Board Outlines
  0
POLYLINE
  5
61
100
AcDbEntity
  8
Board Outlines
100
AcDb2dPolyline
 66
     1
 10
0.0
 20
0.0
 30
0.0
 70
     1
  0
VERTEX
  5
62
100
AcDbEntity
  8
Board Outlines
100
AcDbVertex
100
AcDb2dVertex
 10
2438.4
 20
609.6
 30
0.0
  0
VERTEX
  5
63
100
AcDbEntity
  8
Board Outlines
100
AcDbVertex
100
AcDb2dVertex
 10
3505.2
 20
609.6
 30
0.0
  0
VERTEX
  5
64
100
AcDbEntity
  8
Board Outlines
100
AcDbVertex
100
AcDb2dVertex
 10
3505.2
 20
0.0
 30
0.0
  0
VERTEX
  5
65
100
AcDbEntity
  8
Board Outlines
100
AcDbVertex
100
AcDb2dVertex
 10
2438.4
 20
0.0
 30
0.0
  0
VERTEX
  5
66
100
AcDbEntity
  8
Board Outlines
100
AcDbVertex
100
AcDb2dVertex
 10
2438.4
 20
609.6
 30
0.0
  0
SEQEND
  5
67
100
AcDbEntity
  8
Board Outlines
  0
POINT
  5
68
100
AcDbEntity
  8
Board Outlines
  6
Continuous
100
AcDbPoint
 10
5638.8
 20
1371.6
 30
0.0
1001
TCAD
1000
TC25ExternalObject
1002
{
1000
TCW30POINT
1000

1070
     0
1071
       -3
1040
1.0
1040
0.0
1000
Continuous
1000
Board Outlines
1070
    15
1070
    21
1071
        1
1071
      242
1010
5638.8
1020
1371.6
1030
0.0
1070
     3
1071
        3
1000
$POINTSIZE
1070
     5
1040
3.0
1000
$POINTTYPE
1070
    18
1070
     5
1000
ExplodeScale
1070
     5
1040
1.0
1002
}
  0
POLYLINE
  5
69
100
AcDbEntity
  8
Board Outlines
100
AcDb2dPolyline
 66
     1
 10
0.0
 20
0.0
 30
0.0
 70
     1
  0
VERTEX
  5
6A
100
AcDbEntity
  8
Board Outlines
100
AcDbVertex
100
AcDb2dVertex
 10
4572.0
 20
2743.2
 30
0.0
  0
VERTEX
  5
6B
100
AcDbEntity
  8
Board Outlines
100
AcDbVertex
100
AcDb2dVertex
 10
5638.8
 20
2743.2
 30
0.0
  0
VERTEX
  5
6C
100
AcDbEntity
  8
Board Outlines
100
AcDbVertex
100
AcDb2dVertex
 10
5638.8
 20
2133.6
 30
0.0
  0
VERTEX
  5
6D
100
AcDbEntity
  8
Board Outlines
100
AcDbVertex
100
AcDb2dVertex
 10
4572.0
 20
2133.6
 30
0.0
  0
VERTEX
  5
6E
100
AcDbEntity
  8
Board Outlines
100
AcDbVertex
100
AcDb2dVertex
 10
4572.0
 20
2743.2
 30
0.0
  0
SEQEND
  5
6F
100
AcDbEntity
  8
Board Outlines
  0
POLYLINE
  5
70
100
AcDbEntity
  8
Board Outlines
100
AcDb2dPolyline
 66
     1
 10
0.0
 20
0.0
 30
0.0
 70
     1
  0
VERTEX
  5
71
100
AcDbEntity
  8
Board Outlines
100
AcDbVertex
100
AcDb2dVertex
 10
4572.0
 20
609.6
 30
0.0
  0
VERTEX
  5
72
100
AcDbEntity
  8
Board Outlines
100
AcDbVertex
100
AcDb2dVertex
 10
5638.8
 20
609.6
 30
0.0
  0
VERTEX
  5
73
100
AcDbEntity
  8
Board Outlines
100
AcDbVertex
100
AcDb2dVertex
 10
5638.8
 20
0.0
 30
0.0
  0
VERTEX
  5
74
100
AcDbEntity
  8
Board Outlines
100
AcDbVertex
100
AcDb2dVertex
 10
4572.0
 20
0.0
 30
0.0
  0
VERTEX
  5
75
100
AcDbEntity
  8
Board Outlines
100
AcDbVertex
100
AcDb2dVertex
 10
4572.0
 20
609.6
 30
0.0
  0
SEQEND
  5
76
100
AcDbEntity
  8
Board Outlines
  0
POLYLINE
  5
77
100
AcDbEntity
  8
Board Outlines
100
AcDb2dPolyline
 66
     1
 10
0.0
 20
0.0
 30
0.0
 70
     1
  0
VERTEX
  5
78
100
AcDbEntity
  8
Board Outlines
100
AcDbVertex
100
AcDb2dVertex
 10
1371.6
 20
2743.2
 30
0.0
  0
VERTEX
  5
79
100
AcDbEntity
  8
Board Outlines
100
AcDbVertex
100
AcDb2dVertex
 10
401.732339
 20
2341.467661
 30
0.0
  0
VERTEX
  5
7A
100
AcDbEntity
  8
Board Outlines
100
AcDbVertex
100
AcDb2dVertex
 10
832.784633
 20
1910.415367
 30
0.0
  0
VERTEX
  5
7B
100
AcDbEntity
  8
Board Outlines
100
AcDbVertex
100
AcDb2dVertex
 10
1371.6
 20
2133.6
 30
0.0
  0
SEQEND
  5
7C
100
AcDbEntity
  8
Board Outlines
  0
POLYLINE
  5
7D
100
AcDbEntity
  8
Board Outlines
100
AcDb2dPolyline
 66
     1
 10
0.0
 20
0.0
 30
0.0
 70
     1
  0
VERTEX
  5
7E
100
AcDbEntity
  8
Board Outlines
100
AcDbVertex
100
AcDb2dVertex
 10
832.784633
 20
1910.415367
 30
0.0
  0
VERTEX
  5
7F
100
AcDbEntity
  8
Board Outlines
100
AcDbVertex
100
AcDb2dVertex
 10
401.732339
 20
2341.467661
 30
0.0
  0
VERTEX
  5
80
100
AcDbEntity
  8
Board Outlines
100
AcDbVertex
100
AcDb2dVertex
 10
0.0
 20
1371.6
 30
0.0
  0
VERTEX
  5
81
100
AcDbEntity
  8
Board Outlines
100
AcDbVertex
100
AcDb2dVertex
 10
609.6
 20
1371.6
 30
0.0
  0
SEQEND
  5
82
100
AcDbEntity
  8
Board Outlines
  0
POLYLINE
  5
83
100
AcDbEntity
  8
Board Outlines
100
AcDb2dPolyline
 66
     1
 10
0.0
 20
0.0
 30
0.0
 70
     1
  0
VERTEX
  5
84
100
AcDbEntity
  8
Board Outlines
100
AcDbVertex
100
AcDb2dVertex
 10
609.6
 20
1371.6
 30
0.0
  0
VERTEX
  5
85
100
AcDbEntity
  8
Board Outlines
100
AcDbVertex
100
AcDb2dVertex
 10
0.0
 20
1371.6
 30
0.0
  0
VERTEX
  5
86
100
AcDbEntity
  8
Board Outlines
100
AcDbVertex
100
AcDb2dVertex
 10
401.732339
 20
401.732339
 30
0.0
  0
VERTEX
  5
87
100
AcDbEntity
  8
Board Outlines
100
AcDbVertex
100
AcDb2dVertex
 10
832.784633
 20
832.784633
 30
0.0
  0
SEQEND
  5
88
100
AcDbEntity
  8
Board Outlines
  0
POLYLINE
  5
89
100
AcDbEntity
  8
Board Outlines
100
AcDb2dPolyline
 66
     1
 10
0.0
 20
0.0
 30
0.0
 70
     1
  0
VERTEX
  5
8A
100
AcDbEntity
  8
Board Outlines
100
AcDbVertex
100
AcDb2dVertex
 10
832.784633
 20
832.784633
 30
0.0
  0
VERTEX
  5
8B
100
AcDbEntity
  8
Board Outlines
100
AcDbVertex
100
AcDb2dVertex
 10
1371.6
 20
609.6
 30
0.0
  0
VERTEX
  5
8C
100
AcDbEntity
  8
Board Outlines
100
AcDbVertex
100
AcDb2dVertex
 10
1371.6
 20
0.0
 30
0.0
  0
VERTEX
  5
8D
100
AcDbEntity
  8
Board Outlines
100
AcDbVertex
100
AcDb2dVertex
 10
401.732339
 20
401.732339
 30
0.0
  0
SEQEND
  5
8E
100
AcDbEntity
  8
Board Outlines
  0
POLYLINE
  5
8F
100
AcDbEntity
  8
Board Outlines
100
AcDb2dPolyline
 66
     1
 10
0.0
 20
0.0
 30
0.0
 70
     1
  0
VERTEX
  5
90
100
AcDbEntity
  8
Board Outlines
100
AcDbVertex
100
AcDb2dVertex
 10
6400.8
 20
1371.6
 30
0.0
  0
VERTEX
  5
91
100
AcDbEntity
  8
Board Outlines
100
AcDbVertex
100
AcDb2dVertex
 10
7010.4
 20
1371.6
 30
0.0
  0
VERTEX
  5
92
100
AcDbEntity
  8
Board Outlines
100
AcDbVertex
100
AcDb2dVertex
 10
6608.667661
 20
401.732339
 30
0.0
  0
VERTEX
  5
93
100
AcDbEntity
  8
Board Outlines
100
AcDbVertex
100
AcDb2dVertex
 10
6177.615367
 20
832.784633
 30
0.0
  0
SEQEND
  5
94
100
AcDbEntity
  8
Board Outlines
  0
POLYLINE
  5
95
100
AcDbEntity
  8
Board Outlines
100
AcDb2dPolyline
 66
     1
 10
0.0
 20
0.0
 30
0.0
 70
     1
  0
VERTEX
  5
96
100
AcDbEntity
  8
Board Outlines
100
AcDbVertex
100
AcDb2dVertex
 10
6177.615367
 20
1910.415367
 30
0.0
  0
VERTEX
  5
97
100
AcDbEntity
  8
Board Outlines
100
AcDbVertex
100
AcDb2dVertex
 10
6608.667661
 20
2341.467661
 30
0.0
  0
VERTEX
  5
98
100
AcDbEntity
  8
Board Outlines
100
AcDbVertex
100
AcDb2dVertex
 10
7010.4
 20
1371.6
 30
0.0
  0
VERTEX
  5
99
100
AcDbEntity
  8
Board Outlines
100
AcDbVertex
100
AcDb2dVertex
 10
6400.8
 20
1371.6
 30
0.0
  0
SEQEND
  5
9A
100
AcDbEntity
  8
Board Outlines
  0
POLYLINE
  5
9B
100
AcDbEntity
  8
Board Outlines
100
AcDb2dPolyline
 66
     1
 10
0.0
 20
0.0
 30
0.0
 70
     1
  0
VERTEX
  5
9C
100
AcDbEntity
  8
Board Outlines
100
AcDbVertex
100
AcDb2dVertex
 10
6177.615367
 20
832.784633
 30
0.0
  0
VERTEX
  5
9D
100
AcDbEntity
  8
Board Outlines
100
AcDbVertex
100
AcDb2dVertex
 10
5638.8
 20
609.6
 30
0.0
  0
VERTEX
  5
9E
100
AcDbEntity
  8
Board Outlines
100
AcDbVertex
100
AcDb2dVertex
 10
5638.8
 20
0.0
 30
0.0
  0
VERTEX
  5
9F
100
AcDbEntity
  8
Board Outlines
100
AcDbVertex
100
AcDb2dVertex
 10
6608.667661
 20
401.732339
 30
0.0
  0
SEQEND
  5
A0
100
AcDbEntity
  8
Board Outlines
  0
POLYLINE
  5
A1
100
AcDbEntity
  8
Board Outlines
100
AcDb2dPolyline
 66
     1
 10
0.0
 20
0.0
 30
0.0
 70
     1
  0
VERTEX
  5
A2
100
AcDbEntity
  8
Board Outlines
100
AcDbVertex
100
AcDb2dVertex
 10
5638.8
 20
2743.2
 30
0.0
  0
VERTEX
  5
A3
100
AcDbEntity
  8
Board Outlines
100
AcDbVertex
100
AcDb2dVertex
 10
6608.667661
 20
2341.467661
 30
0.0
  0
VERTEX
  5
A4
100
AcDbEntity
  8
Board Outlines
100
AcDbVertex
100
AcDb2dVertex
 10
6177.615367
 20
1910.415367
 30
0.0
  0
VERTEX
  5
A5
100
AcDbEntity
  8
Board Outlines
100
AcDbVertex
100
AcDb2dVertex
 10
5638.8
 20
2133.6
 30
0.0
  0
SEQEND
  5
A6
100
AcDbEntity
  8
Board Outlines
  0
TEXT
  5
A7
100
AcDbEntity
  8
Board Numbers
 62
   253
100
AcDbText
 10
1905.0
 20
711.2
 30
0.0
 40
126.999999
  1
1
100
AcDbText
1001
TCAD
1000
TCW40_TEXT
1002
{
1000
Tahoma
1070
     0
1070
  1025
1002
}
  0
TEXT
  5
A8
100
AcDbEntity
  8
Board Numbers
 62
   253
100
AcDbText
 10
2971.8
 20
711.2
 30
0.0
 40
126.999999
  1
2
100
AcDbText
1001
TCAD
1000
TCW40_TEXT
1002
{
1000
Tahoma
1070
     0
1070
  1025
1002
}
  0
TEXT
  5
A9
100
AcDbEntity
  8
Board Numbers
 62
   253
100
AcDbText
 10
4038.6
 20
711.2
 30
0.0
 40
126.999999
  1
3
100
AcDbText
1001
TCAD
1000
TCW40_TEXT
1002
{
1000
Tahoma
1070
     0
1070
  1025
1002
}
  0
TEXT
  5
AA
100
AcDbEntity
  8
Board Numbers
 62
   253
100
AcDbText
 10
5105.4
 20
711.2
 30
0.0
 40
126.999999
  1
4
100
AcDbText
1001
TCAD
1000
TCW40_TEXT
1002
{
1000
Tahoma
1070
     0
1070
  1025
1002
}
  0
TEXT
  5
AB
100
AcDbEntity
  8
Board Numbers
 62
   253
100
AcDbText
 10
1905.0
 20
1932.079183
 30
0.0
 40
126.999999
  1
12
100
AcDbText
1001
TCAD
1000
TCW40_TEXT
1002
{
1000
Tahoma
1070
     0
1070
  1025
1002
}
  0
TEXT
  5
AC
100
AcDbEntity
  8
Board Numbers
 62
   253
100
AcDbText
 10
2971.8
 20
1932.079183
 30
0.0
 40
126.999999
  1
11
100
AcDbText
1001
TCAD
1000
TCW40_TEXT
1002
{
1000
Tahoma
1070
     0
1070
  1025
1002
}
  0
TEXT
  5
AD
100
AcDbEntity
  8
Board Numbers
 62
   253
100
AcDbText
 10
4038.6
 20
1932.079183
 30
0.0
 40
126.999999
  1
10
100
AcDbText
1001
TCAD
1000
TCW40_TEXT
1002
{
1000
Tahoma
1070
     0
1070
  1025
1002
}
  0
TEXT
  5
AE
100
AcDbEntity
  8
Board Numbers
 62
   253
100
AcDbText
 10
5105.4
 20
1932.079183
 30
0.0
 40
126.999999
  1
9
100
AcDbText
1001
TCAD
1000
TCW40_TEXT
1002
{
1000
Tahoma
1070
     0
1070
  1025
1002
}
  0
TEXT
  5
AF
100
AcDbEntity
  8
Board Numbers
 62
   253
100
AcDbText
 10
5800.772884
 20
786.562911
 30
0.0
 40
126.999999
  1
5
100
AcDbText
1001
TCAD
1000
TCW40_TEXT
1002
{
1000
Tahoma
1070
     0
1070
  1025
1002
}
  0
TEXT
  5
B0
100
AcDbEntity
  8
Board Numbers
 62
   253
100
AcDbText
 10
6163.576125
 20
1133.232313
 30
0.0
 40
126.999999
  1
6
100
AcDbText
1001
TCAD
1000
TCW40_TEXT
1002
{
1000
Tahoma
1070
     0
1070
  1025
1002
}
  0
TEXT
  5
B1
100
AcDbEntity
  8
Board Numbers
 62
   253
100
AcDbText
 10
6186.251322
 20
1570.337182
 30
0.0
 40
126.999999
  1
7
100
AcDbText
1001
TCAD
1000
TCW40_TEXT
1002
{
1000
Tahoma
1070
     0
1070
  1025
1002
}
  0
TEXT
  5
B2
100
AcDbEntity
  8
Board Numbers
 62
   253
100
AcDbText
 10
5823.448082
 20
1886.861428
 30
0.0
 40
126.999999
  1
8
100
AcDbText
1001
TCAD
1000
TCW40_TEXT
1002
{
1000
Tahoma
1070
     0
1070
  1025
1002
}
  0
TEXT
  5
B3
100
AcDbEntity
  8
Board Numbers
 62
   253
100
AcDbText
 10
1167.47298
 20
1917.006583
 30
0.0
 40
126.999999
  1
13
100
AcDbText
1001
TCAD
1000
TCW40_TEXT
1002
{
1000
Tahoma
1070
     0
1070
  1025
1002
}
  0
TEXT
  5
B4
100
AcDbEntity
  8
Board Numbers
 62
   253
100
AcDbText
 10
789.552942
 20
1547.728304
 30
0.0
 40
126.999999
  1
14
100
AcDbText
1001
TCAD
1000
TCW40_TEXT
1002
{
1000
Tahoma
1070
     0
1070
  1025
1002
}
  0
TEXT
  5
B5
100
AcDbEntity
  8
Board Numbers
 62
   253
100
AcDbText
 10
736.644148
 20
1072.941957
 30
0.0
 40
126.999999
  1
15
100
AcDbText
1001
TCAD
1000
TCW40_TEXT
1002
{
1000
Tahoma
1070
     0
1070
  1025
1002
}
  0
TEXT
  5
B6
100
AcDbEntity
  8
Board Numbers
 62
   253
100
AcDbText
 10
1099.447389
 20
779.026633
 30
0.0
 40
126.999999
  1
16
100
AcDbText
1001
TCAD
1000
TCW40_TEXT
1002
{
1000
Tahoma
1070
     0
1070
  1025
1002
}
  0
POLYLINE
  5
B7
100
AcDbEntity
  8
Board Outlines
 62
     1
100
AcDb2dPolyline
 66
     1
 10
0.0
 20
0.0
 30
0.0
 40
6.35
 41
6.35
  0
VERTEX
  5
B8
100
AcDbEntity
  8
Board Outlines
 62
     1
100
AcDbVertex
100
AcDb2dVertex
 10
401.732339
 20
2341.467661
 30
0.0
 42
0.10596
  0
VERTEX
  5
B9
100
AcDbEntity
  8
Board Outlines
 62
     1
100
AcDbVertex
100
AcDb2dVertex
 10
1371.6
 20
2133.6
 30
0.0
  0
VERTEX
  5
BA
100
AcDbEntity
  8
Board Outlines
 62
     1
100
AcDbVertex
100
AcDb2dVertex
 10
5638.8
 20
2133.6
 30
0.0
 42
0.10596
  0
VERTEX
  5
BB
100
AcDbEntity
  8
Board Outlines
 62
     1
100
AcDbVertex
100
AcDb2dVertex
 10
6608.667661
 20
2341.467661
 30
0.0
 42
0.10596
  0
SEQEND
  5
BC
100
AcDbEntity
  8
Board Outlines
 62
     1
  0
LINE
  5
BD
100
AcDbEntity
  8
cross
100
AcDbLine
 10
1727.2
 20
2743.2
 30
0.0
 11
1727.2
 21
2133.6
 31
0.0
  0
LINE
  5
BE
100
AcDbEntity
  8
cross
100
AcDbLine
 10
2082.8
 20
2743.2
 30
0.0
 11
2082.8
 21
2133.6
 31
0.0
  0
LINE
  5
BF
100
AcDbEntity
  8
cross
100
AcDbLine
 10
2794.0
 20
2743.2
 30
0.0
 11
2794.0
 21
2133.6
 31
0.0
  0
LINE
  5
C0
100
AcDbEntity
  8
cross
100
AcDbLine
 10
3149.6
 20
2743.2
 30
0.0
 11
3149.6
 21
2133.6
 31
0.0
  0
LINE
  5
C1
100
AcDbEntity
  8
cross
100
AcDbLine
 10
3860.8
 20
2743.2
 30
0.0
 11
3860.8
 21
2133.6
 31
0.0
  0
LINE
  5
C2
100
AcDbEntity
  8
cross
100
AcDbLine
 10
4216.4
 20
2743.2
 30
0.0
 11
4216.4
 21
2133.6
 31
0.0
  0
LINE
  5
C3
100
AcDbEntity
  8
cross
100
AcDbLine
 10
4927.6
 20
2743.2
 30
0.0
 11
4927.6
 21
2133.6
 31
0.0
  0
LINE
  5
C4
100
AcDbEntity
  8
cross
100
AcDbLine
 10
5283.2
 20
2743.2
 30
0.0
 11
5283.2
 21
2133.6
 31
0.0
  0
LINE
  5
C5
100
AcDbEntity
  8
cross
100
AcDbLine
 10
832.784633
 20
1910.415367
 30
0.0
 11
617.258486
 21
2430.741514
 31
0.0
  0
LINE
  5
C6
100
AcDbEntity
  8
cross
100
AcDbLine
 10
6177.615367
 20
1910.415367
 30
0.0
 11
6393.141514
 21
2430.741514
 31
0.0
  0
LINE
  5
C7
100
AcDbEntity
  8
cross
100
AcDbLine
 10
5908.207684
 20
2022.007684
 30
0.0
 11
6123.733831
 21
2542.333831
 31
0.0
  0
LINE
  5
C8
100
AcDbEntity
  8
cross
100
AcDbLine
 10
5638.8
 20
2133.6
 30
0.0
 11
5854.326147
 21
2653.926147
 31
0.0
  0
LINE
  5
C9
100
AcDbEntity
  8
cross
100
AcDbLine
 10
1102.192316
 20
2022.007684
 30
0.0
 11
886.666169
 21
2542.333831
 31
0.0
  0
LINE
  5
CA
100
AcDbEntity
  8
cross
100
AcDbLine
 10
1371.6
 20
2133.6
 30
0.0
 11
1156.073853
 21
2653.926147
 31
0.0
  0
ARC
  5
CB
100
AcDbEntity
  8
Track  Plan
100
AcDbCircle
 10
3505.2
 20
-27818.500218
 30
0.0
 40
30480.0
100
AcDbArc
 50
86.778428
 51
93.221577
  0
ARC
  5
CC
100
AcDbEntity
  8
Track  Plan
100
AcDbCircle
 10
3505.286373
 20
-27815.428725
 30
0.0
 40
30426.128906
100
AcDbArc
 50
86.778264
 51
93.231167
  0
ARC
  5
CD
100
AcDbEntity
  8
Track  Plan
100
AcDbCircle
 10
3505.289912
 20
-27815.302893
 30
0.0
 40
30375.203125
100
AcDbArc
 50
86.778257
 51
88.562705
  0
LINE
  5
CE
100
AcDbEntity
  8
Track  Plan
100
AcDbLine
 10
2438.4
 20
2642.825061
 30
0.0
 11
2946.4
 21
2605.568465
 31
0.0
  0
LINE
  5
CF
100
AcDbEntity
  8
Track  Plan
100
AcDbLine
 10
2946.4
 20
2605.568465
 30
0.0
 11
2438.4
 21
2541.157634
 31
0.0
  0
LINE
  5
D0
100
AcDbEntity
  8
Track  Plan
100
AcDbLine
 10
5080.0
 20
2562.645144
 30
0.0
 11
4572.0
 21
2541.162565
 31
0.0
  0
LINE
  5
D1
100
AcDbEntity
  8
Track  Plan
100
AcDbLine
 10
4267.2
 20
2651.973293
 30
0.0
 11
3759.2
 21
2609.639663
 31
0.0
  0
LINE
  5
D2
100
AcDbEntity
  8
Track  Plan
100
AcDbLine
 10
3759.2
 20
2609.639663
 30
0.0
 11
4267.2
 21
2550.341422
 31
0.0
  0
LINE
  5
D3
100
AcDbEntity
  8
Track  Plan
100
AcDbLine
 10
1371.6
 20
2184.4
 30
0.0
 11
4030.347719
 21
2184.4
 31
0.0
  0
ELLIPSE
  5
D4
100
AcDbEntity
  8
Track  Plan
100
AcDbEllipse
 10
5079.655145
 20
1371.6
 30
0.0
 11
1752.94482421875
 21
0.0
 31
0.0
210
0.0
220
0.0
230
1.0
 40
0.710588
 41
0.0
 42
1.4917360544204712
  0
SPLINE
  5
D5
100
AcDbEntity
  8
Track  Plan
100
AcDbSpline
210
0.0
220
0.0
230
1.0
 70
     8
 71
     3
 72
    22
 73
    18
 74
     0
 42
0.000001
 43
0.000001
 40
3.1415927410125732
 40
3.1415927410125732
 40
3.1415927410125732
 40
3.1415927410125732
 40
3.3001480102539062
 40
3.3001480102539062
 40
3.5310561656951904
 40
3.5310561656951904
 40
3.7619643211364746
 40
3.7619643211364746
 40
3.9928724765777588
 40
3.9928724765777588
 40
4.223780632019043
 40
4.223780632019043
 40
4.454688549041748
 40
4.454688549041748
 40
4.6855964660644531
 40
4.6855964660644531
 40
4.7529058456420898
 40
4.7529058456420898
 40
4.7529058456420898
 40
4.7529058456420898
 10
6781.8000000000002
 20
1371.599999999999
 30
0.0
 10
6781.8000000000002
 20
1433.65499301573
 30
0.0
 10
6774.8694356259184
 20
1495.7120760829639
 30
0.0
 10
6740.9269345355651
 20
1646.553326263182
 30
0.0
 10
6706.1554331876787
 20
1734.6248945633461
 30
0.0
 10
6608.5195708150177
 20
1903.665337097385
 30
0.0
 10
6545.6429472857362
 20
1984.6131280209891
 30
0.0
 10
6394.6322029042503
 20
2134.8034266211398
 30
0.0
 10
6306.5069055196673
 20
2204.0259114153332
 30
0.0
 10
6109.5583597976656
 20
2326.6513600017811
 30
0.0
 10
6000.7496764512898
 20
2380.0443730051652
 30
0.0
 10
5768.3138877235451
 20
2467.847059105216
 30
0.0
 10
5644.7010338551727
 20
2502.2522790194212
 30
0.0
 10
5389.4089746267182
 20
2550.0641883891681
 30
0.0
 10
5257.7434582636124
 20
2563.4689725275389
 30
0.0
 10
5215.2442843286899
 20
2562.6116970190069
 30
0.0
 10
5145.5804320483694
 20
2563.520895464083
 30
0.0
 10
5079.999999999859
 20
2562.6451441057402
 30
0.0
  0
SPLINE
  5
D6
100
AcDbEntity
  8
Track  Plan
100
AcDbSpline
210
0.0
220
0.0
230
1.0
 70
     8
 71
     3
 72
    12
 73
     8
 74
     0
 42
0.000001
 43
0.000001
 40
4.0065851211547852
 40
4.0065851211547852
 40
4.0065851211547852
 40
4.0065851211547852
 40
4.223780632019043
 40
4.223780632019043
 40
4.454688549041748
 40
4.454688549041748
 40
4.6305084228515625
 40
4.6305084228515625
 40
4.6305084228515625
 40
4.6305084228515625
 10
820.01983559465805
 20
2276.1777236701691
 30
0.0
 10
913.79102158935757
 20
2332.9593967536998
 30
0.0
 10
1016.551947089629
 20
2382.651463284426
 30
0.0
 10
1242.0861122764529
 20
2467.847059105216
 30
0.0
 10
1365.6989661448249
 20
2502.2522790194212
 30
0.0
 10
1590.5381230975261
 20
2544.3608719285839
 30
0.0
 10
1690.061632304443
 20
2556.4752359606941
 30
0.0
 10
1790.331023737544
 20
2562.3299824513219
 30
0.0
  0
ELLIPSE
  5
D7
100
AcDbEntity
  8
Track  Plan
100
AcDbEllipse
 10
1930.744855
 20
1371.6
 30
0.0
 11
1752.94482421875
 21
0.0
 31
0.0
210
0.0
220
0.0
230
1.0
 40
0.710588
 41
1.6498565673828125
 42
3.1415928045855921
  0
SPLINE
  5
D8
100
AcDbEntity
  8
Track  Plan
100
AcDbSpline
210
0.0
220
0.0
230
1.0
 70
     8
 71
     3
 72
    10
 73
     6
 74
     0
 42
0.000001
 43
0.000001
 40
4.3728089332580566
 40
4.3728089332580566
 40
4.3728089332580566
 40
4.3728089332580566
 40
4.4253802299499512
 40
4.4253802299499512
 40
4.6304278373718262
 40
4.6304278373718262
 40
4.6304278373718262
 40
4.6304278373718262
 10
1371.599999999999
 20
2447.5399249544471
 30
0.0
 10
1399.2650072392821
 20
2454.4868759112692
 30
0.0
 10
1427.202817687275
 20
2460.9220995077212
 30
0.0
 10
1565.247611929027
 20
2489.8850721394738
 30
0.0
 10
1678.69330886696
 20
2504.9164846282711
 30
0.0
 10
1793.1581794391359
 20
2511.608299761368
 30
0.0
  0
SPLINE
  5
D9
100
AcDbEntity
  8
Track  Plan
100
AcDbSpline
210
0.0
220
0.0
230
1.0
 70
     8
 71
     3
 72
    12
 73
     8
 74
     0
 42
0.000001
 43
0.000001
 40
4.3728089332580566
 40
4.3728089332580566
 40
4.3728089332580566
 40
4.3728089332580566
 40
4.4253802299499512
 40
4.4253802299499512
 40
4.6485652923583984
 40
4.6485652923583984
 40
4.7529058456420898
 40
4.7529058456420898
 40
4.7529058456420898
 40
4.7529058456420898
 10
5638.7999999999993
 20
2447.5399249544471
 30
0.0
 10
5611.1349927568772
 20
2454.4868759122342
 30
0.0
 10
5583.1971823049662
 20
2460.9220995095079
 30
0.0
 10
5435.4335405293868
 20
2491.9241690631338
 30
0.0
 10
5311.6092689023317
 20
2507.512906800529
 30
0.0
 10
5212.3894524683747
 20
2511.8919776285252
 30
0.0
 10
5062.8878642215113
 20
2516.3245936631979
 30
0.0
 10
5080.4170212345589
 20
2515.6220171147329
 30
0.0
  0
ARC
  5
DA
100
AcDbEntity
  8
Track  Plan
100
AcDbCircle
 10
5143.776652
 20
780.289256
 30
0.0
 40
1839.716431
100
AcDbArc
 50
47.120925
 51
74.390718
  0
ARC
  5
DB
100
AcDbEntity
  8
Track  Plan
100
AcDbCircle
 10
5080.0
 20
1601.222112
 30
0.0
 40
914.400024
100
AcDbArc
 50
89.97387
 51
125.026613
  0
ARC
  5
DC
100
AcDbEntity
  8
Track  Plan
100
AcDbCircle
 10
4030.347719
 20
3098.8
 30
0.0
 40
914.400024
100
AcDbArc
 50
-90.000003
 51
-54.973389
  0
LINE
  5
DD
100
AcDbEntity
  8
Track  Plan
100
AcDbLine
 10
4676.666928
 20
2438.791327
 30
0.0
 11
4777.49695
 21
2465.80865
 31
0.0
  0
ARC
  5
DE
100
AcDbEntity
  8
Track  Plan
100
AcDbCircle
 10
4913.331063
 20
1555.548752
 30
0.0
 40
914.400024
100
AcDbArc
 50
105.0
 51
119.776369
  0
ARC
  5
DF
100
AcDbEntity
  8
Track  Plan
100
AcDbCircle
 10
3505.286373
 20
-27815.428725
 30
0.0
 40
30375.328125
100
AcDbArc
 50
86.778264
 51
88.562705
  0
ARC
  5
E0
100
AcDbEntity
  8
Track  Plan
100
AcDbCircle
 10
3505.286373
 20
-27815.428725
 30
0.0
 40
30375.328125
100
AcDbArc
 50
92.012839
 51
93.231167
  0
MTEXT
  5
E1
100
AcDbEntity
  8
Text
100
AcDbMText
 10
3505.2
 20
223.624625
 30
0.0
 40
126.999999
 41
3254.34817
 71
     5
 72
     1
  1
{Fiddle Yard\P 12 Roads, accommodating 20plus trains.}
 73
     1
 44
1.0
1001
TCAD
1000
TCW40_TEXT
1002
{
1000
Tahoma
1070
     0
1070
   514
1002
}
  0
LINE
  5
E2
100
AcDbEntity
  8
Scenery
100
AcDbLine
 10
5508.761825
 20
2133.6
 30
0.0
 11
5743.331622
 21
2699.901584
 31
0.0
  0
LINE
  5
E3
100
AcDbEntity
  8
Scenery
100
AcDbLine
 10
5618.732873
 20
2133.6
 30
0.0
 11
5837.197782
 21
2661.020948
 31
0.0
  0
LINE
  5
E4
100
AcDbEntity
  8
Scenery
100
AcDbLine
 10
5514.62846
 20
2131.16996
 30
0.0
 11
5749.198257
 21
2697.471545
 31
0.0
  0
LINE
  5
E5
100
AcDbEntity
  8
Scenery
100
AcDbLine
 10
5612.866238
 20
2136.03004
 30
0.0
 11
5831.331147
 21
2663.450988
 31
0.0
  0
POLYLINE
  5
E6
100
AcDbEntity
  8
Scenery
  6
DASHEDX2
100
AcDb2dPolyline
 66
     1
 10
0.0
 20
0.0
 30
0.0
 70
   128
  0
VERTEX
  5
E7
100
AcDbEntity
  8
Scenery
  6
DASHEDX2
100
AcDbVertex
100
AcDb2dVertex
 10
6105.182277
 20
2180.010975
 30
0.0
  0
VERTEX
  5
E8
100
AcDbEntity
  8
Scenery
  6
DASHEDX2
100
AcDbVertex
100
AcDb2dVertex
 10
6049.925455
 20
2210.493057
 30
0.0
  0
VERTEX
  5
E9
100
AcDbEntity
  8
Scenery
  6
DASHEDX2
100
AcDbVertex
100
AcDb2dVertex
 10
5991.060225
 20
2240.205507
 30
0.0
  0
VERTEX
  5
EA
100
AcDbEntity
  8
Scenery
  6
DASHEDX2
100
AcDbVertex
100
AcDb2dVertex
 10
5934.695629
 20
2266.219591
 30
0.0
  0
VERTEX
  5
EB
100
AcDbEntity
  8
Scenery
  6
DASHEDX2
100
AcDbVertex
100
AcDb2dVertex
 10
5875.551773
 20
2291.152211
 30
0.0
  0
VERTEX
  5
EC
100
AcDbEntity
  8
Scenery
  6
DASHEDX2
100
AcDbVertex
100
AcDb2dVertex
 10
5817.217339
 20
2313.529745
 30
0.0
  0
VERTEX
  5
ED
100
AcDbEntity
  8
Scenery
  6
DASHEDX2
100
AcDbVertex
100
AcDb2dVertex
 10
5761.787213
 20
2332.885838
 30
0.0
  0
VERTEX
  5
EE
100
AcDbEntity
  8
Scenery
  6
DASHEDX2
100
AcDbVertex
100
AcDb2dVertex
 10
5708.325346
 20
2349.895364
 30
0.0
  0
SEQEND
  5
EF
100
AcDbEntity
  8
Scenery
  6
DASHEDX2
  0
POLYLINE
  5
F0
100
AcDbEntity
  8
Scenery
  6
HIDDENX2
100
AcDb2dPolyline
 66
     1
 10
0.0
 20
0.0
 30
0.0
 70
   128
  0
VERTEX
  5
F1
100
AcDbEntity
  8
Scenery
  6
HIDDENX2
100
AcDbVertex
100
AcDb2dVertex
 10
6226.989216
 20
2207.860721
 30
0.0
  0
VERTEX
  5
F2
100
AcDbEntity
  8
Scenery
  6
HIDDENX2
100
AcDbVertex
100
AcDb2dVertex
 10
6175.883882
 20
2240.40015
 30
0.0
  0
VERTEX
  5
F3
100
AcDbEntity
  8
Scenery
  6
HIDDENX2
100
AcDbVertex
100
AcDb2dVertex
 10
6122.726448
 20
2271.520634
 30
0.0
  0
VERTEX
  5
F4
100
AcDbEntity
  8
Scenery
  6
HIDDENX2
100
AcDbVertex
100
AcDb2dVertex
 10
6064.730854
 20
2302.634424
 30
0.0
  0
VERTEX
  5
F5
100
AcDbEntity
  8
Scenery
  6
HIDDENX2
100
AcDbVertex
100
AcDb2dVertex
 10
6005.280831
 20
2331.747373
 30
0.0
  0
VERTEX
  5
F6
100
AcDbEntity
  8
Scenery
  6
HIDDENX2
100
AcDbVertex
100
AcDb2dVertex
 10
5936.362554
 20
2362.289664
 30
0.0
  0
VERTEX
  5
F7
100
AcDbEntity
  8
Scenery
  6
HIDDENX2
100
AcDbVertex
100
AcDb2dVertex
 10
5872.665579
 20
2387.698295
 30
0.0
  0
VERTEX
  5
F8
100
AcDbEntity
  8
Scenery
  6
HIDDENX2
100
AcDbVertex
100
AcDb2dVertex
 10
5829.432878
 20
2403.501162
 30
0.0
  0
VERTEX
  5
F9
100
AcDbEntity
  8
Scenery
  6
HIDDENX2
100
AcDbVertex
100
AcDb2dVertex
 10
5789.287465
 20
2417.187726
 30
0.0
  0
VERTEX
  5
FA
100
AcDbEntity
  8
Scenery
  6
HIDDENX2
100
AcDbVertex
100
AcDb2dVertex
 10
5742.349191
 20
2432.036192
 30
0.0
  0
SEQEND
  5
FB
100
AcDbEntity
  8
Scenery
  6
HIDDENX2
  0
POLYLINE
  5
FC
100
AcDbEntity
  8
Scenery
  6
HIDDENX2
100
AcDb2dPolyline
 66
     1
 10
0.0
 20
0.0
 30
0.0
 70
   128
  0
VERTEX
  5
FD
100
AcDbEntity
  8
Scenery
  6
HIDDENX2
100
AcDbVertex
100
AcDb2dVertex
 10
6382.17334
 20
2253.385344
 30
0.0
  0
VERTEX
  5
FE
100
AcDbEntity
  8
Scenery
  6
HIDDENX2
100
AcDbVertex
100
AcDb2dVertex
 10
6332.24092
 20
2289.7967
 30
0.0
  0
VERTEX
  5
FF
100
AcDbEntity
  8
Scenery
  6
HIDDENX2
100
AcDbVertex
100
AcDb2dVertex
 10
6282.28582
 20
2323.47608
 30
0.0
  0
VERTEX
  5
100
100
AcDbEntity
  8
Scenery
  6
HIDDENX2
100
AcDbVertex
100
AcDb2dVertex
 10
6227.235852
 20
2357.745949
 30
0.0
  0
VERTEX
  5
101
100
AcDbEntity
  8
Scenery
  6
HIDDENX2
100
AcDbVertex
100
AcDb2dVertex
 10
6166.866959
 20
2392.251535
 30
0.0
  0
VERTEX
  5
102
100
AcDbEntity
  8
Scenery
  6
HIDDENX2
100
AcDbVertex
100
AcDb2dVertex
 10
6111.109846
 20
2421.532891
 30
0.0
  0
VERTEX
  5
103
100
AcDbEntity
  8
Scenery
  6
HIDDENX2
100
AcDbVertex
100
AcDb2dVertex
 10
6045.264182
 20
2453.193148
 30
0.0
  0
VERTEX
  5
104
100
AcDbEntity
  8
Scenery
  6
HIDDENX2
100
AcDbVertex
100
AcDb2dVertex
 10
5989.879202
 20
2477.560511
 30
0.0
  0
VERTEX
  5
105
100
AcDbEntity
  8
Scenery
  6
HIDDENX2
100
AcDbVertex
100
AcDb2dVertex
 10
5935.940337
 20
2499.438333
 30
0.0
  0
VERTEX
  5
106
100
AcDbEntity
  8
Scenery
  6
HIDDENX2
100
AcDbVertex
100
AcDb2dVertex
 10
5886.508222
 20
2517.976212
 30
0.0
  0
VERTEX
  5
107
100
AcDbEntity
  8
Scenery
  6
HIDDENX2
100
AcDbVertex
100
AcDb2dVertex
 10
5827.511325
 20
2538.310446
 30
0.0
  0
VERTEX
  5
108
100
AcDbEntity
  8
Scenery
  6
HIDDENX2
100
AcDbVertex
100
AcDb2dVertex
 10
5791.173046
 20
2549.907405
 30
0.0
  0
SEQEND
  5
109
100
AcDbEntity
  8
Scenery
  6
HIDDENX2
  0
POLYLINE
  5
10A
100
AcDbEntity
  8
Scenery
  6
HIDDENX2
100
AcDb2dPolyline
 66
     1
 10
0.0
 20
0.0
 30
0.0
 70
   128
  0
VERTEX
  5
10B
100
AcDbEntity
  8
Scenery
  6
HIDDENX2
100
AcDbVertex
100
AcDb2dVertex
 10
5692.809086
 20
2577.929393
 30
0.0
  0
VERTEX
  5
10C
100
AcDbEntity
  8
Scenery
  6
HIDDENX2
100
AcDbVertex
100
AcDb2dVertex
 10
5641.314507
 20
2590.718661
 30
0.0
  0
VERTEX
  5
10D
100
AcDbEntity
  8
Scenery
  6
HIDDENX2
100
AcDbVertex
100
AcDb2dVertex
 10
5549.632884
 20
2610.440559
 30
0.0
  0
VERTEX
  5
10E
100
AcDbEntity
  8
Scenery
  6
HIDDENX2
100
AcDbVertex
100
AcDb2dVertex
 10
5480.141637
 20
2622.888706
 30
0.0
  0
VERTEX
  5
10F
100
AcDbEntity
  8
Scenery
  6
HIDDENX2
100
AcDbVertex
100
AcDb2dVertex
 10
5415.434156
 20
2632.608319
 30
0.0
  0
VERTEX
  5
110
100
AcDbEntity
  8
Scenery
  6
HIDDENX2
100
AcDbVertex
100
AcDb2dVertex
 10
5340.453449
 20
2641.669511
 30
0.0
  0
VERTEX
  5
111
100
AcDbEntity
  8
Scenery
  6
HIDDENX2
100
AcDbVertex
100
AcDb2dVertex
 10
5263.360791
 20
2648.568195
 30
0.0
  0
VERTEX
  5
112
100
AcDbEntity
  8
Scenery
  6
HIDDENX2
100
AcDbVertex
100
AcDb2dVertex
 10
5220.24024
 20
2651.371206
 30
0.0
 42
0.028121
  0
VERTEX
  5
113
100
AcDbEntity
  8
Scenery
  6
HIDDENX2
100
AcDbVertex
100
AcDb2dVertex
 10
1790.15976
 20
2651.371206
 30
0.0
  0
VERTEX
  5
114
100
AcDbEntity
  8
Scenery
  6
HIDDENX2
100
AcDbVertex
100
AcDb2dVertex
 10
1734.868421
 20
2647.640539
 30
0.0
  0
VERTEX
  5
115
100
AcDbEntity
  8
Scenery
  6
HIDDENX2
100
AcDbVertex
100
AcDb2dVertex
 10
1660.373226
 20
2640.64256
 30
0.0
  0
VERTEX
  5
116
100
AcDbEntity
  8
Scenery
  6
HIDDENX2
100
AcDbVertex
100
AcDb2dVertex
 10
1581.657339
 20
2630.754398
 30
0.0
  0
VERTEX
  5
117
100
AcDbEntity
  8
Scenery
  6
HIDDENX2
100
AcDbVertex
100
AcDb2dVertex
 10
1488.835402
 20
2615.722856
 30
0.0
  0
VERTEX
  5
118
100
AcDbEntity
  8
Scenery
  6
HIDDENX2
100
AcDbVertex
100
AcDb2dVertex
 10
1423.2174
 20
2602.825497
 30
0.0
  0
VERTEX
  5
119
100
AcDbEntity
  8
Scenery
  6
HIDDENX2
100
AcDbVertex
100
AcDb2dVertex
 10
1353.658176
 20
2587.018991
 30
0.0
  0
VERTEX
  5
11A
100
AcDbEntity
  8
Scenery
  6
HIDDENX2
100
AcDbVertex
100
AcDb2dVertex
 10
1264.096173
 20
2563.288155
 30
0.0
  0
VERTEX
  5
11B
100
AcDbEntity
  8
Scenery
  6
HIDDENX2
100
AcDbVertex
100
AcDb2dVertex
 10
1158.144838
 20
2530.013084
 30
0.0
  0
VERTEX
  5
11C
100
AcDbEntity
  8
Scenery
  6
HIDDENX2
100
AcDbVertex
100
AcDb2dVertex
 10
1043.620708
 20
2487.147005
 30
0.0
  0
VERTEX
  5
11D
100
AcDbEntity
  8
Scenery
  6
HIDDENX2
100
AcDbVertex
100
AcDb2dVertex
 10
961.393955
 20
2451.474213
 30
0.0
  0
VERTEX
  5
11E
100
AcDbEntity
  8
Scenery
  6
HIDDENX2
100
AcDbVertex
100
AcDb2dVertex
 10
884.322364
 20
2413.903642
 30
0.0
  0
VERTEX
  5
11F
100
AcDbEntity
  8
Scenery
  6
HIDDENX2
100
AcDbVertex
100
AcDb2dVertex
 10
824.363403
 20
2381.623293
 30
0.0
  0
VERTEX
  5
120
100
AcDbEntity
  8
Scenery
  6
HIDDENX2
100
AcDbVertex
100
AcDb2dVertex
 10
762.961179
 20
2345.495681
 30
0.0
  0
VERTEX
  5
121
100
AcDbEntity
  8
Scenery
  6
HIDDENX2
100
AcDbVertex
100
AcDb2dVertex
 10
709.188521
 20
2311.020837
 30
0.0
  0
VERTEX
  5
122
100
AcDbEntity
  8
Scenery
  6
HIDDENX2
100
AcDbVertex
100
AcDb2dVertex
 10
660.596995
 20
2277.319543
 30
0.0
  0
VERTEX
  5
123
100
AcDbEntity
  8
Scenery
  6
HIDDENX2
100
AcDbVertex
100
AcDb2dVertex
 10
628.22666
 20
2253.385344
 30
0.0
  0
SEQEND
  5
124
100
AcDbEntity
  8
Scenery
  6
HIDDENX2
  0
POLYLINE
  5
125
100
AcDbEntity
  8
Scenery
  6
DASHEDX2
100
AcDb2dPolyline
 66
     1
 10
0.0
 20
0.0
 30
0.0
 70
   128
  0
VERTEX
  5
126
100
AcDbEntity
  8
Scenery
  6
DASHEDX2
100
AcDbVertex
100
AcDb2dVertex
 10
835.712356
 20
2195.072668
 30
0.0
  0
VERTEX
  5
127
100
AcDbEntity
  8
Scenery
  6
DASHEDX2
100
AcDbVertex
100
AcDb2dVertex
 10
909.075602
 20
2199.43344
 30
0.0
  0
VERTEX
  5
128
100
AcDbEntity
  8
Scenery
  6
DASHEDX2
100
AcDbVertex
100
AcDb2dVertex
 10
986.99514
 20
2211.22083
 30
0.0
  0
VERTEX
  5
129
100
AcDbEntity
  8
Scenery
  6
DASHEDX2
100
AcDbVertex
100
AcDb2dVertex
 10
1048.32982
 20
2225.885474
 30
0.0
  0
VERTEX
  5
12A
100
AcDbEntity
  8
Scenery
  6
DASHEDX2
100
AcDbVertex
100
AcDb2dVertex
 10
1125.972823
 20
2244.665591
 30
0.0
  0
VERTEX
  5
12B
100
AcDbEntity
  8
Scenery
  6
DASHEDX2
100
AcDbVertex
100
AcDb2dVertex
 10
1204.232536
 20
2262.280302
 30
0.0
  0
VERTEX
  5
12C
100
AcDbEntity
  8
Scenery
  6
DASHEDX2
100
AcDbVertex
100
AcDb2dVertex
 10
1279.812841
 20
2278.812443
 30
0.0
  0
VERTEX
  5
12D
100
AcDbEntity
  8
Scenery
  6
DASHEDX2
100
AcDbVertex
100
AcDb2dVertex
 10
1342.846087
 20
2291.923923
 30
0.0
  0
VERTEX
  5
12E
100
AcDbEntity
  8
Scenery
  6
DASHEDX2
100
AcDbVertex
100
AcDb2dVertex
 10
1439.220734
 20
2300.818753
 30
0.0
  0
VERTEX
  5
12F
100
AcDbEntity
  8
Scenery
  6
DASHEDX2
100
AcDbVertex
100
AcDb2dVertex
 10
1534.098584
 20
2309.37979
 30
0.0
  0
VERTEX
  5
130
100
AcDbEntity
  8
Scenery
  6
DASHEDX2
100
AcDbVertex
100
AcDb2dVertex
 10
1660.441523
 20
2323.439332
 30
0.0
  0
VERTEX
  5
131
100
AcDbEntity
  8
Scenery
  6
DASHEDX2
100
AcDbVertex
100
AcDb2dVertex
 10
1772.615767
 20
2337.374805
 30
0.0
  0
VERTEX
  5
132
100
AcDbEntity
  8
Scenery
  6
DASHEDX2
100
AcDbVertex
100
AcDb2dVertex
 10
1886.547571
 20
2356.495234
 30
0.0
  0
VERTEX
  5
133
100
AcDbEntity
  8
Scenery
  6
DASHEDX2
100
AcDbVertex
100
AcDb2dVertex
 10
2015.781789
 20
2374.856036
 30
0.0
  0
VERTEX
  5
134
100
AcDbEntity
  8
Scenery
  6
DASHEDX2
100
AcDbVertex
100
AcDb2dVertex
 10
2136.09468
 20
2387.700367
 30
0.0
  0
VERTEX
  5
135
100
AcDbEntity
  8
Scenery
  6
DASHEDX2
100
AcDbVertex
100
AcDb2dVertex
 10
2254.885031
 20
2396.406592
 30
0.0
  0
VERTEX
  5
136
100
AcDbEntity
  8
Scenery
  6
DASHEDX2
100
AcDbVertex
100
AcDb2dVertex
 10
2333.324455
 20
2400.004567
 30
0.0
  0
VERTEX
  5
137
100
AcDbEntity
  8
Scenery
  6
DASHEDX2
100
AcDbVertex
100
AcDb2dVertex
 10
2438.4
 20
2402.153878
 30
0.0
  0
VERTEX
  5
138
100
AcDbEntity
  8
Scenery
  6
DASHEDX2
100
AcDbVertex
100
AcDb2dVertex
 10
2566.559187
 20
2417.507111
 30
0.0
  0
VERTEX
  5
139
100
AcDbEntity
  8
Scenery
  6
DASHEDX2
100
AcDbVertex
100
AcDb2dVertex
 10
2694.718373
 20
2432.860345
 30
0.0
  0
VERTEX
  5
13A
100
AcDbEntity
  8
Scenery
  6
DASHEDX2
100
AcDbVertex
100
AcDb2dVertex
 10
2844.391855
 20
2448.999661
 30
0.0
  0
VERTEX
  5
13B
100
AcDbEntity
  8
Scenery
  6
DASHEDX2
100
AcDbVertex
100
AcDb2dVertex
 10
2977.639411
 20
2459.341026
 30
0.0
  0
VERTEX
  5
13C
100
AcDbEntity
  8
Scenery
  6
DASHEDX2
100
AcDbVertex
100
AcDb2dVertex
 10
3065.488358
 20
2464.097469
 30
0.0
  0
VERTEX
  5
13D
100
AcDbEntity
  8
Scenery
  6
DASHEDX2
100
AcDbVertex
100
AcDb2dVertex
 10
3177.828462
 20
2467.802257
 30
0.0
  0
VERTEX
  5
13E
100
AcDbEntity
  8
Scenery
  6
DASHEDX2
100
AcDbVertex
100
AcDb2dVertex
 10
3280.765315
 20
2468.858887
 30
0.0
  0
VERTEX
  5
13F
100
AcDbEntity
  8
Scenery
  6
DASHEDX2
100
AcDbVertex
100
AcDb2dVertex
 10
3388.215706
 20
2468.991523
 30
0.0
  0
VERTEX
  5
140
100
AcDbEntity
  8
Scenery
  6
DASHEDX2
100
AcDbVertex
100
AcDb2dVertex
 10
3513.926657
 20
2469.414877
 30
0.0
  0
VERTEX
  5
141
100
AcDbEntity
  8
Scenery
  6
DASHEDX2
100
AcDbVertex
100
AcDb2dVertex
 10
3612.121787
 20
2467.315259
 30
0.0
  0
VERTEX
  5
142
100
AcDbEntity
  8
Scenery
  6
DASHEDX2
100
AcDbVertex
100
AcDb2dVertex
 10
3726.327427
 20
2462.187817
 30
0.0
  0
VERTEX
  5
143
100
AcDbEntity
  8
Scenery
  6
DASHEDX2
100
AcDbVertex
100
AcDb2dVertex
 10
3873.615119
 20
2447.540014
 30
0.0
  0
VERTEX
  5
144
100
AcDbEntity
  8
Scenery
  6
DASHEDX2
100
AcDbVertex
100
AcDb2dVertex
 10
3981.822157
 20
2435.765595
 30
0.0
  0
VERTEX
  5
145
100
AcDbEntity
  8
Scenery
  6
DASHEDX2
100
AcDbVertex
100
AcDb2dVertex
 10
4148.221094
 20
2416.726716
 30
0.0
  0
VERTEX
  5
146
100
AcDbEntity
  8
Scenery
  6
DASHEDX2
100
AcDbVertex
100
AcDb2dVertex
 10
4313.068207
 20
2409.997777
 30
0.0
  0
VERTEX
  5
147
100
AcDbEntity
  8
Scenery
  6
DASHEDX2
100
AcDbVertex
100
AcDb2dVertex
 10
4387.963922
 20
2411.752085
 30
0.0
  0
VERTEX
  5
148
100
AcDbEntity
  8
Scenery
  6
DASHEDX2
100
AcDbVertex
100
AcDb2dVertex
 10
4293.131407
 20
2366.220163
 30
0.0
  0
VERTEX
  5
149
100
AcDbEntity
  8
Scenery
  6
DASHEDX2
100
AcDbVertex
100
AcDb2dVertex
 10
4202.971173
 20
2311.919503
 30
0.0
  0
VERTEX
  5
14A
100
AcDbEntity
  8
Scenery
  6
DASHEDX2
100
AcDbVertex
100
AcDb2dVertex
 10
4124.083108
 20
2254.00719
 30
0.0
  0
VERTEX
  5
14B
100
AcDbEntity
  8
Scenery
  6
DASHEDX2
100
AcDbVertex
100
AcDb2dVertex
 10
4059.380582
 20
2197.754174
 30
0.0
  0
VERTEX
  5
14C
100
AcDbEntity
  8
Scenery
  6
DASHEDX2
100
AcDbVertex
100
AcDb2dVertex
 10
3996.382297
 20
2133.6
 30
0.0
  0
SEQEND
  5
14D
100
AcDbEntity
  8
Scenery
  6
DASHEDX2
  0
POLYLINE
  5
14E
100
AcDbEntity
  8
Scenery
  6
HIDDENX2
100
AcDb2dPolyline
 66
     1
 10
0.0
 20
0.0
 30
0.0
 70
   128
  0
VERTEX
  5
14F
100
AcDbEntity
  8
Scenery
  6
HIDDENX2
100
AcDbVertex
100
AcDb2dVertex
 10
4137.228269
 20
2133.6
 30
0.0
  0
VERTEX
  5
150
100
AcDbEntity
  8
Scenery
  6
HIDDENX2
100
AcDbVertex
100
AcDb2dVertex
 10
4186.695776
 20
2187.803112
 30
0.0
  0
VERTEX
  5
151
100
AcDbEntity
  8
Scenery
  6
HIDDENX2
100
AcDbVertex
100
AcDb2dVertex
 10
4244.252378
 20
2242.770934
 30
0.0
  0
VERTEX
  5
152
100
AcDbEntity
  8
Scenery
  6
HIDDENX2
100
AcDbVertex
100
AcDb2dVertex
 10
4300.197126
 20
2289.323175
 30
0.0
  0
VERTEX
  5
153
100
AcDbEntity
  8
Scenery
  6
HIDDENX2
100
AcDbVertex
100
AcDb2dVertex
 10
4353.442032
 20
2328.287431
 30
0.0
  0
VERTEX
  5
154
100
AcDbEntity
  8
Scenery
  6
HIDDENX2
100
AcDbVertex
100
AcDb2dVertex
 10
4420.404597
 20
2370.880482
 30
0.0
  0
VERTEX
  5
155
100
AcDbEntity
  8
Scenery
  6
HIDDENX2
100
AcDbVertex
100
AcDb2dVertex
 10
4492.299282
 20
2409.621997
 30
0.0
  0
VERTEX
  5
156
100
AcDbEntity
  8
Scenery
  6
HIDDENX2
100
AcDbVertex
100
AcDb2dVertex
 10
4571.949377
 20
2445.046284
 30
0.0
  0
VERTEX
  5
157
100
AcDbEntity
  8
Scenery
  6
HIDDENX2
100
AcDbVertex
100
AcDb2dVertex
 10
4646.260326
 20
2471.661932
 30
0.0
  0
VERTEX
  5
158
100
AcDbEntity
  8
Scenery
  6
HIDDENX2
100
AcDbVertex
100
AcDb2dVertex
 10
4711.38498
 20
2490.255875
 30
0.0
  0
VERTEX
  5
159
100
AcDbEntity
  8
Scenery
  6
HIDDENX2
100
AcDbVertex
100
AcDb2dVertex
 10
4738.389166
 20
2496.728754
 30
0.0
  0
VERTEX
  5
15A
100
AcDbEntity
  8
Scenery
  6
HIDDENX2
100
AcDbVertex
100
AcDb2dVertex
 10
4608.769418
 20
2501.724154
 30
0.0
  0
VERTEX
  5
15B
100
AcDbEntity
  8
Scenery
  6
HIDDENX2
100
AcDbVertex
100
AcDb2dVertex
 10
4487.158409
 20
2505.906351
 30
0.0
  0
VERTEX
  5
15C
100
AcDbEntity
  8
Scenery
  6
HIDDENX2
100
AcDbVertex
100
AcDb2dVertex
 10
4406.776739
 20
2508.402639
 30
0.0
  0
VERTEX
  5
15D
100
AcDbEntity
  8
Scenery
  6
HIDDENX2
100
AcDbVertex
100
AcDb2dVertex
 10
4316.195297
 20
2510.960117
 30
0.0
  0
VERTEX
  5
15E
100
AcDbEntity
  8
Scenery
  6
HIDDENX2
100
AcDbVertex
100
AcDb2dVertex
 10
4216.799658
 20
2517.865905
 30
0.0
  0
VERTEX
  5
15F
100
AcDbEntity
  8
Scenery
  6
HIDDENX2
100
AcDbVertex
100
AcDb2dVertex
 10
4141.993306
 20
2526.597962
 30
0.0
  0
VERTEX
  5
160
100
AcDbEntity
  8
Scenery
  6
HIDDENX2
100
AcDbVertex
100
AcDb2dVertex
 10
4064.673435
 20
2535.62342
 30
0.0
  0
VERTEX
  5
161
100
AcDbEntity
  8
Scenery
  6
HIDDENX2
100
AcDbVertex
100
AcDb2dVertex
 10
3972.09466
 20
2546.430031
 30
0.0
  0
VERTEX
  5
162
100
AcDbEntity
  8
Scenery
  6
HIDDENX2
100
AcDbVertex
100
AcDb2dVertex
 10
3857.36355
 20
2559.822458
 30
0.0
  0
VERTEX
  5
163
100
AcDbEntity
  8
Scenery
  6
HIDDENX2
100
AcDbVertex
100
AcDb2dVertex
 10
3796.923854
 20
2566.877513
 30
0.0
  0
VERTEX
  5
164
100
AcDbEntity
  8
Scenery
  6
HIDDENX2
100
AcDbVertex
100
AcDb2dVertex
 10
3715.863206
 20
2571.870167
 30
0.0
  0
VERTEX
  5
165
100
AcDbEntity
  8
Scenery
  6
HIDDENX2
100
AcDbVertex
100
AcDb2dVertex
 10
3588.42834
 20
2572.486043
 30
0.0
  0
VERTEX
  5
166
100
AcDbEntity
  8
Scenery
  6
HIDDENX2
100
AcDbVertex
100
AcDb2dVertex
 10
3487.427271
 20
2572.594534
 30
0.0
  0
VERTEX
  5
167
100
AcDbEntity
  8
Scenery
  6
HIDDENX2
100
AcDbVertex
100
AcDb2dVertex
 10
3352.963801
 20
2572.218015
 30
0.0
  0
VERTEX
  5
168
100
AcDbEntity
  8
Scenery
  6
HIDDENX2
100
AcDbVertex
100
AcDb2dVertex
 10
3266.60139
 20
2571.662383
 30
0.0
  0
VERTEX
  5
169
100
AcDbEntity
  8
Scenery
  6
HIDDENX2
100
AcDbVertex
100
AcDb2dVertex
 10
3181.675454
 20
2570.87662
 30
0.0
  0
VERTEX
  5
16A
100
AcDbEntity
  8
Scenery
  6
HIDDENX2
100
AcDbVertex
100
AcDb2dVertex
 10
3056.188264
 20
2569.281039
 30
0.0
  0
VERTEX
  5
16B
100
AcDbEntity
  8
Scenery
  6
HIDDENX2
100
AcDbVertex
100
AcDb2dVertex
 10
2977.809876
 20
2568.021459
 30
0.0
  0
VERTEX
  5
16C
100
AcDbEntity
  8
Scenery
  6
HIDDENX2
100
AcDbVertex
100
AcDb2dVertex
 10
2903.399152
 20
2561.711224
 30
0.0
  0
VERTEX
  5
16D
100
AcDbEntity
  8
Scenery
  6
HIDDENX2
100
AcDbVertex
100
AcDb2dVertex
 10
2796.919477
 20
2548.210349
 30
0.0
  0
VERTEX
  5
16E
100
AcDbEntity
  8
Scenery
  6
HIDDENX2
100
AcDbVertex
100
AcDb2dVertex
 10
2641.085264
 20
2528.451666
 30
0.0
  0
VERTEX
  5
16F
100
AcDbEntity
  8
Scenery
  6
HIDDENX2
100
AcDbVertex
100
AcDb2dVertex
 10
2490.588312
 20
2509.36971
 30
0.0
  0
VERTEX
  5
170
100
AcDbEntity
  8
Scenery
  6
HIDDENX2
100
AcDbVertex
100
AcDb2dVertex
 10
2383.335019
 20
2501.046312
 30
0.0
  0
VERTEX
  5
171
100
AcDbEntity
  8
Scenery
  6
HIDDENX2
100
AcDbVertex
100
AcDb2dVertex
 10
2290.731963
 20
2497.47762
 30
0.0
  0
VERTEX
  5
172
100
AcDbEntity
  8
Scenery
  6
HIDDENX2
100
AcDbVertex
100
AcDb2dVertex
 10
2178.42138
 20
2492.769222
 30
0.0
  0
VERTEX
  5
173
100
AcDbEntity
  8
Scenery
  6
HIDDENX2
100
AcDbVertex
100
AcDb2dVertex
 10
2054.049375
 20
2487.068609
 30
0.0
  0
VERTEX
  5
174
100
AcDbEntity
  8
Scenery
  6
HIDDENX2
100
AcDbVertex
100
AcDb2dVertex
 10
1902.951867
 20
2479.454632
 30
0.0
  0
VERTEX
  5
175
100
AcDbEntity
  8
Scenery
  6
HIDDENX2
100
AcDbVertex
100
AcDb2dVertex
 10
1795.381775
 20
2473.573242
 30
0.0
  0
VERTEX
  5
176
100
AcDbEntity
  8
Scenery
  6
HIDDENX2
100
AcDbVertex
100
AcDb2dVertex
 10
1717.697493
 20
2467.716392
 30
0.0
  0
VERTEX
  5
177
100
AcDbEntity
  8
Scenery
  6
HIDDENX2
100
AcDbVertex
100
AcDb2dVertex
 10
1644.554383
 20
2459.7745
 30
0.0
  0
VERTEX
  5
178
100
AcDbEntity
  8
Scenery
  6
HIDDENX2
100
AcDbVertex
100
AcDb2dVertex
 10
1535.422924
 20
2443.866321
 30
0.0
  0
VERTEX
  5
179
100
AcDbEntity
  8
Scenery
  6
HIDDENX2
100
AcDbVertex
100
AcDb2dVertex
 10
1446.576542
 20
2432.816441
 30
0.0
  0
VERTEX
  5
17A
100
AcDbEntity
  8
Scenery
  6
HIDDENX2
100
AcDbVertex
100
AcDb2dVertex
 10
1400.209189
 20
2431.32226
 30
0.0
  0
VERTEX
  5
17B
100
AcDbEntity
  8
Scenery
  6
HIDDENX2
100
AcDbVertex
100
AcDb2dVertex
 10
1314.606958
 20
2426.664326
 30
0.0
  0
VERTEX
  5
17C
100
AcDbEntity
  8
Scenery
  6
HIDDENX2
100
AcDbVertex
100
AcDb2dVertex
 10
1203.587211
 20
2406.434841
 30
0.0
  0
VERTEX
  5
17D
100
AcDbEntity
  8
Scenery
  6
HIDDENX2
100
AcDbVertex
100
AcDb2dVertex
 10
1105.363836
 20
2374.902501
 30
0.0
  0
VERTEX
  5
17E
100
AcDbEntity
  8
Scenery
  6
HIDDENX2
100
AcDbVertex
100
AcDb2dVertex
 10
1040.406732
 20
2347.810644
 30
0.0
  0
VERTEX
  5
17F
100
AcDbEntity
  8
Scenery
  6
HIDDENX2
100
AcDbVertex
100
AcDb2dVertex
 10
956.521041
 20
2308.163555
 30
0.0
  0
VERTEX
  5
180
100
AcDbEntity
  8
Scenery
  6
HIDDENX2
100
AcDbVertex
100
AcDb2dVertex
 10
896.794339
 20
2276.559785
 30
0.0
  0
VERTEX
  5
181
100
AcDbEntity
  8
Scenery
  6
HIDDENX2
100
AcDbVertex
100
AcDb2dVertex
 10
846.743701
 20
2247.323198
 30
0.0
  0
VERTEX
  5
182
100
AcDbEntity
  8
Scenery
  6
HIDDENX2
100
AcDbVertex
100
AcDb2dVertex
 10
811.294117
 20
2285.599133
 30
0.0
  0
VERTEX
  5
183
100
AcDbEntity
  8
Scenery
  6
HIDDENX2
100
AcDbVertex
100
AcDb2dVertex
 10
764.605809
 20
2256.30829
 30
0.0
  0
VERTEX
  5
184
100
AcDbEntity
  8
Scenery
  6
HIDDENX2
100
AcDbVertex
100
AcDb2dVertex
 10
718.998385
 20
2225.360492
 30
0.0
  0
SEQEND
  5
185
100
AcDbEntity
  8
Scenery
  6
HIDDENX2
  0
POLYLINE
  5
186
100
AcDbEntity
  8
Scenery
  6
DASHEDX2
100
AcDb2dPolyline
 66
     1
 10
0.0
 20
0.0
 30
0.0
 70
   128
  0
VERTEX
  5
187
100
AcDbEntity
  8
Scenery
  6
DASHEDX2
100
AcDbVertex
100
AcDb2dVertex
 10
4387.963922
 20
2411.752085
 30
0.0
  0
VERTEX
  5
188
100
AcDbEntity
  8
Scenery
  6
DASHEDX2
100
AcDbVertex
100
AcDb2dVertex
 10
4441.198119
 20
2434.001403
 30
0.0
  0
VERTEX
  5
189
100
AcDbEntity
  8
Scenery
  6
DASHEDX2
100
AcDbVertex
100
AcDb2dVertex
 10
4503.737011
 20
2455.543402
 30
0.0
  0
VERTEX
  5
18A
100
AcDbEntity
  8
Scenery
  6
DASHEDX2
100
AcDbVertex
100
AcDb2dVertex
 10
4580.740221
 20
2475.716461
 30
0.0
  0
VERTEX
  5
18B
100
AcDbEntity
  8
Scenery
  6
DASHEDX2
100
AcDbVertex
100
AcDb2dVertex
 10
4644.346895
 20
2487.387831
 30
0.0
  0
VERTEX
  5
18C
100
AcDbEntity
  8
Scenery
  6
DASHEDX2
100
AcDbVertex
100
AcDb2dVertex
 10
4738.389166
 20
2496.728754
 30
0.0
  0
SEQEND
  5
18D
100
AcDbEntity
  8
Scenery
  6
DASHEDX2
  0
POLYLINE
  5
18E
100
AcDbEntity
  8
Scenery
  6
HIDDENX2
100
AcDb2dPolyline
 66
     1
 10
0.0
 20
0.0
 30
0.0
 70
   128
  0
VERTEX
  5
18F
100
AcDbEntity
  8
Scenery
  6
HIDDENX2
100
AcDbVertex
100
AcDb2dVertex
 10
4294.505154
 20
2133.6
 30
0.0
  0
VERTEX
  5
190
100
AcDbEntity
  8
Scenery
  6
HIDDENX2
100
AcDbVertex
100
AcDb2dVertex
 10
4365.849457
 20
2196.278086
 30
0.0
  0
VERTEX
  5
191
100
AcDbEntity
  8
Scenery
  6
HIDDENX2
100
AcDbVertex
100
AcDb2dVertex
 10
4438.714077
 20
2251.227484
 30
0.0
  0
VERTEX
  5
192
100
AcDbEntity
  8
Scenery
  6
HIDDENX2
100
AcDbVertex
100
AcDb2dVertex
 10
4508.316134
 20
2296.456505
 30
0.0
  0
VERTEX
  5
193
100
AcDbEntity
  8
Scenery
  6
HIDDENX2
100
AcDbVertex
100
AcDb2dVertex
 10
4582.729737
 20
2337.962461
 30
0.0
  0
VERTEX
  5
194
100
AcDbEntity
  8
Scenery
  6
HIDDENX2
100
AcDbVertex
100
AcDb2dVertex
 10
4657.70503
 20
2373.38467
 30
0.0
  0
VERTEX
  5
195
100
AcDbEntity
  8
Scenery
  6
HIDDENX2
100
AcDbVertex
100
AcDb2dVertex
 10
4738.85098
 20
2405.154047
 30
0.0
  0
VERTEX
  5
196
100
AcDbEntity
  8
Scenery
  6
HIDDENX2
100
AcDbVertex
100
AcDb2dVertex
 10
4812.726504
 20
2428.585449
 30
0.0
  0
VERTEX
  5
197
100
AcDbEntity
  8
Scenery
  6
HIDDENX2
100
AcDbVertex
100
AcDb2dVertex
 10
4906.038873
 20
2451.178641
 30
0.0
  0
VERTEX
  5
198
100
AcDbEntity
  8
Scenery
  6
HIDDENX2
100
AcDbVertex
100
AcDb2dVertex
 10
4984.940659
 20
2464.475877
 30
0.0
  0
VERTEX
  5
199
100
AcDbEntity
  8
Scenery
  6
HIDDENX2
100
AcDbVertex
100
AcDb2dVertex
 10
5071.218299
 20
2473.141033
 30
0.0
  0
VERTEX
  5
19A
100
AcDbEntity
  8
Scenery
  6
HIDDENX2
100
AcDbVertex
100
AcDb2dVertex
 10
5123.796276
 20
2474.095955
 30
0.0
  0
VERTEX
  5
19B
100
AcDbEntity
  8
Scenery
  6
HIDDENX2
100
AcDbVertex
100
AcDb2dVertex
 10
5220.998152
 20
2473.877163
 30
0.0
  0
VERTEX
  5
19C
100
AcDbEntity
  8
Scenery
  6
HIDDENX2
100
AcDbVertex
100
AcDb2dVertex
 10
5325.710785
 20
2465.32307
 30
0.0
  0
VERTEX
  5
19D
100
AcDbEntity
  8
Scenery
  6
HIDDENX2
100
AcDbVertex
100
AcDb2dVertex
 10
5428.689678
 20
2451.127366
 30
0.0
  0
VERTEX
  5
19E
100
AcDbEntity
  8
Scenery
  6
HIDDENX2
100
AcDbVertex
100
AcDb2dVertex
 10
5513.447921
 20
2436.345753
 30
0.0
  0
VERTEX
  5
19F
100
AcDbEntity
  8
Scenery
  6
HIDDENX2
100
AcDbVertex
100
AcDb2dVertex
 10
5596.302506
 20
2418.646818
 30
0.0
  0
VERTEX
  5
1A0
100
AcDbEntity
  8
Scenery
  6
HIDDENX2
100
AcDbVertex
100
AcDb2dVertex
 10
5624.058491
 20
2411.950773
 30
0.0
  0
SEQEND
  5
1A1
100
AcDbEntity
  8
Scenery
  6
HIDDENX2
  0
POLYLINE
  5
1A2
100
AcDbEntity
  8
Scenery
  6
DASHEDX2
100
AcDb2dPolyline
 66
     1
 10
0.0
 20
0.0
 30
0.0
 70
   128
  0
VERTEX
  5
1A3
100
AcDbEntity
  8
Scenery
  6
DASHEDX2
100
AcDbVertex
100
AcDb2dVertex
 10
5585.442643
 20
2318.723871
 30
0.0
  0
VERTEX
  5
1A4
100
AcDbEntity
  8
Scenery
  6
DASHEDX2
100
AcDbVertex
100
AcDb2dVertex
 10
5519.987006
 20
2332.442712
 30
0.0
  0
VERTEX
  5
1A5
100
AcDbEntity
  8
Scenery
  6
DASHEDX2
100
AcDbVertex
100
AcDb2dVertex
 10
5441.282691
 20
2346.287325
 30
0.0
  0
VERTEX
  5
1A6
100
AcDbEntity
  8
Scenery
  6
DASHEDX2
100
AcDbVertex
100
AcDb2dVertex
 10
5371.52427
 20
2356.5043
 30
0.0
  0
VERTEX
  5
1A7
100
AcDbEntity
  8
Scenery
  6
DASHEDX2
100
AcDbVertex
100
AcDb2dVertex
 10
5281.905152
 20
2366.856135
 30
0.0
  0
VERTEX
  5
1A8
100
AcDbEntity
  8
Scenery
  6
DASHEDX2
100
AcDbVertex
100
AcDb2dVertex
 10
5193.637356
 20
2370.230829
 30
0.0
  0
VERTEX
  5
1A9
100
AcDbEntity
  8
Scenery
  6
DASHEDX2
100
AcDbVertex
100
AcDb2dVertex
 10
5106.801464
 20
2370.173205
 30
0.0
  0
VERTEX
  5
1AA
100
AcDbEntity
  8
Scenery
  6
DASHEDX2
100
AcDbVertex
100
AcDb2dVertex
 10
4999.644816
 20
2361.557473
 30
0.0
  0
VERTEX
  5
1AB
100
AcDbEntity
  8
Scenery
  6
DASHEDX2
100
AcDbVertex
100
AcDb2dVertex
 10
4901.420597
 20
2343.896631
 30
0.0
  0
VERTEX
  5
1AC
100
AcDbEntity
  8
Scenery
  6
DASHEDX2
100
AcDbVertex
100
AcDb2dVertex
 10
4823.584374
 20
2323.458859
 30
0.0
  0
VERTEX
  5
1AD
100
AcDbEntity
  8
Scenery
  6
DASHEDX2
100
AcDbVertex
100
AcDb2dVertex
 10
4741.833987
 20
2295.476344
 30
0.0
  0
VERTEX
  5
1AE
100
AcDbEntity
  8
Scenery
  6
DASHEDX2
100
AcDbVertex
100
AcDb2dVertex
 10
4640.20136
 20
2250.549707
 30
0.0
  0
VERTEX
  5
1AF
100
AcDbEntity
  8
Scenery
  6
DASHEDX2
100
AcDbVertex
100
AcDb2dVertex
 10
4564.321458
 20
2208.826413
 30
0.0
  0
VERTEX
  5
1B0
100
AcDbEntity
  8
Scenery
  6
DASHEDX2
100
AcDbVertex
100
AcDb2dVertex
 10
4495.893845
 20
2164.353
 30
0.0
  0
VERTEX
  5
1B1
100
AcDbEntity
  8
Scenery
  6
DASHEDX2
100
AcDbVertex
100
AcDb2dVertex
 10
4454.131061
 20
2133.6
 30
0.0
  0
SEQEND
  5
1B2
100
AcDbEntity
  8
Scenery
  6
DASHEDX2
  0
POLYLINE
  5
1B3
100
AcDbEntity
  8
Tadpole
100
AcDb2dPolyline
 66
     1
 10
0.0
 20
0.0
 30
0.0
 70
     1
  0
VERTEX
  5
1B4
100
AcDbEntity
  8
Tadpole
100
AcDbVertex
100
AcDb2dVertex
 10
6343.441247
 20
2419.953207
 30
0.0
  0
VERTEX
  5
1B5
100
AcDbEntity
  8
Tadpole
100
AcDbVertex
100
AcDb2dVertex
 10
6382.591303
 20
2392.834694
 30
0.0
  0
VERTEX
  5
1B6
100
AcDbEntity
  8
Tadpole
100
AcDbVertex
100
AcDb2dVertex
 10
6299.213966
 20
2311.496839
 30
0.0
  0
VERTEX
  5
1B7
100
AcDbEntity
  8
Tadpole
100
AcDbVertex
100
AcDb2dVertex
 10
6296.603962
 20
2313.304739
 30
0.0
  0
SEQEND
  5
1B8
100
AcDbEntity
  8
Tadpole
  0
SOLID
  5
1B9
100
AcDbEntity
  8
Tadpole
  6
$INVISIBLE
100
AcDbTrace
 10
6296.603962
 20
2313.304739
 30
0.0
 11
6343.441247
 21
2419.953207
 31
0.0
 12
6299.213966
 22
2311.496839
 32
0.0
 13
6382.591303
 23
2392.834694
 33
0.0
  0
POLYLINE
  5
1BA
100
AcDbEntity
  8
Tadpole
100
AcDb2dPolyline
 66
     1
 10
0.0
 20
0.0
 30
0.0
 70
     1
  0
VERTEX
  5
1BB
100
AcDbEntity
  8
Tadpole
100
AcDbVertex
100
AcDb2dVertex
 10
6246.132429
 20
2478.132446
 30
0.0
  0
VERTEX
  5
1BC
100
AcDbEntity
  8
Tadpole
100
AcDbVertex
100
AcDb2dVertex
 10
6287.877472
 20
2455.208834
 30
0.0
  0
VERTEX
  5
1BD
100
AcDbEntity
  8
Tadpole
100
AcDbVertex
100
AcDb2dVertex
 10
6213.360445
 20
2365.683198
 30
0.0
  0
VERTEX
  5
1BE
100
AcDbEntity
  8
Tadpole
100
AcDbVertex
100
AcDb2dVertex
 10
6210.577442
 20
2367.211438
 30
0.0
  0
SEQEND
  5
1BF
100
AcDbEntity
  8
Tadpole
  0
SOLID
  5
1C0
100
AcDbEntity
  8
Tadpole
  6
$INVISIBLE
100
AcDbTrace
 10
6210.577442
 20
2367.211438
 30
0.0
 11
6246.132429
 21
2478.132446
 31
0.0
 12
6213.360445
 22
2365.683198
 32
0.0
 13
6287.877472
 23
2455.208834
 33
0.0
  0
POLYLINE
  5
1C1
100
AcDbEntity
  8
Tadpole
100
AcDb2dPolyline
 66
     1
 10
0.0
 20
0.0
 30
0.0
 70
     1
  0
VERTEX
  5
1C2
100
AcDbEntity
  8
Tadpole
100
AcDbVertex
100
AcDb2dVertex
 10
6151.997122
 20
2528.412846
 30
0.0
  0
VERTEX
  5
1C3
100
AcDbEntity
  8
Tadpole
100
AcDbVertex
100
AcDb2dVertex
 10
6194.733485
 20
2507.395141
 30
0.0
  0
VERTEX
  5
1C4
100
AcDbEntity
  8
Tadpole
100
AcDbVertex
100
AcDb2dVertex
 10
6124.329624
 20
2414.60008
 30
0.0
  0
VERTEX
  5
1C5
100
AcDbEntity
  8
Tadpole
100
AcDbVertex
100
AcDb2dVertex
 10
6121.480533
 20
2416.00126
 30
0.0
  0
SEQEND
  5
1C6
100
AcDbEntity
  8
Tadpole
  0
SOLID
  5
1C7
100
AcDbEntity
  8
Tadpole
  6
$INVISIBLE
100
AcDbTrace
 10
6121.480533
 20
2416.00126
 30
0.0
 11
6151.997122
 21
2528.412846
 31
0.0
 12
6124.329624
 22
2414.60008
 32
0.0
 13
6194.733485
 23
2507.395141
 33
0.0
  0
POLYLINE
  5
1C8
100
AcDbEntity
  8
Tadpole
100
AcDb2dPolyline
 66
     1
 10
0.0
 20
0.0
 30
0.0
 70
     1
  0
VERTEX
  5
1C9
100
AcDbEntity
  8
Tadpole
100
AcDbVertex
100
AcDb2dVertex
 10
6054.113416
 20
2571.17155
 30
0.0
  0
VERTEX
  5
1CA
100
AcDbEntity
  8
Tadpole
100
AcDbVertex
100
AcDb2dVertex
 10
6097.303634
 20
2553.281576
 30
0.0
  0
VERTEX
  5
1CB
100
AcDbEntity
  8
Tadpole
100
AcDbVertex
100
AcDb2dVertex
 10
6032.806942
 20
2458.676733
 30
0.0
  0
VERTEX
  5
1CC
100
AcDbEntity
  8
Tadpole
100
AcDbVertex
100
AcDb2dVertex
 10
6029.890532
 20
2459.931795
 30
0.0
  0
SEQEND
  5
1CD
100
AcDbEntity
  8
Tadpole
  0
SOLID
  5
1CE
100
AcDbEntity
  8
Tadpole
  6
$INVISIBLE
100
AcDbTrace
 10
6029.890532
 20
2459.931795
 30
0.0
 11
6054.113416
 21
2571.17155
 31
0.0
 12
6032.806942
 22
2458.676733
 32
0.0
 13
6097.303634
 23
2553.281576
 33
0.0
  0
POLYLINE
  5
1CF
100
AcDbEntity
  8
Tadpole
100
AcDb2dPolyline
 66
     1
 10
0.0
 20
0.0
 30
0.0
 70
     1
  0
VERTEX
  5
1D0
100
AcDbEntity
  8
Tadpole
100
AcDbVertex
100
AcDb2dVertex
 10
5957.671694
 20
2611.11902
 30
0.0
  0
VERTEX
  5
1D1
100
AcDbEntity
  8
Tadpole
100
AcDbVertex
100
AcDb2dVertex
 10
6000.652141
 20
2593.315936
 30
0.0
  0
VERTEX
  5
1D2
100
AcDbEntity
  8
Tadpole
100
AcDbVertex
100
AcDb2dVertex
 10
5939.188368
 20
2498.122308
 30
0.0
  0
VERTEX
  5
1D3
100
AcDbEntity
  8
Tadpole
100
AcDbVertex
100
AcDb2dVertex
 10
5936.241443
 20
2499.303942
 30
0.0
  0
SEQEND
  5
1D4
100
AcDbEntity
  8
Tadpole
  0
SOLID
  5
1D5
100
AcDbEntity
  8
Tadpole
  6
$INVISIBLE
100
AcDbTrace
 10
5936.241443
 20
2499.303942
 30
0.0
 11
5957.671694
 21
2611.11902
 31
0.0
 12
5939.188368
 22
2498.122308
 32
0.0
 13
6000.652141
 23
2593.315936
 33
0.0
  0
POLYLINE
  5
1D6
100
AcDbEntity
  8
Tadpole
100
AcDb2dPolyline
 66
     1
 10
0.0
 20
0.0
 30
0.0
 70
     1
  0
VERTEX
  5
1D7
100
AcDbEntity
  8
Tadpole
100
AcDbVertex
100
AcDb2dVertex
 10
5857.414319
 20
2649.055917
 30
0.0
  0
VERTEX
  5
1D8
100
AcDbEntity
  8
Tadpole
100
AcDbVertex
100
AcDb2dVertex
 10
5902.374044
 20
2633.347202
 30
0.0
  0
VERTEX
  5
1D9
100
AcDbEntity
  8
Tadpole
100
AcDbVertex
100
AcDb2dVertex
 10
5843.678672
 20
2532.736665
 30
0.0
  0
VERTEX
  5
1DA
100
AcDbEntity
  8
Tadpole
100
AcDbVertex
100
AcDb2dVertex
 10
5840.681357
 20
2533.783913
 30
0.0
  0
SEQEND
  5
1DB
100
AcDbEntity
  8
Tadpole
  0
SOLID
  5
1DC
100
AcDbEntity
  8
Tadpole
  6
$INVISIBLE
100
AcDbTrace
 10
5840.681357
 20
2533.783913
 30
0.0
 11
5857.414319
 21
2649.055917
 31
0.0
 12
5843.678672
 22
2532.736665
 32
0.0
 13
5902.374044
 23
2633.347202
 33
0.0
  0
POLYLINE
  5
1DD
100
AcDbEntity
  8
Tadpole
100
AcDb2dPolyline
 66
     1
 10
0.0
 20
0.0
 30
0.0
 70
     1
  0
VERTEX
  5
1DE
100
AcDbEntity
  8
Tadpole
100
AcDbVertex
100
AcDb2dVertex
 10
5758.940668
 20
2335.086043
 30
0.0
  0
VERTEX
  5
1DF
100
AcDbEntity
  8
Tadpole
100
AcDbVertex
100
AcDb2dVertex
 10
5724.760014
 20
2346.992382
 30
0.0
  0
VERTEX
  5
1E0
100
AcDbEntity
  8
Tadpole
100
AcDbVertex
100
AcDb2dVertex
 10
5769.296243
 20
2423.498497
 30
0.0
  0
VERTEX
  5
1E1
100
AcDbEntity
  8
Tadpole
100
AcDbVertex
100
AcDb2dVertex
 10
5771.574953
 20
2422.704741
 30
0.0
  0
SEQEND
  5
1E2
100
AcDbEntity
  8
Tadpole
  0
SOLID
  5
1E3
100
AcDbEntity
  8
Tadpole
  6
$INVISIBLE
100
AcDbTrace
 10
5771.574953
 20
2422.704741
 30
0.0
 11
5758.940668
 21
2335.086043
 31
0.0
 12
5769.296243
 22
2423.498497
 32
0.0
 13
5724.760014
 23
2346.992382
 33
0.0
  0
POLYLINE
  5
1E4
100
AcDbEntity
  8
Tadpole
100
AcDb2dPolyline
 66
     1
 10
0.0
 20
0.0
 30
0.0
 70
     1
  0
VERTEX
  5
1E5
100
AcDbEntity
  8
Tadpole
100
AcDbVertex
100
AcDb2dVertex
 10
5848.975443
 20
2304.210167
 30
0.0
  0
VERTEX
  5
1E6
100
AcDbEntity
  8
Tadpole
100
AcDbVertex
100
AcDb2dVertex
 10
5816.043523
 20
2318.041933
 30
0.0
  0
VERTEX
  5
1E7
100
AcDbEntity
  8
Tadpole
100
AcDbVertex
100
AcDb2dVertex
 10
5864.61966
 20
2390.651499
 30
0.0
  0
VERTEX
  5
1E8
100
AcDbEntity
  8
Tadpole
100
AcDbVertex
100
AcDb2dVertex
 10
5866.815121
 20
2389.729382
 30
0.0
  0
SEQEND
  5
1E9
100
AcDbEntity
  8
Tadpole
  0
SOLID
  5
1EA
100
AcDbEntity
  8
Tadpole
  6
$INVISIBLE
100
AcDbTrace
 10
5866.815121
 20
2389.729382
 30
0.0
 11
5848.975443
 21
2304.210167
 31
0.0
 12
5864.61966
 22
2390.651499
 32
0.0
 13
5816.043523
 23
2318.041933
 33
0.0
  0
POLYLINE
  5
1EB
100
AcDbEntity
  8
Tadpole
100
AcDb2dPolyline
 66
     1
 10
0.0
 20
0.0
 30
0.0
 70
     1
  0
VERTEX
  5
1EC
100
AcDbEntity
  8
Tadpole
100
AcDbVertex
100
AcDb2dVertex
 10
5937.227298
 20
2267.13389
 30
0.0
  0
VERTEX
  5
1ED
100
AcDbEntity
  8
Tadpole
100
AcDbVertex
100
AcDb2dVertex
 10
5905.381339
 20
2283.309922
 30
0.0
  0
VERTEX
  5
1EE
100
AcDbEntity
  8
Tadpole
100
AcDbVertex
100
AcDb2dVertex
 10
5959.078909
 20
2352.218275
 30
0.0
  0
VERTEX
  5
1EF
100
AcDbEntity
  8
Tadpole
100
AcDbVertex
100
AcDb2dVertex
 10
5961.201973
 20
2351.139873
 30
0.0
  0
SEQEND
  5
1F0
100
AcDbEntity
  8
Tadpole
  0
SOLID
  5
1F1
100
AcDbEntity
  8
Tadpole
  6
$INVISIBLE
100
AcDbTrace
 10
5961.201973
 20
2351.139873
 30
0.0
 11
5937.227298
 21
2267.13389
 31
0.0
 12
5959.078909
 22
2352.218275
 32
0.0
 13
5905.381339
 23
2283.309922
 33
0.0
  0
POLYLINE
  5
1F2
100
AcDbEntity
  8
Tadpole
100
AcDb2dPolyline
 66
     1
 10
0.0
 20
0.0
 30
0.0
 70
     1
  0
VERTEX
  5
1F3
100
AcDbEntity
  8
Tadpole
100
AcDbVertex
100
AcDb2dVertex
 10
6028.122987
 20
2224.420209
 30
0.0
  0
VERTEX
  5
1F4
100
AcDbEntity
  8
Tadpole
100
AcDbVertex
100
AcDb2dVertex
 10
5996.571387
 20
2241.163137
 30
0.0
  0
VERTEX
  5
1F5
100
AcDbEntity
  8
Tadpole
100
AcDbVertex
100
AcDb2dVertex
 10
6051.49262
 20
2309.100228
 30
0.0
  0
VERTEX
  5
1F6
100
AcDbEntity
  8
Tadpole
100
AcDbVertex
100
AcDb2dVertex
 10
6053.59606
 20
2307.984033
 30
0.0
  0
SEQEND
  5
1F7
100
AcDbEntity
  8
Tadpole
  0
SOLID
  5
1F8
100
AcDbEntity
  8
Tadpole
  6
$INVISIBLE
100
AcDbTrace
 10
6053.59606
 20
2307.984033
 30
0.0
 11
6028.122987
 21
2224.420209
 31
0.0
 12
6051.49262
 22
2309.100228
 32
0.0
 13
5996.571387
 23
2241.163137
 33
0.0
  0
POLYLINE
  5
1F9
100
AcDbEntity
  8
Tadpole
100
AcDb2dPolyline
 66
     1
 10
0.0
 20
0.0
 30
0.0
 70
     1
  0
VERTEX
  5
1FA
100
AcDbEntity
  8
Tadpole
100
AcDbVertex
100
AcDb2dVertex
 10
6109.346564
 20
2180.39073
 30
0.0
  0
VERTEX
  5
1FB
100
AcDbEntity
  8
Tadpole
100
AcDbVertex
100
AcDb2dVertex
 10
6078.39711
 20
2198.222174
 30
0.0
  0
VERTEX
  5
1FC
100
AcDbEntity
  8
Tadpole
100
AcDbVertex
100
AcDb2dVertex
 10
6135.650697
 20
2264.205633
 30
0.0
  0
VERTEX
  5
1FD
100
AcDbEntity
  8
Tadpole
100
AcDbVertex
100
AcDb2dVertex
 10
6137.713994
 20
2263.01687
 30
0.0
  0
SEQEND
  5
1FE
100
AcDbEntity
  8
Tadpole
  0
SOLID
  5
1FF
100
AcDbEntity
  8
Tadpole
  6
$INVISIBLE
100
AcDbTrace
 10
6137.713994
 20
2263.01687
 30
0.0
 11
6109.346564
 21
2180.39073
 31
0.0
 12
6135.650697
 22
2264.205633
 32
0.0
 13
6078.39711
 23
2198.222174
 33
0.0
  0
POLYLINE
  5
200
100
AcDbEntity
  8
Tadpole
100
AcDb2dPolyline
 66
     1
 10
0.0
 20
0.0
 30
0.0
 70
     1
  0
VERTEX
  5
201
100
AcDbEntity
  8
Tadpole
100
AcDbVertex
100
AcDb2dVertex
 10
5603.277376
 20
2717.340027
 30
0.0
  0
VERTEX
  5
202
100
AcDbEntity
  8
Tadpole
100
AcDbVertex
100
AcDb2dVertex
 10
5648.967127
 20
2703.901751
 30
0.0
  0
VERTEX
  5
203
100
AcDbEntity
  8
Tadpole
100
AcDbVertex
100
AcDb2dVertex
 10
5595.382045
 20
2600.478998
 30
0.0
  0
VERTEX
  5
204
100
AcDbEntity
  8
Tadpole
100
AcDbVertex
100
AcDb2dVertex
 10
5592.336061
 20
2601.374883
 30
0.0
  0
SEQEND
  5
205
100
AcDbEntity
  8
Tadpole
  0
SOLID
  5
206
100
AcDbEntity
  8
Tadpole
  6
$INVISIBLE
100
AcDbTrace
 10
5592.336061
 20
2601.374883
 30
0.0
 11
5603.277376
 21
2717.340027
 31
0.0
 12
5595.382045
 22
2600.478998
 32
0.0
 13
5648.967127
 23
2703.901751
 33
0.0
  0
POLYLINE
  5
207
100
AcDbEntity
  8
Tadpole
100
AcDb2dPolyline
 66
     1
 10
0.0
 20
0.0
 30
0.0
 70
     1
  0
VERTEX
  5
208
100
AcDbEntity
  8
Tadpole
100
AcDbVertex
100
AcDb2dVertex
 10
5496.219973
 20
2736.981104
 30
0.0
  0
VERTEX
  5
209
100
AcDbEntity
  8
Tadpole
100
AcDbVertex
100
AcDb2dVertex
 10
5542.661065
 20
2726.428117
 30
0.0
  0
VERTEX
  5
20A
100
AcDbEntity
  8
Tadpole
100
AcDbVertex
100
AcDb2dVertex
 10
5495.652481
 20
2619.855043
 30
0.0
  0
VERTEX
  5
20B
100
AcDbEntity
  8
Tadpole
100
AcDbVertex
100
AcDb2dVertex
 10
5492.556409
 20
2620.558576
 30
0.0
  0
SEQEND
  5
20C
100
AcDbEntity
  8
Tadpole
  0
SOLID
  5
20D
100
AcDbEntity
  8
Tadpole
  6
$INVISIBLE
100
AcDbTrace
 10
5492.556409
 20
2620.558576
 30
0.0
 11
5496.219973
 21
2736.981104
 31
0.0
 12
5495.652481
 22
2619.855043
 32
0.0
 13
5542.661065
 23
2726.428117
 33
0.0
  0
POLYLINE
  5
20E
100
AcDbEntity
  8
Tadpole
100
AcDb2dPolyline
 66
     1
 10
0.0
 20
0.0
 30
0.0
 70
     1
  0
VERTEX
  5
20F
100
AcDbEntity
  8
Tadpole
100
AcDbVertex
100
AcDb2dVertex
 10
5392.276392
 20
2743.2
 30
0.0
  0
VERTEX
  5
210
100
AcDbEntity
  8
Tadpole
100
AcDbVertex
100
AcDb2dVertex
 10
5439.025942
 20
2742.862704
 30
0.0
  0
VERTEX
  5
211
100
AcDbEntity
  8
Tadpole
100
AcDbVertex
100
AcDb2dVertex
 10
5395.219032
 20
2634.934109
 30
0.0
  0
VERTEX
  5
212
100
AcDbEntity
  8
Tadpole
100
AcDbVertex
100
AcDb2dVertex
 10
5392.103341
 20
2635.544924
 30
0.0
  0
SEQEND
  5
213
100
AcDbEntity
  8
Tadpole
  0
SOLID
  5
214
100
AcDbEntity
  8
Tadpole
  6
$INVISIBLE
100
AcDbTrace
 10
5392.103341
 20
2635.544924
 30
0.0
 11
5392.276392
 21
2743.2
 31
0.0
 12
5395.219032
 22
2634.934109
 32
0.0
 13
5439.025942
 23
2742.862704
 33
0.0
  0
POLYLINE
  5
215
100
AcDbEntity
  8
Tadpole
100
AcDb2dPolyline
 66
     1
 10
0.0
 20
0.0
 30
0.0
 70
     1
  0
VERTEX
  5
216
100
AcDbEntity
  8
Tadpole
100
AcDbVertex
100
AcDb2dVertex
 10
5283.725646
 20
2743.2
 30
0.0
  0
VERTEX
  5
217
100
AcDbEntity
  8
Tadpole
100
AcDbVertex
100
AcDb2dVertex
 10
5325.268855
 20
2743.2
 30
0.0
  0
VERTEX
  5
218
100
AcDbEntity
  8
Tadpole
100
AcDbVertex
100
AcDb2dVertex
 10
5294.216091
 20
2645.763597
 30
0.0
  0
VERTEX
  5
219
100
AcDbEntity
  8
Tadpole
100
AcDbVertex
100
AcDb2dVertex
 10
5291.062627
 20
2646.132772
 30
0.0
  0
SEQEND
  5
21A
100
AcDbEntity
  8
Tadpole
  0
SOLID
  5
21B
100
AcDbEntity
  8
Tadpole
  6
$INVISIBLE
100
AcDbTrace
 10
5291.062627
 20
2646.132772
 30
0.0
 11
5283.725646
 21
2743.2
 31
0.0
 12
5294.216091
 22
2645.763597
 32
0.0
 13
5325.268855
 23
2743.2
 33
0.0
  0
POLYLINE
  5
21C
100
AcDbEntity
  8
Tadpole
100
AcDb2dPolyline
 66
     1
 10
0.0
 20
0.0
 30
0.0
 70
     1
  0
VERTEX
  5
21D
100
AcDbEntity
  8
Tadpole
100
AcDbVertex
100
AcDb2dVertex
 10
5178.497493
 20
2743.2
 30
0.0
  0
VERTEX
  5
21E
100
AcDbEntity
  8
Tadpole
100
AcDbVertex
100
AcDb2dVertex
 10
5216.920861
 20
2743.2
 30
0.0
  0
VERTEX
  5
21F
100
AcDbEntity
  8
Tadpole
100
AcDbVertex
100
AcDb2dVertex
 10
5192.876218
 20
2652.878605
 30
0.0
  0
VERTEX
  5
220
100
AcDbEntity
  8
Tadpole
100
AcDbVertex
100
AcDb2dVertex
 10
5189.708598
 20
2653.094959
 30
0.0
  0
SEQEND
  5
221
100
AcDbEntity
  8
Tadpole
  0
SOLID
  5
222
100
AcDbEntity
  8
Tadpole
  6
$INVISIBLE
100
AcDbTrace
 10
5189.708598
 20
2653.094959
 30
0.0
 11
5178.497493
 21
2743.2
 31
0.0
 12
5192.876218
 22
2652.878605
 32
0.0
 13
5216.920861
 23
2743.2
 33
0.0
  0
POLYLINE
  5
223
100
AcDbEntity
  8
Tadpole
100
AcDb2dPolyline
 66
     1
 10
0.0
 20
0.0
 30
0.0
 70
     1
  0
VERTEX
  5
224
100
AcDbEntity
  8
Tadpole
100
AcDbVertex
100
AcDb2dVertex
 10
5079.570002
 20
2743.2
 30
0.0
  0
VERTEX
  5
225
100
AcDbEntity
  8
Tadpole
100
AcDbVertex
100
AcDb2dVertex
 10
5115.989498
 20
2743.2
 30
0.0
  0
VERTEX
  5
226
100
AcDbEntity
  8
Tadpole
100
AcDbVertex
100
AcDb2dVertex
 10
5091.419554
 20
2658.289014
 30
0.0
  0
VERTEX
  5
227
100
AcDbEntity
  8
Tadpole
100
AcDbVertex
100
AcDb2dVertex
 10
5088.257314
 20
2658.573385
 30
0.0
  0
SEQEND
  5
228
100
AcDbEntity
  8
Tadpole
  0
SOLID
  5
229
100
AcDbEntity
  8
Tadpole
  6
$INVISIBLE
100
AcDbTrace
 10
5088.257314
 20
2658.573385
 30
0.0
 11
5079.570002
 21
2743.2
 31
0.0
 12
5091.419554
 22
2658.289014
 32
0.0
 13
5115.989498
 23
2743.2
 33
0.0
  0
POLYLINE
  5
22A
100
AcDbEntity
  8
Tadpole
100
AcDb2dPolyline
 66
     1
 10
0.0
 20
0.0
 30
0.0
 70
     1
  0
VERTEX
  5
22B
100
AcDbEntity
  8
Tadpole
100
AcDbVertex
100
AcDb2dVertex
 10
4978.896642
 20
2743.2
 30
0.0
  0
VERTEX
  5
22C
100
AcDbEntity
  8
Tadpole
100
AcDbVertex
100
AcDb2dVertex
 10
5013.335522
 20
2743.2
 30
0.0
  0
VERTEX
  5
22D
100
AcDbEntity
  8
Tadpole
100
AcDbVertex
100
AcDb2dVertex
 10
4989.947525
 20
2663.390273
 30
0.0
  0
VERTEX
  5
22E
100
AcDbEntity
  8
Tadpole
100
AcDbVertex
100
AcDb2dVertex
 10
4986.78627
 20
2663.685387
 30
0.0
  0
SEQEND
  5
22F
100
AcDbEntity
  8
Tadpole
  0
SOLID
  5
230
100
AcDbEntity
  8
Tadpole
  6
$INVISIBLE
100
AcDbTrace
 10
4986.78627
 20
2663.685387
 30
0.0
 11
4978.896642
 21
2743.2
 31
0.0
 12
4989.947525
 22
2663.390273
 32
0.0
 13
5013.335522
 23
2743.2
 33
0.0
  0
POLYLINE
  5
231
100
AcDbEntity
  8
Tadpole
100
AcDb2dPolyline
 66
     1
 10
0.0
 20
0.0
 30
0.0
 70
     1
  0
VERTEX
  5
232
100
AcDbEntity
  8
Tadpole
100
AcDbVertex
100
AcDb2dVertex
 10
4875.454738
 20
2743.2
 30
0.0
  0
VERTEX
  5
233
100
AcDbEntity
  8
Tadpole
100
AcDbVertex
100
AcDb2dVertex
 10
4907.864506
 20
2743.2
 30
0.0
  0
VERTEX
  5
234
100
AcDbEntity
  8
Tadpole
100
AcDbVertex
100
AcDb2dVertex
 10
4888.463452
 20
2668.209553
 30
0.0
  0
VERTEX
  5
235
100
AcDbEntity
  8
Tadpole
100
AcDbVertex
100
AcDb2dVertex
 10
4885.294392
 20
2668.40368
 30
0.0
  0
SEQEND
  5
236
100
AcDbEntity
  8
Tadpole
  0
SOLID
  5
237
100
AcDbEntity
  8
Tadpole
  6
$INVISIBLE
100
AcDbTrace
 10
4885.294392
 20
2668.40368
 30
0.0
 11
4875.454738
 21
2743.2
 31
0.0
 12
4888.463452
 22
2668.209553
 32
0.0
 13
4907.864506
 23
2743.2
 33
0.0
  0
POLYLINE
  5
238
100
AcDbEntity
  8
Tadpole
100
AcDb2dPolyline
 66
     1
 10
0.0
 20
0.0
 30
0.0
 70
     1
  0
VERTEX
  5
239
100
AcDbEntity
  8
Tadpole
100
AcDbVertex
100
AcDb2dVertex
 10
4773.071588
 20
2743.2
 30
0.0
  0
VERTEX
  5
23A
100
AcDbEntity
  8
Tadpole
100
AcDbVertex
100
AcDb2dVertex
 10
4803.689496
 20
2743.2
 30
0.0
  0
VERTEX
  5
23B
100
AcDbEntity
  8
Tadpole
100
AcDbVertex
100
AcDb2dVertex
 10
4786.961805
 20
2672.672604
 30
0.0
  0
VERTEX
  5
23C
100
AcDbEntity
  8
Tadpole
100
AcDbVertex
100
AcDb2dVertex
 10
4783.78946
 20
2672.802409
 30
0.0
  0
SEQEND
  5
23D
100
AcDbEntity
  8
Tadpole
  0
SOLID
  5
23E
100
AcDbEntity
  8
Tadpole
  6
$INVISIBLE
100
AcDbTrace
 10
4783.78946
 20
2672.802409
 30
0.0
 11
4773.071588
 21
2743.2
 31
0.0
 12
4786.961805
 22
2672.672604
 32
0.0
 13
4803.689496
 23
2743.2
 33
0.0
  0
POLYLINE
  5
23F
100
AcDbEntity
  8
Tadpole
100
AcDb2dPolyline
 66
     1
 10
0.0
 20
0.0
 30
0.0
 70
     1
  0
VERTEX
  5
240
100
AcDbEntity
  8
Tadpole
100
AcDbVertex
100
AcDb2dVertex
 10
4671.505352
 20
2743.2
 30
0.0
  0
VERTEX
  5
241
100
AcDbEntity
  8
Tadpole
100
AcDbVertex
100
AcDb2dVertex
 10
4700.509145
 20
2743.2
 30
0.0
  0
VERTEX
  5
242
100
AcDbEntity
  8
Tadpole
100
AcDbVertex
100
AcDb2dVertex
 10
4685.44489
 20
2676.781164
 30
0.0
  0
VERTEX
  5
243
100
AcDbEntity
  8
Tadpole
100
AcDbVertex
100
AcDb2dVertex
 10
4682.27142
 20
2676.879737
 30
0.0
  0
SEQEND
  5
244
100
AcDbEntity
  8
Tadpole
  0
SOLID
  5
245
100
AcDbEntity
  8
Tadpole
  6
$INVISIBLE
100
AcDbTrace
 10
4682.27142
 20
2676.879737
 30
0.0
 11
4671.505352
 21
2743.2
 31
0.0
 12
4685.44489
 22
2676.781164
 32
0.0
 13
4700.509145
 23
2743.2
 33
0.0
  0
POLYLINE
  5
246
100
AcDbEntity
  8
Tadpole
100
AcDb2dPolyline
 66
     1
 10
0.0
 20
0.0
 30
0.0
 70
     1
  0
VERTEX
  5
247
100
AcDbEntity
  8
Tadpole
100
AcDbVertex
100
AcDb2dVertex
 10
4572.678325
 20
2743.2
 30
0.0
  0
VERTEX
  5
248
100
AcDbEntity
  8
Tadpole
100
AcDbVertex
100
AcDb2dVertex
 10
4600.304554
 20
2743.2
 30
0.0
  0
VERTEX
  5
249
100
AcDbEntity
  8
Tadpole
100
AcDbVertex
100
AcDb2dVertex
 10
4583.911896
 20
2680.484381
 30
0.0
  0
VERTEX
  5
24A
100
AcDbEntity
  8
Tadpole
100
AcDbVertex
100
AcDb2dVertex
 10
4580.743331
 20
2680.686425
 30
0.0
  0
SEQEND
  5
24B
100
AcDbEntity
  8
Tadpole
  0
SOLID
  5
24C
100
AcDbEntity
  8
Tadpole
  6
$INVISIBLE
100
AcDbTrace
 10
4580.743331
 20
2680.686425
 30
0.0
 11
4572.678325
 21
2743.2
 31
0.0
 12
4583.911896
 22
2680.484381
 32
0.0
 13
4600.304554
 23
2743.2
 33
0.0
  0
POLYLINE
  5
24D
100
AcDbEntity
  8
Tadpole
100
AcDb2dPolyline
 66
     1
 10
0.0
 20
0.0
 30
0.0
 70
     1
  0
VERTEX
  5
24E
100
AcDbEntity
  8
Tadpole
100
AcDbVertex
100
AcDb2dVertex
 10
4472.30534
 20
2743.2
 30
0.0
  0
VERTEX
  5
24F
100
AcDbEntity
  8
Tadpole
100
AcDbVertex
100
AcDb2dVertex
 10
4498.641052
 20
2743.2
 30
0.0
  0
VERTEX
  5
250
100
AcDbEntity
  8
Tadpole
100
AcDbVertex
100
AcDb2dVertex
 10
4482.36808
 20
2683.88216
 30
0.0
  0
VERTEX
  5
251
100
AcDbEntity
  8
Tadpole
100
AcDbVertex
100
AcDb2dVertex
 10
4479.202189
 20
2684.122486
 30
0.0
  0
SEQEND
  5
252
100
AcDbEntity
  8
Tadpole
  0
SOLID
  5
253
100
AcDbEntity
  8
Tadpole
  6
$INVISIBLE
100
AcDbTrace
 10
4479.202189
 20
2684.122486
 30
0.0
 11
4472.30534
 21
2743.2
 31
0.0
 12
4482.36808
 22
2683.88216
 32
0.0
 13
4498.641052
 23
2743.2
 33
0.0
  0
POLYLINE
  5
254
100
AcDbEntity
  8
Tadpole
100
AcDb2dPolyline
 66
     1
 10
0.0
 20
0.0
 30
0.0
 70
     1
  0
VERTEX
  5
255
100
AcDbEntity
  8
Tadpole
100
AcDbVertex
100
AcDb2dVertex
 10
4370.958397
 20
2745.05754
 30
0.0
  0
VERTEX
  5
256
100
AcDbEntity
  8
Tadpole
100
AcDbVertex
100
AcDb2dVertex
 10
4396.283433
 20
2743.107526
 30
0.0
  0
VERTEX
  5
257
100
AcDbEntity
  8
Tadpole
100
AcDbVertex
100
AcDb2dVertex
 10
4380.814657
 20
2686.959296
 30
0.0
  0
VERTEX
  5
258
100
AcDbEntity
  8
Tadpole
100
AcDbVertex
100
AcDb2dVertex
 10
4377.649028
 20
2687.203048
 30
0.0
  0
SEQEND
  5
259
100
AcDbEntity
  8
Tadpole
  0
SOLID
  5
25A
100
AcDbEntity
  8
Tadpole
  6
$INVISIBLE
100
AcDbTrace
 10
4377.649028
 20
2687.203048
 30
0.0
 11
4370.958397
 21
2745.05754
 31
0.0
 12
4380.814657
 22
2686.959296
 32
0.0
 13
4396.283433
 23
2743.107526
 33
0.0
  0
POLYLINE
  5
25B
100
AcDbEntity
  8
Tadpole
100
AcDb2dPolyline
 66
     1
 10
0.0
 20
0.0
 30
0.0
 70
     1
  0
VERTEX
  5
25C
100
AcDbEntity
  8
Tadpole
100
AcDbVertex
100
AcDb2dVertex
 10
4270.169476
 20
2743.2
 30
0.0
  0
VERTEX
  5
25D
100
AcDbEntity
  8
Tadpole
100
AcDbVertex
100
AcDb2dVertex
 10
4294.249706
 20
2743.2
 30
0.0
  0
VERTEX
  5
25E
100
AcDbEntity
  8
Tadpole
100
AcDbVertex
100
AcDb2dVertex
 10
4279.251117
 20
2689.692972
 30
0.0
  0
VERTEX
  5
25F
100
AcDbEntity
  8
Tadpole
100
AcDbVertex
100
AcDb2dVertex
 10
4276.086608
 20
2689.950861
 30
0.0
  0
SEQEND
  5
260
100
AcDbEntity
  8
Tadpole
  0
SOLID
  5
261
100
AcDbEntity
  8
Tadpole
  6
$INVISIBLE
100
AcDbTrace
 10
4276.086608
 20
2689.950861
 30
0.0
 11
4270.169476
 21
2743.2
 31
0.0
 12
4279.251117
 22
2689.692972
 32
0.0
 13
4294.249706
 23
2743.2
 33
0.0
  0
POLYLINE
  5
262
100
AcDbEntity
  8
Tadpole
100
AcDb2dPolyline
 66
     1
 10
0.0
 20
0.0
 30
0.0
 70
     1
  0
VERTEX
  5
263
100
AcDbEntity
  8
Tadpole
100
AcDbVertex
100
AcDb2dVertex
 10
4167.318295
 20
2743.2
 30
0.0
  0
VERTEX
  5
264
100
AcDbEntity
  8
Tadpole
100
AcDbVertex
100
AcDb2dVertex
 10
4190.369457
 20
2743.2
 30
0.0
  0
VERTEX
  5
265
100
AcDbEntity
  8
Tadpole
100
AcDbVertex
100
AcDb2dVertex
 10
4177.682712
 20
2692.142701
 30
0.0
  0
VERTEX
  5
266
100
AcDbEntity
  8
Tadpole
100
AcDbVertex
100
AcDb2dVertex
 10
4174.511932
 20
2692.306351
 30
0.0
  0
SEQEND
  5
267
100
AcDbEntity
  8
Tadpole
  0
SOLID
  5
268
100
AcDbEntity
  8
Tadpole
  6
$INVISIBLE
100
AcDbTrace
 10
4174.511932
 20
2692.306351
 30
0.0
 11
4167.318295
 21
2743.2
 31
0.0
 12
4177.682712
 22
2692.142701
 32
0.0
 13
4190.369457
 23
2743.2
 33
0.0
  0
POLYLINE
  5
269
100
AcDbEntity
  8
Tadpole
100
AcDb2dPolyline
 66
     1
 10
0.0
 20
0.0
 30
0.0
 70
     1
  0
VERTEX
  5
26A
100
AcDbEntity
  8
Tadpole
100
AcDbVertex
100
AcDb2dVertex
 10
4067.05666
 20
2743.2
 30
0.0
  0
VERTEX
  5
26B
100
AcDbEntity
  8
Tadpole
100
AcDbVertex
100
AcDb2dVertex
 10
4089.357767
 20
2743.2
 30
0.0
  0
VERTEX
  5
26C
100
AcDbEntity
  8
Tadpole
100
AcDbVertex
100
AcDb2dVertex
 10
4076.101721
 20
2694.174622
 30
0.0
  0
VERTEX
  5
26D
100
AcDbEntity
  8
Tadpole
100
AcDbVertex
100
AcDb2dVertex
 10
4072.934969
 20
2694.403324
 30
0.0
  0
SEQEND
  5
26E
100
AcDbEntity
  8
Tadpole
  0
SOLID
  5
26F
100
AcDbEntity
  8
Tadpole
  6
$INVISIBLE
100
AcDbTrace
 10
4072.934969
 20
2694.403324
 30
0.0
 11
4067.05666
 21
2743.2
 31
0.0
 12
4076.101721
 22
2694.174622
 32
0.0
 13
4089.357767
 23
2743.2
 33
0.0
  0
POLYLINE
  5
270
100
AcDbEntity
  8
Tadpole
100
AcDb2dPolyline
 66
     1
 10
0.0
 20
0.0
 30
0.0
 70
     1
  0
VERTEX
  5
271
100
AcDbEntity
  8
Tadpole
100
AcDbVertex
100
AcDb2dVertex
 10
3963.527112
 20
2743.2
 30
0.0
  0
VERTEX
  5
272
100
AcDbEntity
  8
Tadpole
100
AcDbVertex
100
AcDb2dVertex
 10
3985.06112
 20
2743.2
 30
0.0
  0
VERTEX
  5
273
100
AcDbEntity
  8
Tadpole
100
AcDbVertex
100
AcDb2dVertex
 10
3974.519953
 20
2695.971406
 30
0.0
  0
VERTEX
  5
274
100
AcDbEntity
  8
Tadpole
100
AcDbVertex
100
AcDb2dVertex
 10
3971.346164
 20
2696.059067
 30
0.0
  0
SEQEND
  5
275
100
AcDbEntity
  8
Tadpole
  0
SOLID
  5
276
100
AcDbEntity
  8
Tadpole
  6
$INVISIBLE
100
AcDbTrace
 10
3971.346164
 20
2696.059067
 30
0.0
 11
3963.527112
 21
2743.2
 31
0.0
 12
3974.519953
 22
2695.971406
 32
0.0
 13
3985.06112
 23
2743.2
 33
0.0
  0
POLYLINE
  5
277
100
AcDbEntity
  8
Tadpole
100
AcDb2dPolyline
 66
     1
 10
0.0
 20
0.0
 30
0.0
 70
     1
  0
VERTEX
  5
278
100
AcDbEntity
  8
Tadpole
100
AcDbVertex
100
AcDb2dVertex
 10
3863.288176
 20
2743.2
 30
0.0
  0
VERTEX
  5
279
100
AcDbEntity
  8
Tadpole
100
AcDbVertex
100
AcDb2dVertex
 10
3884.320187
 20
2743.2
 30
0.0
  0
VERTEX
  5
27A
100
AcDbEntity
  8
Tadpole
100
AcDbVertex
100
AcDb2dVertex
 10
3872.92799
 20
2697.32172
 30
0.0
  0
VERTEX
  5
27B
100
AcDbEntity
  8
Tadpole
100
AcDbVertex
100
AcDb2dVertex
 10
3869.757185
 20
2697.48487
 30
0.0
  0
SEQEND
  5
27C
100
AcDbEntity
  8
Tadpole
  0
SOLID
  5
27D
100
AcDbEntity
  8
Tadpole
  6
$INVISIBLE
100
AcDbTrace
 10
3869.757185
 20
2697.48487
 30
0.0
 11
3863.288176
 21
2743.2
 31
0.0
 12
3872.92799
 22
2697.32172
 32
0.0
 13
3884.320187
 23
2743.2
 33
0.0
  0
POLYLINE
  5
27E
100
AcDbEntity
  8
Tadpole
100
AcDb2dPolyline
 66
     1
 10
0.0
 20
0.0
 30
0.0
 70
     1
  0
VERTEX
  5
27F
100
AcDbEntity
  8
Tadpole
100
AcDbVertex
100
AcDb2dVertex
 10
3761.593517
 20
2743.2
 30
0.0
  0
VERTEX
  5
280
100
AcDbEntity
  8
Tadpole
100
AcDbVertex
100
AcDb2dVertex
 10
3782.205818
 20
2743.2
 30
0.0
  0
VERTEX
  5
281
100
AcDbEntity
  8
Tadpole
100
AcDbVertex
100
AcDb2dVertex
 10
3771.33388
 20
2698.38015
 30
0.0
  0
VERTEX
  5
282
100
AcDbEntity
  8
Tadpole
100
AcDbVertex
100
AcDb2dVertex
 10
3768.162237
 20
2698.52612
 30
0.0
  0
SEQEND
  5
283
100
AcDbEntity
  8
Tadpole
  0
SOLID
  5
284
100
AcDbEntity
  8
Tadpole
  6
$INVISIBLE
100
AcDbTrace
 10
3768.162237
 20
2698.52612
 30
0.0
 11
3761.593517
 21
2743.2
 31
0.0
 12
3771.33388
 22
2698.38015
 32
0.0
 13
3782.205818
 23
2743.2
 33
0.0
  0
POLYLINE
  5
285
100
AcDbEntity
  8
Tadpole
100
AcDb2dPolyline
 66
     1
 10
0.0
 20
0.0
 30
0.0
 70
     1
  0
VERTEX
  5
286
100
AcDbEntity
  8
Tadpole
100
AcDbVertex
100
AcDb2dVertex
 10
3657.021102
 20
2743.2
 30
0.0
  0
VERTEX
  5
287
100
AcDbEntity
  8
Tadpole
100
AcDbVertex
100
AcDb2dVertex
 10
3677.323709
 20
2743.2
 30
0.0
  0
VERTEX
  5
288
100
AcDbEntity
  8
Tadpole
100
AcDbVertex
100
AcDb2dVertex
 10
3669.737739
 20
2699.198488
 30
0.0
  0
VERTEX
  5
289
100
AcDbEntity
  8
Tadpole
100
AcDbVertex
100
AcDb2dVertex
 10
3666.563456
 20
2699.130999
 30
0.0
  0
SEQEND
  5
28A
100
AcDbEntity
  8
Tadpole
  0
SOLID
  5
28B
100
AcDbEntity
  8
Tadpole
  6
$INVISIBLE
100
AcDbTrace
 10
3666.563456
 20
2699.130999
 30
0.0
 11
3657.021102
 21
2743.2
 31
0.0
 12
3669.737739
 22
2699.198488
 32
0.0
 13
3677.323709
 23
2743.2
 33
0.0
  0
POLYLINE
  5
28C
100
AcDbEntity
  8
Tadpole
100
AcDb2dPolyline
 66
     1
 10
0.0
 20
0.0
 30
0.0
 70
     1
  0
VERTEX
  5
28D
100
AcDbEntity
  8
Tadpole
100
AcDbVertex
100
AcDb2dVertex
 10
3553.26391
 20
2743.2
 30
0.0
  0
VERTEX
  5
28E
100
AcDbEntity
  8
Tadpole
100
AcDbVertex
100
AcDb2dVertex
 10
3573.736001
 20
2743.2
 30
0.0
  0
VERTEX
  5
28F
100
AcDbEntity
  8
Tadpole
100
AcDbVertex
100
AcDb2dVertex
 10
3568.049988
 20
2699.01449
 30
0.0
  0
VERTEX
  5
290
100
AcDbEntity
  8
Tadpole
100
AcDbVertex
100
AcDb2dVertex
 10
3564.881488
 20
2698.811427
 30
0.0
  0
SEQEND
  5
291
100
AcDbEntity
  8
Tadpole
  0
SOLID
  5
292
100
AcDbEntity
  8
Tadpole
  6
$INVISIBLE
100
AcDbTrace
 10
3564.881488
 20
2698.811427
 30
0.0
 11
3553.26391
 21
2743.2
 31
0.0
 12
3568.049988
 22
2699.01449
 32
0.0
 13
3573.736001
 23
2743.2
 33
0.0
  0
POLYLINE
  5
293
100
AcDbEntity
  8
Tadpole
100
AcDb2dPolyline
 66
     1
 10
0.0
 20
0.0
 30
0.0
 70
     1
  0
VERTEX
  5
294
100
AcDbEntity
  8
Tadpole
100
AcDbVertex
100
AcDb2dVertex
 10
3450.708207
 20
2743.2
 30
0.0
  0
VERTEX
  5
295
100
AcDbEntity
  8
Tadpole
100
AcDbVertex
100
AcDb2dVertex
 10
3470.999154
 20
2743.2
 30
0.0
  0
VERTEX
  5
296
100
AcDbEntity
  8
Tadpole
100
AcDbVertex
100
AcDb2dVertex
 10
3466.532512
 20
2699.715328
 30
0.0
  0
VERTEX
  5
297
100
AcDbEntity
  8
Tadpole
100
AcDbVertex
100
AcDb2dVertex
 10
3463.370255
 20
2699.431154
 30
0.0
  0
SEQEND
  5
298
100
AcDbEntity
  8
Tadpole
  0
SOLID
  5
299
100
AcDbEntity
  8
Tadpole
  6
$INVISIBLE
100
AcDbTrace
 10
3463.370255
 20
2699.431154
 30
0.0
 11
3450.708207
 21
2743.2
 31
0.0
 12
3466.532512
 22
2699.715328
 32
0.0
 13
3470.999154
 23
2743.2
 33
0.0
  0
POLYLINE
  5
29A
100
AcDbEntity
  8
Tadpole
100
AcDb2dPolyline
 66
     1
 10
0.0
 20
0.0
 30
0.0
 70
     1
  0
VERTEX
  5
29B
100
AcDbEntity
  8
Tadpole
100
AcDbVertex
100
AcDb2dVertex
 10
3352.262356
 20
2743.2
 30
0.0
  0
VERTEX
  5
29C
100
AcDbEntity
  8
Tadpole
100
AcDbVertex
100
AcDb2dVertex
 10
3372.523673
 20
2743.2
 30
0.0
  0
VERTEX
  5
29D
100
AcDbEntity
  8
Tadpole
100
AcDbVertex
100
AcDb2dVertex
 10
3364.939036
 20
2699.303282
 30
0.0
  0
VERTEX
  5
29E
100
AcDbEntity
  8
Tadpole
100
AcDbVertex
100
AcDb2dVertex
 10
3361.764729
 20
2699.236968
 30
0.0
  0
SEQEND
  5
29F
100
AcDbEntity
  8
Tadpole
  0
SOLID
  5
2A0
100
AcDbEntity
  8
Tadpole
  6
$INVISIBLE
100
AcDbTrace
 10
3361.764729
 20
2699.236968
 30
0.0
 11
3352.262356
 21
2743.2
 31
0.0
 12
3364.939036
 22
2699.303282
 32
0.0
 13
3372.523673
 23
2743.2
 33
0.0
  0
POLYLINE
  5
2A1
100
AcDbEntity
  8
Tadpole
100
AcDb2dPolyline
 66
     1
 10
0.0
 20
0.0
 30
0.0
 70
     1
  0
VERTEX
  5
2A2
100
AcDbEntity
  8
Tadpole
100
AcDbVertex
100
AcDb2dVertex
 10
3252.779203
 20
2743.2
 30
0.0
  0
VERTEX
  5
2A3
100
AcDbEntity
  8
Tadpole
100
AcDbVertex
100
AcDb2dVertex
 10
3273.296335
 20
2743.2
 30
0.0
  0
VERTEX
  5
2A4
100
AcDbEntity
  8
Tadpole
100
AcDbVertex
100
AcDb2dVertex
 10
3263.340851
 20
2698.585018
 30
0.0
  0
VERTEX
  5
2A5
100
AcDbEntity
  8
Tadpole
100
AcDbVertex
100
AcDb2dVertex
 10
3260.167057
 20
2698.672521
 30
0.0
  0
SEQEND
  5
2A6
100
AcDbEntity
  8
Tadpole
  0
SOLID
  5
2A7
100
AcDbEntity
  8
Tadpole
  6
$INVISIBLE
100
AcDbTrace
 10
3260.167057
 20
2698.672521
 30
0.0
 11
3252.779203
 21
2743.2
 31
0.0
 12
3263.340851
 22
2698.585018
 32
0.0
 13
3273.296335
 23
2743.2
 33
0.0
  0
POLYLINE
  5
2A8
100
AcDbEntity
  8
Tadpole
100
AcDb2dPolyline
 66
     1
 10
0.0
 20
0.0
 30
0.0
 70
     1
  0
VERTEX
  5
2A9
100
AcDbEntity
  8
Tadpole
100
AcDbVertex
100
AcDb2dVertex
 10
3149.338019
 20
2743.2
 30
0.0
  0
VERTEX
  5
2AA
100
AcDbEntity
  8
Tadpole
100
AcDbVertex
100
AcDb2dVertex
 10
3170.222273
 20
2743.2
 30
0.0
  0
VERTEX
  5
2AB
100
AcDbEntity
  8
Tadpole
100
AcDbVertex
100
AcDb2dVertex
 10
3161.746173
 20
2697.661812
 30
0.0
  0
VERTEX
  5
2AC
100
AcDbEntity
  8
Tadpole
100
AcDbVertex
100
AcDb2dVertex
 10
3158.571274
 20
2697.63655
 30
0.0
  0
SEQEND
  5
2AD
100
AcDbEntity
  8
Tadpole
  0
SOLID
  5
2AE
100
AcDbEntity
  8
Tadpole
  6
$INVISIBLE
100
AcDbTrace
 10
3158.571274
 20
2697.63655
 30
0.0
 11
3149.338019
 21
2743.2
 31
0.0
 12
3161.746173
 22
2697.661812
 32
0.0
 13
3170.222273
 23
2743.2
 33
0.0
  0
POLYLINE
  5
2AF
100
AcDbEntity
  8
Tadpole
100
AcDb2dPolyline
 66
     1
 10
0.0
 20
0.0
 30
0.0
 70
     1
  0
VERTEX
  5
2B0
100
AcDbEntity
  8
Tadpole
100
AcDbVertex
100
AcDb2dVertex
 10
3045.460513
 20
2743.2
 30
0.0
  0
VERTEX
  5
2B1
100
AcDbEntity
  8
Tadpole
100
AcDbVertex
100
AcDb2dVertex
 10
3066.904724
 20
2743.2
 30
0.0
  0
VERTEX
  5
2B2
100
AcDbEntity
  8
Tadpole
100
AcDbVertex
100
AcDb2dVertex
 10
3060.152937
 20
2696.408613
 30
0.0
  0
VERTEX
  5
2B3
100
AcDbEntity
  8
Tadpole
100
AcDbVertex
100
AcDb2dVertex
 10
3056.981697
 20
2696.254128
 30
0.0
  0
SEQEND
  5
2B4
100
AcDbEntity
  8
Tadpole
  0
SOLID
  5
2B5
100
AcDbEntity
  8
Tadpole
  6
$INVISIBLE
100
AcDbTrace
 10
3056.981697
 20
2696.254128
 30
0.0
 11
3045.460513
 21
2743.2
 31
0.0
 12
3060.152937
 22
2696.408613
 32
0.0
 13
3066.904724
 23
2743.2
 33
0.0
  0
POLYLINE
  5
2B6
100
AcDbEntity
  8
Tadpole
100
AcDb2dPolyline
 66
     1
 10
0.0
 20
0.0
 30
0.0
 70
     1
  0
VERTEX
  5
2B7
100
AcDbEntity
  8
Tadpole
100
AcDbVertex
100
AcDb2dVertex
 10
2943.81075
 20
2743.2
 30
0.0
  0
VERTEX
  5
2B8
100
AcDbEntity
  8
Tadpole
100
AcDbVertex
100
AcDb2dVertex
 10
2965.887489
 20
2743.2
 30
0.0
  0
VERTEX
  5
2B9
100
AcDbEntity
  8
Tadpole
100
AcDbVertex
100
AcDb2dVertex
 10
2958.566958
 20
2694.742081
 30
0.0
  0
VERTEX
  5
2BA
100
AcDbEntity
  8
Tadpole
100
AcDbVertex
100
AcDb2dVertex
 10
2955.394764
 20
2694.608624
 30
0.0
  0
SEQEND
  5
2BB
100
AcDbEntity
  8
Tadpole
  0
SOLID
  5
2BC
100
AcDbEntity
  8
Tadpole
  6
$INVISIBLE
100
AcDbTrace
 10
2955.394764
 20
2694.608624
 30
0.0
 11
2943.81075
 21
2743.2
 31
0.0
 12
2958.566958
 22
2694.742081
 32
0.0
 13
2965.887489
 23
2743.2
 33
0.0
  0
POLYLINE
  5
2BD
100
AcDbEntity
  8
Tadpole
100
AcDb2dPolyline
 66
     1
 10
0.0
 20
0.0
 30
0.0
 70
     1
  0
VERTEX
  5
2BE
100
AcDbEntity
  8
Tadpole
100
AcDbVertex
100
AcDb2dVertex
 10
2842.112471
 20
2743.2
 30
0.0
  0
VERTEX
  5
2BF
100
AcDbEntity
  8
Tadpole
100
AcDbVertex
100
AcDb2dVertex
 10
2864.954471
 20
2743.2
 30
0.0
  0
VERTEX
  5
2C0
100
AcDbEntity
  8
Tadpole
100
AcDbVertex
100
AcDb2dVertex
 10
2856.986987
 20
2692.73731
 30
0.0
  0
VERTEX
  5
2C1
100
AcDbEntity
  8
Tadpole
100
AcDbVertex
100
AcDb2dVertex
 10
2853.813975
 20
2692.624982
 30
0.0
  0
SEQEND
  5
2C2
100
AcDbEntity
  8
Tadpole
  0
SOLID
  5
2C3
100
AcDbEntity
  8
Tadpole
  6
$INVISIBLE
100
AcDbTrace
 10
2853.813975
 20
2692.624982
 30
0.0
 11
2842.112471
 21
2743.2
 31
0.0
 12
2856.986987
 22
2692.73731
 32
0.0
 13
2864.954471
 23
2743.2
 33
0.0
  0
POLYLINE
  5
2C4
100
AcDbEntity
  8
Tadpole
100
AcDb2dPolyline
 66
     1
 10
0.0
 20
0.0
 30
0.0
 70
     1
  0
VERTEX
  5
2C5
100
AcDbEntity
  8
Tadpole
100
AcDbVertex
100
AcDb2dVertex
 10
2741.605055
 20
2743.2
 30
0.0
  0
VERTEX
  5
2C6
100
AcDbEntity
  8
Tadpole
100
AcDbVertex
100
AcDb2dVertex
 10
2765.327076
 20
2743.2
 30
0.0
  0
VERTEX
  5
2C7
100
AcDbEntity
  8
Tadpole
100
AcDbVertex
100
AcDb2dVertex
 10
2755.414769
 20
2690.359169
 30
0.0
  0
VERTEX
  5
2C8
100
AcDbEntity
  8
Tadpole
100
AcDbVertex
100
AcDb2dVertex
 10
2752.239837
 20
2690.338375
 30
0.0
  0
SEQEND
  5
2C9
100
AcDbEntity
  8
Tadpole
  0
SOLID
  5
2CA
100
AcDbEntity
  8
Tadpole
  6
$INVISIBLE
100
AcDbTrace
 10
2752.239837
 20
2690.338375
 30
0.0
 11
2741.605055
 21
2743.2
 31
0.0
 12
2755.414769
 22
2690.359169
 32
0.0
 13
2765.327076
 23
2743.2
 33
0.0
  0
POLYLINE
  5
2CB
100
AcDbEntity
  8
Tadpole
100
AcDb2dPolyline
 66
     1
 10
0.0
 20
0.0
 30
0.0
 70
     1
  0
VERTEX
  5
2CC
100
AcDbEntity
  8
Tadpole
100
AcDbVertex
100
AcDb2dVertex
 10
2639.147058
 20
2743.2
 30
0.0
  0
VERTEX
  5
2CD
100
AcDbEntity
  8
Tadpole
100
AcDbVertex
100
AcDb2dVertex
 10
2663.910129
 20
2743.2
 30
0.0
  0
VERTEX
  5
2CE
100
AcDbEntity
  8
Tadpole
100
AcDbVertex
100
AcDb2dVertex
 10
2653.849825
 20
2687.698367
 30
0.0
  0
VERTEX
  5
2CF
100
AcDbEntity
  8
Tadpole
100
AcDbVertex
100
AcDb2dVertex
 10
2650.67508
 20
2687.658148
 30
0.0
  0
SEQEND
  5
2D0
100
AcDbEntity
  8
Tadpole
  0
SOLID
  5
2D1
100
AcDbEntity
  8
Tadpole
  6
$INVISIBLE
100
AcDbTrace
 10
2650.67508
 20
2687.658148
 30
0.0
 11
2639.147058
 21
2743.2
 31
0.0
 12
2653.849825
 22
2687.698367
 32
0.0
 13
2663.910129
 23
2743.2
 33
0.0
  0
POLYLINE
  5
2D2
100
AcDbEntity
  8
Tadpole
100
AcDb2dPolyline
 66
     1
 10
0.0
 20
0.0
 30
0.0
 70
     1
  0
VERTEX
  5
2D3
100
AcDbEntity
  8
Tadpole
100
AcDbVertex
100
AcDb2dVertex
 10
2535.317165
 20
2743.2
 30
0.0
  0
VERTEX
  5
2D4
100
AcDbEntity
  8
Tadpole
100
AcDbVertex
100
AcDb2dVertex
 10
2561.285295
 20
2743.2
 30
0.0
  0
VERTEX
  5
2D5
100
AcDbEntity
  8
Tadpole
100
AcDbVertex
100
AcDb2dVertex
 10
2552.293325
 20
2684.732138
 30
0.0
  0
VERTEX
  5
2D6
100
AcDbEntity
  8
Tadpole
100
AcDbVertex
100
AcDb2dVertex
 10
2549.120787
 20
2684.607124
 30
0.0
  0
SEQEND
  5
2D7
100
AcDbEntity
  8
Tadpole
  0
SOLID
  5
2D8
100
AcDbEntity
  8
Tadpole
  6
$INVISIBLE
100
AcDbTrace
 10
2549.120787
 20
2684.607124
 30
0.0
 11
2535.317165
 21
2743.2
 31
0.0
 12
2552.293325
 22
2684.732138
 32
0.0
 13
2561.285295
 23
2743.2
 33
0.0
  0
POLYLINE
  5
2D9
100
AcDbEntity
  8
Tadpole
100
AcDb2dPolyline
 66
     1
 10
0.0
 20
0.0
 30
0.0
 70
     1
  0
VERTEX
  5
2DA
100
AcDbEntity
  8
Tadpole
100
AcDbVertex
100
AcDb2dVertex
 10
2432.044356
 20
2743.2
 30
0.0
  0
VERTEX
  5
2DB
100
AcDbEntity
  8
Tadpole
100
AcDbVertex
100
AcDb2dVertex
 10
2459.351088
 20
2743.2
 30
0.0
  0
VERTEX
  5
2DC
100
AcDbEntity
  8
Tadpole
100
AcDbVertex
100
AcDb2dVertex
 10
2450.747455
 20
2681.408033
 30
0.0
  0
VERTEX
  5
2DD
100
AcDbEntity
  8
Tadpole
100
AcDbVertex
100
AcDb2dVertex
 10
2447.577021
 20
2681.23782
 30
0.0
  0
SEQEND
  5
2DE
100
AcDbEntity
  8
Tadpole
  0
SOLID
  5
2DF
100
AcDbEntity
  8
Tadpole
  6
$INVISIBLE
100
AcDbTrace
 10
2447.577021
 20
2681.23782
 30
0.0
 11
2432.044356
 21
2743.2
 31
0.0
 12
2450.747455
 22
2681.408033
 32
0.0
 13
2459.351088
 23
2743.2
 33
0.0
  0
POLYLINE
  5
2E0
100
AcDbEntity
  8
Tadpole
100
AcDb2dPolyline
 66
     1
 10
0.0
 20
0.0
 30
0.0
 70
     1
  0
VERTEX
  5
2E1
100
AcDbEntity
  8
Tadpole
100
AcDbVertex
100
AcDb2dVertex
 10
2329.353237
 20
2743.2
 30
0.0
  0
VERTEX
  5
2E2
100
AcDbEntity
  8
Tadpole
100
AcDbVertex
100
AcDb2dVertex
 10
2358.107155
 20
2743.2
 30
0.0
  0
VERTEX
  5
2E3
100
AcDbEntity
  8
Tadpole
100
AcDbVertex
100
AcDb2dVertex
 10
2349.214048
 20
2677.728583
 30
0.0
  0
VERTEX
  5
2E4
100
AcDbEntity
  8
Tadpole
100
AcDbVertex
100
AcDb2dVertex
 10
2346.0442
 20
2677.54778
 30
0.0
  0
SEQEND
  5
2E5
100
AcDbEntity
  8
Tadpole
  0
SOLID
  5
2E6
100
AcDbEntity
  8
Tadpole
  6
$INVISIBLE
100
AcDbTrace
 10
2346.0442
 20
2677.54778
 30
0.0
 11
2329.353237
 21
2743.2
 31
0.0
 12
2349.214048
 22
2677.728583
 32
0.0
 13
2358.107155
 23
2743.2
 33
0.0
  0
POLYLINE
  5
2E7
100
AcDbEntity
  8
Tadpole
100
AcDb2dPolyline
 66
     1
 10
0.0
 20
0.0
 30
0.0
 70
     1
  0
VERTEX
  5
2E8
100
AcDbEntity
  8
Tadpole
100
AcDbVertex
100
AcDb2dVertex
 10
2225.273207
 20
2743.2
 30
0.0
  0
VERTEX
  5
2E9
100
AcDbEntity
  8
Tadpole
100
AcDbVertex
100
AcDb2dVertex
 10
2255.678955
 20
2743.2
 30
0.0
  0
VERTEX
  5
2EA
100
AcDbEntity
  8
Tadpole
100
AcDbVertex
100
AcDb2dVertex
 10
2247.691576
 20
2673.738337
 30
0.0
  0
VERTEX
  5
2EB
100
AcDbEntity
  8
Tadpole
100
AcDbVertex
100
AcDb2dVertex
 10
2244.526105
 20
2673.492536
 30
0.0
  0
SEQEND
  5
2EC
100
AcDbEntity
  8
Tadpole
  0
SOLID
  5
2ED
100
AcDbEntity
  8
Tadpole
  6
$INVISIBLE
100
AcDbTrace
 10
2244.526105
 20
2673.492536
 30
0.0
 11
2225.273207
 21
2743.2
 31
0.0
 12
2247.691576
 22
2673.738337
 32
0.0
 13
2255.678955
 23
2743.2
 33
0.0
  0
POLYLINE
  5
2EE
100
AcDbEntity
  8
Tadpole
100
AcDb2dPolyline
 66
     1
 10
0.0
 20
0.0
 30
0.0
 70
     1
  0
VERTEX
  5
2EF
100
AcDbEntity
  8
Tadpole
100
AcDbVertex
100
AcDb2dVertex
 10
2123.432471
 20
2743.2
 30
0.0
  0
VERTEX
  5
2F0
100
AcDbEntity
  8
Tadpole
100
AcDbVertex
100
AcDb2dVertex
 10
2155.494148
 20
2743.2
 30
0.0
  0
VERTEX
  5
2F1
100
AcDbEntity
  8
Tadpole
100
AcDbVertex
100
AcDb2dVertex
 10
2146.186494
 20
2669.360371
 30
0.0
  0
VERTEX
  5
2F2
100
AcDbEntity
  8
Tadpole
100
AcDbVertex
100
AcDb2dVertex
 10
2143.018531
 20
2669.1491
 30
0.0
  0
SEQEND
  5
2F3
100
AcDbEntity
  8
Tadpole
  0
SOLID
  5
2F4
100
AcDbEntity
  8
Tadpole
  6
$INVISIBLE
100
AcDbTrace
 10
2143.018531
 20
2669.1491
 30
0.0
 11
2123.432471
 21
2743.2
 31
0.0
 12
2146.186494
 22
2669.360371
 32
0.0
 13
2155.494148
 23
2743.2
 33
0.0
  0
POLYLINE
  5
2F5
100
AcDbEntity
  8
Tadpole
100
AcDb2dPolyline
 66
     1
 10
0.0
 20
0.0
 30
0.0
 70
     1
  0
VERTEX
  5
2F6
100
AcDbEntity
  8
Tadpole
100
AcDbVertex
100
AcDb2dVertex
 10
2024.134338
 20
2743.2
 30
0.0
  0
VERTEX
  5
2F7
100
AcDbEntity
  8
Tadpole
100
AcDbVertex
100
AcDb2dVertex
 10
2057.904122
 20
2743.2
 30
0.0
  0
VERTEX
  5
2F8
100
AcDbEntity
  8
Tadpole
100
AcDbVertex
100
AcDb2dVertex
 10
2044.698246
 20
2664.596652
 30
0.0
  0
VERTEX
  5
2F9
100
AcDbEntity
  8
Tadpole
100
AcDbVertex
100
AcDb2dVertex
 10
2041.524281
 20
2664.515603
 30
0.0
  0
SEQEND
  5
2FA
100
AcDbEntity
  8
Tadpole
  0
SOLID
  5
2FB
100
AcDbEntity
  8
Tadpole
  6
$INVISIBLE
100
AcDbTrace
 10
2041.524281
 20
2664.515603
 30
0.0
 11
2024.134338
 21
2743.2
 31
0.0
 12
2044.698246
 22
2664.596652
 32
0.0
 13
2057.904122
 23
2743.2
 33
0.0
  0
POLYLINE
  5
2FC
100
AcDbEntity
  8
Tadpole
100
AcDb2dPolyline
 66
     1
 10
0.0
 20
0.0
 30
0.0
 70
     1
  0
VERTEX
  5
2FD
100
AcDbEntity
  8
Tadpole
100
AcDbVertex
100
AcDb2dVertex
 10
1918.349735
 20
2743.2
 30
0.0
  0
VERTEX
  5
2FE
100
AcDbEntity
  8
Tadpole
100
AcDbVertex
100
AcDb2dVertex
 10
1954.190101
 20
2743.2
 30
0.0
  0
VERTEX
  5
2FF
100
AcDbEntity
  8
Tadpole
100
AcDbVertex
100
AcDb2dVertex
 10
1943.22072
 20
2659.617215
 30
0.0
  0
VERTEX
  5
300
100
AcDbEntity
  8
Tadpole
100
AcDbVertex
100
AcDb2dVertex
 10
1940.05172
 20
2659.422113
 30
0.0
  0
SEQEND
  5
301
100
AcDbEntity
  8
Tadpole
  0
SOLID
  5
302
100
AcDbEntity
  8
Tadpole
  6
$INVISIBLE
100
AcDbTrace
 10
1940.05172
 20
2659.422113
 30
0.0
 11
1918.349735
 21
2743.2
 31
0.0
 12
1943.22072
 22
2659.617215
 32
0.0
 13
1954.190101
 23
2743.2
 33
0.0
  0
POLYLINE
  5
303
100
AcDbEntity
  8
Tadpole
100
AcDb2dPolyline
 66
     1
 10
0.0
 20
0.0
 30
0.0
 70
     1
  0
VERTEX
  5
304
100
AcDbEntity
  8
Tadpole
100
AcDbVertex
100
AcDb2dVertex
 10
1816.650214
 20
2743.2
 30
0.0
  0
VERTEX
  5
305
100
AcDbEntity
  8
Tadpole
100
AcDbVertex
100
AcDb2dVertex
 10
1854.53738
 20
2743.2
 30
0.0
  0
VERTEX
  5
306
100
AcDbEntity
  8
Tadpole
100
AcDbVertex
100
AcDb2dVertex
 10
1841.764069
 20
2654.223788
 30
0.0
  0
VERTEX
  5
307
100
AcDbEntity
  8
Tadpole
100
AcDbVertex
100
AcDb2dVertex
 10
1838.592942
 20
2654.067014
 30
0.0
  0
SEQEND
  5
308
100
AcDbEntity
  8
Tadpole
  0
SOLID
  5
309
100
AcDbEntity
  8
Tadpole
  6
$INVISIBLE
100
AcDbTrace
 10
1838.592942
 20
2654.067014
 30
0.0
 11
1816.650214
 21
2743.2
 31
0.0
 12
1841.764069
 22
2654.223788
 32
0.0
 13
1854.53738
 23
2743.2
 33
0.0
  0
POLYLINE
  5
30A
100
AcDbEntity
  8
Tadpole
100
AcDb2dPolyline
 66
     1
 10
0.0
 20
0.0
 30
0.0
 70
     1
  0
VERTEX
  5
30B
100
AcDbEntity
  8
Tadpole
100
AcDbVertex
100
AcDb2dVertex
 10
1710.397587
 20
2743.2
 30
0.0
  0
VERTEX
  5
30C
100
AcDbEntity
  8
Tadpole
100
AcDbVertex
100
AcDb2dVertex
 10
1750.888666
 20
2743.2
 30
0.0
  0
VERTEX
  5
30D
100
AcDbEntity
  8
Tadpole
100
AcDbVertex
100
AcDb2dVertex
 10
1740.354425
 20
2648.033555
 30
0.0
  0
VERTEX
  5
30E
100
AcDbEntity
  8
Tadpole
100
AcDbVertex
100
AcDb2dVertex
 10
1737.190026
 20
2647.774325
 30
0.0
  0
SEQEND
  5
30F
100
AcDbEntity
  8
Tadpole
  0
SOLID
  5
310
100
AcDbEntity
  8
Tadpole
  6
$INVISIBLE
100
AcDbTrace
 10
1737.190026
 20
2647.774325
 30
0.0
 11
1710.397587
 21
2743.2
 31
0.0
 12
1740.354425
 22
2648.033555
 32
0.0
 13
1750.888666
 23
2743.2
 33
0.0
  0
POLYLINE
  5
311
100
AcDbEntity
  8
Tadpole
100
AcDb2dPolyline
 66
     1
 10
0.0
 20
0.0
 30
0.0
 70
     1
  0
VERTEX
  5
312
100
AcDbEntity
  8
Tadpole
100
AcDbVertex
100
AcDb2dVertex
 10
1599.783789
 20
2743.2
 30
0.0
  0
VERTEX
  5
313
100
AcDbEntity
  8
Tadpole
100
AcDbVertex
100
AcDb2dVertex
 10
1644.806111
 20
2743.2
 30
0.0
  0
VERTEX
  5
314
100
AcDbEntity
  8
Tadpole
100
AcDbVertex
100
AcDb2dVertex
 10
1639.259483
 20
2638.013222
 30
0.0
  0
VERTEX
  5
315
100
AcDbEntity
  8
Tadpole
100
AcDbVertex
100
AcDb2dVertex
 10
1636.115238
 20
2637.572375
 30
0.0
  0
SEQEND
  5
316
100
AcDbEntity
  8
Tadpole
  0
SOLID
  5
317
100
AcDbEntity
  8
Tadpole
  6
$INVISIBLE
100
AcDbTrace
 10
1636.115238
 20
2637.572375
 30
0.0
 11
1599.783789
 21
2743.2
 31
0.0
 12
1639.259483
 22
2638.013222
 32
0.0
 13
1644.806111
 23
2743.2
 33
0.0
  0
POLYLINE
  5
318
100
AcDbEntity
  8
Tadpole
100
AcDb2dPolyline
 66
     1
 10
0.0
 20
0.0
 30
0.0
 70
     1
  0
VERTEX
  5
319
100
AcDbEntity
  8
Tadpole
100
AcDbVertex
100
AcDb2dVertex
 10
1496.328923
 20
2732.983122
 30
0.0
  0
VERTEX
  5
31A
100
AcDbEntity
  8
Tadpole
100
AcDbVertex
100
AcDb2dVertex
 10
1543.40953
 20
2740.163447
 30
0.0
  0
VERTEX
  5
31B
100
AcDbEntity
  8
Tadpole
100
AcDbVertex
100
AcDb2dVertex
 10
1538.677419
 20
2623.779453
 30
0.0
  0
VERTEX
  5
31C
100
AcDbEntity
  8
Tadpole
100
AcDbVertex
100
AcDb2dVertex
 10
1535.538712
 20
2623.300765
 30
0.0
  0
SEQEND
  5
31D
100
AcDbEntity
  8
Tadpole
  0
SOLID
  5
31E
100
AcDbEntity
  8
Tadpole
  6
$INVISIBLE
100
AcDbTrace
 10
1535.538712
 20
2623.300765
 30
0.0
 11
1496.328923
 21
2732.983122
 31
0.0
 12
1538.677419
 22
2623.779453
 32
0.0
 13
1543.40953
 23
2740.163447
 33
0.0
  0
POLYLINE
  5
31F
100
AcDbEntity
  8
Tadpole
100
AcDb2dPolyline
 66
     1
 10
0.0
 20
0.0
 30
0.0
 70
     1
  0
VERTEX
  5
320
100
AcDbEntity
  8
Tadpole
100
AcDbVertex
100
AcDb2dVertex
 10
1388.365807
 20
2711.687196
 30
0.0
  0
VERTEX
  5
321
100
AcDbEntity
  8
Tadpole
100
AcDbVertex
100
AcDb2dVertex
 10
1434.786551
 20
2722.329338
 30
0.0
  0
VERTEX
  5
322
100
AcDbEntity
  8
Tadpole
100
AcDbVertex
100
AcDb2dVertex
 10
1438.673656
 20
2605.914059
 30
0.0
  0
VERTEX
  5
323
100
AcDbEntity
  8
Tadpole
100
AcDbVertex
100
AcDb2dVertex
 10
1435.57894
 20
2605.204582
 30
0.0
  0
SEQEND
  5
324
100
AcDbEntity
  8
Tadpole
  0
SOLID
  5
325
100
AcDbEntity
  8
Tadpole
  6
$INVISIBLE
100
AcDbTrace
 10
1435.57894
 20
2605.204582
 30
0.0
 11
1388.365807
 21
2711.687196
 31
0.0
 12
1438.673656
 22
2605.914059
 32
0.0
 13
1434.786551
 23
2722.329338
 33
0.0
  0
POLYLINE
  5
326
100
AcDbEntity
  8
Tadpole
100
AcDb2dPolyline
 66
     1
 10
0.0
 20
0.0
 30
0.0
 70
     1
  0
VERTEX
  5
327
100
AcDbEntity
  8
Tadpole
100
AcDbVertex
100
AcDb2dVertex
 10
1290.918544
 20
2689.735397
 30
0.0
  0
VERTEX
  5
328
100
AcDbEntity
  8
Tadpole
100
AcDbVertex
100
AcDb2dVertex
 10
1337.491751
 20
2699.689142
 30
0.0
  0
VERTEX
  5
329
100
AcDbEntity
  8
Tadpole
100
AcDbVertex
100
AcDb2dVertex
 10
1339.654971
 20
2583.229074
 30
0.0
  0
VERTEX
  5
32A
100
AcDbEntity
  8
Tadpole
100
AcDbVertex
100
AcDb2dVertex
 10
1336.550091
 20
2582.565491
 30
0.0
  0
SEQEND
  5
32B
100
AcDbEntity
  8
Tadpole
  0
SOLID
  5
32C
100
AcDbEntity
  8
Tadpole
  6
$INVISIBLE
100
AcDbTrace
 10
1336.550091
 20
2582.565491
 30
0.0
 11
1290.918544
 21
2689.735397
 31
0.0
 12
1339.654971
 22
2583.229074
 32
0.0
 13
1337.491751
 23
2699.689142
 33
0.0
  0
POLYLINE
  5
32D
100
AcDbEntity
  8
Tadpole
100
AcDb2dPolyline
 66
     1
 10
0.0
 20
0.0
 30
0.0
 70
     1
  0
VERTEX
  5
32E
100
AcDbEntity
  8
Tadpole
100
AcDbVertex
100
AcDb2dVertex
 10
1193.477336
 20
2662.823158
 30
0.0
  0
VERTEX
  5
32F
100
AcDbEntity
  8
Tadpole
100
AcDbVertex
100
AcDb2dVertex
 10
1240.09243
 20
2672.578855
 30
0.0
  0
VERTEX
  5
330
100
AcDbEntity
  8
Tadpole
100
AcDbVertex
100
AcDb2dVertex
 10
1241.760622
 20
2556.110645
 30
0.0
  0
VERTEX
  5
331
100
AcDbEntity
  8
Tadpole
100
AcDbVertex
100
AcDb2dVertex
 10
1238.652949
 20
2555.460265
 30
0.0
  0
SEQEND
  5
332
100
AcDbEntity
  8
Tadpole
  0
SOLID
  5
333
100
AcDbEntity
  8
Tadpole
  6
$INVISIBLE
100
AcDbTrace
 10
1238.652949
 20
2555.460265
 30
0.0
 11
1193.477336
 21
2662.823158
 31
0.0
 12
1241.760622
 22
2556.110645
 32
0.0
 13
1240.09243
 23
2672.578855
 33
0.0
  0
POLYLINE
  5
334
100
AcDbEntity
  8
Tadpole
100
AcDb2dPolyline
 66
     1
 10
0.0
 20
0.0
 30
0.0
 70
     1
  0
VERTEX
  5
335
100
AcDbEntity
  8
Tadpole
100
AcDbVertex
100
AcDb2dVertex
 10
1092.328816
 20
2627.522088
 30
0.0
  0
VERTEX
  5
336
100
AcDbEntity
  8
Tadpole
100
AcDbVertex
100
AcDb2dVertex
 10
1137.627651
 20
2641.192729
 30
0.0
  0
VERTEX
  5
337
100
AcDbEntity
  8
Tadpole
100
AcDbVertex
100
AcDb2dVertex
 10
1145.08343
 20
2524.951436
 30
0.0
  0
VERTEX
  5
338
100
AcDbEntity
  8
Tadpole
100
AcDbVertex
100
AcDb2dVertex
 10
1142.01193
 20
2524.147377
 30
0.0
  0
SEQEND
  5
339
100
AcDbEntity
  8
Tadpole
  0
SOLID
  5
33A
100
AcDbEntity
  8
Tadpole
  6
$INVISIBLE
100
AcDbTrace
 10
1142.01193
 20
2524.147377
 30
0.0
 11
1092.328816
 21
2627.522088
 31
0.0
 12
1145.08343
 22
2524.951436
 32
0.0
 13
1137.627651
 23
2641.192729
 33
0.0
  0
POLYLINE
  5
33B
100
AcDbEntity
  8
Tadpole
100
AcDb2dPolyline
 66
     1
 10
0.0
 20
0.0
 30
0.0
 70
     1
  0
VERTEX
  5
33C
100
AcDbEntity
  8
Tadpole
100
AcDbVertex
100
AcDb2dVertex
 10
986.010946
 20
2583.483784
 30
0.0
  0
VERTEX
  5
33D
100
AcDbEntity
  8
Tadpole
100
AcDbVertex
100
AcDb2dVertex
 10
1028.90215
 20
2601.249903
 30
0.0
  0
VERTEX
  5
33E
100
AcDbEntity
  8
Tadpole
100
AcDbVertex
100
AcDb2dVertex
 10
1049.8704
 20
2489.519024
 30
0.0
  0
VERTEX
  5
33F
100
AcDbEntity
  8
Tadpole
100
AcDbVertex
100
AcDb2dVertex
 10
1046.918945
 20
2488.348751
 30
0.0
  0
SEQEND
  5
340
100
AcDbEntity
  8
Tadpole
  0
SOLID
  5
341
100
AcDbEntity
  8
Tadpole
  6
$INVISIBLE
100
AcDbTrace
 10
1046.918945
 20
2488.348751
 30
0.0
 11
986.010946
 21
2583.483784
 31
0.0
 12
1049.8704
 22
2489.519024
 32
0.0
 13
1028.90215
 23
2601.249903
 33
0.0
  0
POLYLINE
  5
342
100
AcDbEntity
  8
Tadpole
100
AcDb2dPolyline
 66
     1
 10
0.0
 20
0.0
 30
0.0
 70
     1
  0
VERTEX
  5
343
100
AcDbEntity
  8
Tadpole
100
AcDbVertex
100
AcDb2dVertex
 10
885.346084
 20
2542.051233
 30
0.0
  0
VERTEX
  5
344
100
AcDbEntity
  8
Tadpole
100
AcDbVertex
100
AcDb2dVertex
 10
929.079023
 20
2559.90181
 30
0.0
  0
VERTEX
  5
345
100
AcDbEntity
  8
Tadpole
100
AcDbVertex
100
AcDb2dVertex
 10
956.656546
 20
2449.133773
 30
0.0
  0
VERTEX
  5
346
100
AcDbEntity
  8
Tadpole
100
AcDbVertex
100
AcDb2dVertex
 10
953.778556
 20
2447.792951
 30
0.0
  0
SEQEND
  5
347
100
AcDbEntity
  8
Tadpole
  0
SOLID
  5
348
100
AcDbEntity
  8
Tadpole
  6
$INVISIBLE
100
AcDbTrace
 10
953.778556
 20
2447.792951
 30
0.0
 11
885.346084
 21
2542.051233
 31
0.0
 12
956.656546
 22
2449.133773
 32
0.0
 13
929.079023
 23
2559.90181
 33
0.0
  0
POLYLINE
  5
349
100
AcDbEntity
  8
Tadpole
100
AcDb2dPolyline
 66
     1
 10
0.0
 20
0.0
 30
0.0
 70
     1
  0
VERTEX
  5
34A
100
AcDbEntity
  8
Tadpole
100
AcDbVertex
100
AcDb2dVertex
 10
795.061427
 20
2497.179472
 30
0.0
  0
VERTEX
  5
34B
100
AcDbEntity
  8
Tadpole
100
AcDbVertex
100
AcDb2dVertex
 10
838.364127
 20
2517.004123
 30
0.0
  0
VERTEX
  5
34C
100
AcDbEntity
  8
Tadpole
100
AcDbVertex
100
AcDb2dVertex
 10
865.752087
 20
2403.789607
 30
0.0
  0
VERTEX
  5
34D
100
AcDbEntity
  8
Tadpole
100
AcDbVertex
100
AcDb2dVertex
 10
862.865241
 20
2402.467964
 30
0.0
  0
SEQEND
  5
34E
100
AcDbEntity
  8
Tadpole
  0
SOLID
  5
34F
100
AcDbEntity
  8
Tadpole
  6
$INVISIBLE
100
AcDbTrace
 10
862.865241
 20
2402.467964
 30
0.0
 11
795.061427
 21
2497.179472
 31
0.0
 12
865.752087
 22
2403.789607
 32
0.0
 13
838.364127
 23
2517.004123
 33
0.0
  0
POLYLINE
  5
350
100
AcDbEntity
  8
Tadpole
100
AcDb2dPolyline
 66
     1
 10
0.0
 20
0.0
 30
0.0
 70
     1
  0
VERTEX
  5
351
100
AcDbEntity
  8
Tadpole
100
AcDbVertex
100
AcDb2dVertex
 10
700.804408
 20
2442.559741
 30
0.0
  0
VERTEX
  5
352
100
AcDbEntity
  8
Tadpole
100
AcDbVertex
100
AcDb2dVertex
 10
742.757674
 20
2465.100019
 30
0.0
  0
VERTEX
  5
353
100
AcDbEntity
  8
Tadpole
100
AcDbVertex
100
AcDb2dVertex
 10
777.295166
 20
2353.857992
 30
0.0
  0
VERTEX
  5
354
100
AcDbEntity
  8
Tadpole
100
AcDbVertex
100
AcDb2dVertex
 10
774.498282
 20
2352.355306
 30
0.0
  0
SEQEND
  5
355
100
AcDbEntity
  8
Tadpole
  0
SOLID
  5
356
100
AcDbEntity
  8
Tadpole
  6
$INVISIBLE
100
AcDbTrace
 10
774.498282
 20
2352.355306
 30
0.0
 11
700.804408
 21
2442.559741
 31
0.0
 12
777.295166
 22
2353.857992
 32
0.0
 13
742.757674
 23
2465.100019
 33
0.0
  0
POLYLINE
  5
357
100
AcDbEntity
  8
Tadpole
100
AcDb2dPolyline
 66
     1
 10
0.0
 20
0.0
 30
0.0
 70
     1
  0
VERTEX
  5
358
100
AcDbEntity
  8
Tadpole
100
AcDbVertex
100
AcDb2dVertex
 10
604.153328
 20
2376.69474
 30
0.0
  0
VERTEX
  5
359
100
AcDbEntity
  8
Tadpole
100
AcDbVertex
100
AcDb2dVertex
 10
642.719557
 20
2404.637299
 30
0.0
  0
VERTEX
  5
35A
100
AcDbEntity
  8
Tadpole
100
AcDbVertex
100
AcDb2dVertex
 10
691.807697
 20
2299.005952
 30
0.0
  0
VERTEX
  5
35B
100
AcDbEntity
  8
Tadpole
100
AcDbVertex
100
AcDb2dVertex
 10
689.236615
 20
2297.143115
 30
0.0
  0
SEQEND
  5
35C
100
AcDbEntity
  8
Tadpole
  0
SOLID
  5
35D
100
AcDbEntity
  8
Tadpole
  6
$INVISIBLE
100
AcDbTrace
 10
689.236615
 20
2297.143115
 30
0.0
 11
604.153328
 21
2376.69474
 31
0.0
 12
691.807697
 22
2299.005952
 32
0.0
 13
642.719557
 23
2404.637299
 33
0.0
  0
POLYLINE
  5
35E
100
AcDbEntity
  8
Tadpole
100
AcDb2dPolyline
 66
     1
 10
0.0
 20
0.0
 30
0.0
 70
     1
  0
VERTEX
  5
35F
100
AcDbEntity
  8
Tadpole
100
AcDbVertex
100
AcDb2dVertex
 10
5523.207811
 20
2328.836453
 30
0.0
  0
VERTEX
  5
360
100
AcDbEntity
  8
Tadpole
100
AcDbVertex
100
AcDb2dVertex
 10
5481.374905
 20
2338.174651
 30
0.0
  0
VERTEX
  5
361
100
AcDbEntity
  8
Tadpole
100
AcDbVertex
100
AcDb2dVertex
 10
5523.316481
 20
2434.251089
 30
0.0
  0
VERTEX
  5
362
100
AcDbEntity
  8
Tadpole
100
AcDbVertex
100
AcDb2dVertex
 10
5526.105341
 20
2433.628543
 30
0.0
  0
SEQEND
  5
363
100
AcDbEntity
  8
Tadpole
  0
SOLID
  5
364
100
AcDbEntity
  8
Tadpole
  6
$INVISIBLE
100
AcDbTrace
 10
5526.105341
 20
2433.628543
 30
0.0
 11
5523.207811
 21
2328.836453
 31
0.0
 12
5523.316481
 22
2434.251089
 32
0.0
 13
5481.374905
 23
2338.174651
 33
0.0
  0
POLYLINE
  5
365
100
AcDbEntity
  8
Tadpole
100
AcDb2dPolyline
 66
     1
 10
0.0
 20
0.0
 30
0.0
 70
     1
  0
VERTEX
  5
366
100
AcDbEntity
  8
Tadpole
100
AcDbVertex
100
AcDb2dVertex
 10
5430.119111
 20
2346.676632
 30
0.0
  0
VERTEX
  5
367
100
AcDbEntity
  8
Tadpole
100
AcDbVertex
100
AcDb2dVertex
 10
5387.77099
 20
2353.297095
 30
0.0
  0
VERTEX
  5
368
100
AcDbEntity
  8
Tadpole
100
AcDbVertex
100
AcDb2dVertex
 10
5423.428142
 20
2451.878763
 30
0.0
  0
VERTEX
  5
369
100
AcDbEntity
  8
Tadpole
100
AcDbVertex
100
AcDb2dVertex
 10
5426.25135
 20
2451.437399
 30
0.0
  0
SEQEND
  5
36A
100
AcDbEntity
  8
Tadpole
  0
SOLID
  5
36B
100
AcDbEntity
  8
Tadpole
  6
$INVISIBLE
100
AcDbTrace
 10
5426.25135
 20
2451.437399
 30
0.0
 11
5430.119111
 21
2346.676632
 31
0.0
 12
5423.428142
 22
2451.878763
 32
0.0
 13
5387.77099
 23
2353.297095
 33
0.0
  0
POLYLINE
  5
36C
100
AcDbEntity
  8
Tadpole
100
AcDb2dPolyline
 66
     1
 10
0.0
 20
0.0
 30
0.0
 70
     1
  0
VERTEX
  5
36D
100
AcDbEntity
  8
Tadpole
100
AcDbVertex
100
AcDb2dVertex
 10
5333.868129
 20
2360.781034
 30
0.0
  0
VERTEX
  5
36E
100
AcDbEntity
  8
Tadpole
100
AcDbVertex
100
AcDb2dVertex
 10
5291.279227
 20
2365.616247
 30
0.0
  0
VERTEX
  5
36F
100
AcDbEntity
  8
Tadpole
100
AcDbVertex
100
AcDb2dVertex
 10
5322.762639
 20
2465.60911
 30
0.0
  0
VERTEX
  5
370
100
AcDbEntity
  8
Tadpole
100
AcDbVertex
100
AcDb2dVertex
 10
5325.601899
 20
2465.286762
 30
0.0
  0
SEQEND
  5
371
100
AcDbEntity
  8
Tadpole
  0
SOLID
  5
372
100
AcDbEntity
  8
Tadpole
  6
$INVISIBLE
100
AcDbTrace
 10
5325.601899
 20
2465.286762
 30
0.0
 11
5333.868129
 21
2360.781034
 31
0.0
 12
5322.762639
 22
2465.60911
 32
0.0
 13
5291.279227
 23
2365.616247
 33
0.0
  0
POLYLINE
  5
373
100
AcDbEntity
  8
Tadpole
100
AcDb2dPolyline
 66
     1
 10
0.0
 20
0.0
 30
0.0
 70
     1
  0
VERTEX
  5
374
100
AcDbEntity
  8
Tadpole
100
AcDbVertex
100
AcDb2dVertex
 10
5238.786472
 20
2369.77337
 30
0.0
  0
VERTEX
  5
375
100
AcDbEntity
  8
Tadpole
100
AcDbVertex
100
AcDb2dVertex
 10
5195.989559
 20
2372.143647
 30
0.0
  0
VERTEX
  5
376
100
AcDbEntity
  8
Tadpole
100
AcDbVertex
100
AcDb2dVertex
 10
5221.652116
 20
2473.786212
 30
0.0
  0
VERTEX
  5
377
100
AcDbEntity
  8
Tadpole
100
AcDbVertex
100
AcDb2dVertex
 10
5224.505243
 20
2473.628193
 30
0.0
  0
SEQEND
  5
378
100
AcDbEntity
  8
Tadpole
  0
SOLID
  5
379
100
AcDbEntity
  8
Tadpole
  6
$INVISIBLE
100
AcDbTrace
 10
5224.505243
 20
2473.628193
 30
0.0
 11
5238.786472
 21
2369.77337
 31
0.0
 12
5221.652116
 22
2473.786212
 32
0.0
 13
5195.989559
 23
2372.143647
 33
0.0
  0
POLYLINE
  5
37A
100
AcDbEntity
  8
Tadpole
100
AcDb2dPolyline
 66
     1
 10
0.0
 20
0.0
 30
0.0
 70
     1
  0
VERTEX
  5
37B
100
AcDbEntity
  8
Tadpole
100
AcDbVertex
100
AcDb2dVertex
 10
5145.867765
 20
2371.787458
 30
0.0
  0
VERTEX
  5
37C
100
AcDbEntity
  8
Tadpole
100
AcDbVertex
100
AcDb2dVertex
 10
5103.021953
 20
2370.591524
 30
0.0
  0
VERTEX
  5
37D
100
AcDbEntity
  8
Tadpole
100
AcDbVertex
100
AcDb2dVertex
 10
5120.145416
 20
2474.015723
 30
0.0
  0
VERTEX
  5
37E
100
AcDbEntity
  8
Tadpole
100
AcDbVertex
100
AcDb2dVertex
 10
5123.001803
 20
2474.095451
 30
0.0
  0
SEQEND
  5
37F
100
AcDbEntity
  8
Tadpole
  0
SOLID
  5
380
100
AcDbEntity
  8
Tadpole
  6
$INVISIBLE
100
AcDbTrace
 10
5123.001803
 20
2474.095451
 30
0.0
 11
5145.867765
 21
2371.787458
 31
0.0
 12
5120.145416
 22
2474.015723
 32
0.0
 13
5103.021953
 23
2370.591524
 33
0.0
  0
POLYLINE
  5
381
100
AcDbEntity
  8
Tadpole
100
AcDb2dPolyline
 66
     1
 10
0.0
 20
0.0
 30
0.0
 70
     1
  0
VERTEX
  5
382
100
AcDbEntity
  8
Tadpole
100
AcDbVertex
100
AcDb2dVertex
 10
5051.803787
 20
2367.845146
 30
0.0
  0
VERTEX
  5
383
100
AcDbEntity
  8
Tadpole
100
AcDbVertex
100
AcDb2dVertex
 10
5009.171577
 20
2363.407971
 30
0.0
  0
VERTEX
  5
384
100
AcDbEntity
  8
Tadpole
100
AcDbVertex
100
AcDb2dVertex
 10
5018.413645
 20
2467.831924
 30
0.0
  0
VERTEX
  5
385
100
AcDbEntity
  8
Tadpole
100
AcDbVertex
100
AcDb2dVertex
 10
5021.255792
 20
2468.127736
 30
0.0
  0
SEQEND
  5
386
100
AcDbEntity
  8
Tadpole
  0
SOLID
  5
387
100
AcDbEntity
  8
Tadpole
  6
$INVISIBLE
100
AcDbTrace
 10
5021.255792
 20
2468.127736
 30
0.0
 11
5051.803787
 21
2367.845146
 31
0.0
 12
5018.413645
 22
2467.831924
 32
0.0
 13
5009.171577
 23
2363.407971
 33
0.0
  0
POLYLINE
  5
388
100
AcDbEntity
  8
Tadpole
100
AcDb2dPolyline
 66
     1
 10
0.0
 20
0.0
 30
0.0
 70
     1
  0
VERTEX
  5
389
100
AcDbEntity
  8
Tadpole
100
AcDbVertex
100
AcDb2dVertex
 10
4963.852247
 20
2358.103892
 30
0.0
  0
VERTEX
  5
38A
100
AcDbEntity
  8
Tadpole
100
AcDbVertex
100
AcDb2dVertex
 10
4922.105638
 20
2348.387179
 30
0.0
  0
VERTEX
  5
38B
100
AcDbEntity
  8
Tadpole
100
AcDbVertex
100
AcDb2dVertex
 10
4918.25908
 20
2453.148726
 30
0.0
  0
VERTEX
  5
38C
100
AcDbEntity
  8
Tadpole
100
AcDbVertex
100
AcDb2dVertex
 10
4921.042187
 20
2453.796507
 30
0.0
  0
SEQEND
  5
38D
100
AcDbEntity
  8
Tadpole
  0
SOLID
  5
38E
100
AcDbEntity
  8
Tadpole
  6
$INVISIBLE
100
AcDbTrace
 10
4921.042187
 20
2453.796507
 30
0.0
 11
4963.852247
 21
2358.103892
 31
0.0
 12
4918.25908
 22
2453.148726
 32
0.0
 13
4922.105638
 23
2348.387179
 33
0.0
  0
POLYLINE
  5
38F
100
AcDbEntity
  8
Tadpole
100
AcDb2dPolyline
 66
     1
 10
0.0
 20
0.0
 30
0.0
 70
     1
  0
VERTEX
  5
390
100
AcDbEntity
  8
Tadpole
100
AcDbVertex
100
AcDb2dVertex
 10
4868.529187
 20
2336.953985
 30
0.0
  0
VERTEX
  5
391
100
AcDbEntity
  8
Tadpole
100
AcDbVertex
100
AcDb2dVertex
 10
4827.20423
 20
2325.576737
 30
0.0
  0
VERTEX
  5
392
100
AcDbEntity
  8
Tadpole
100
AcDbVertex
100
AcDb2dVertex
 10
4819.174216
 20
2430.100881
 30
0.0
  0
VERTEX
  5
393
100
AcDbEntity
  8
Tadpole
100
AcDbVertex
100
AcDb2dVertex
 10
4821.929213
 20
2430.859364
 30
0.0
  0
SEQEND
  5
394
100
AcDbEntity
  8
Tadpole
  0
SOLID
  5
395
100
AcDbEntity
  8
Tadpole
  6
$INVISIBLE
100
AcDbTrace
 10
4821.929213
 20
2430.859364
 30
0.0
 11
4868.529187
 21
2336.953985
 31
0.0
 12
4819.174216
 22
2430.100881
 32
0.0
 13
4827.20423
 23
2325.576737
 33
0.0
  0
POLYLINE
  5
396
100
AcDbEntity
  8
Tadpole
100
AcDb2dPolyline
 66
     1
 10
0.0
 20
0.0
 30
0.0
 70
     1
  0
VERTEX
  5
397
100
AcDbEntity
  8
Tadpole
100
AcDbVertex
100
AcDb2dVertex
 10
4777.118757
 20
2308.614936
 30
0.0
  0
VERTEX
  5
398
100
AcDbEntity
  8
Tadpole
100
AcDbVertex
100
AcDb2dVertex
 10
4736.483666
 20
2294.977368
 30
0.0
  0
VERTEX
  5
399
100
AcDbEntity
  8
Tadpole
100
AcDbVertex
100
AcDb2dVertex
 10
4722.70504
 20
2398.900066
 30
0.0
  0
VERTEX
  5
39A
100
AcDbEntity
  8
Tadpole
100
AcDbVertex
100
AcDb2dVertex
 10
4725.414046
 20
2399.809238
 30
0.0
  0
SEQEND
  5
39B
100
AcDbEntity
  8
Tadpole
  0
SOLID
  5
39C
100
AcDbEntity
  8
Tadpole
  6
$INVISIBLE
100
AcDbTrace
 10
4725.414046
 20
2399.809238
 30
0.0
 11
4777.118757
 21
2308.614936
 31
0.0
 12
4722.70504
 22
2398.900066
 32
0.0
 13
4736.483666
 23
2294.977368
 33
0.0
  0
POLYLINE
  5
39D
100
AcDbEntity
  8
Tadpole
100
AcDb2dPolyline
 66
     1
 10
0.0
 20
0.0
 30
0.0
 70
     1
  0
VERTEX
  5
39E
100
AcDbEntity
  8
Tadpole
100
AcDbVertex
100
AcDb2dVertex
 10
4690.069901
 20
2274.040932
 30
0.0
  0
VERTEX
  5
39F
100
AcDbEntity
  8
Tadpole
100
AcDbVertex
100
AcDb2dVertex
 10
4650.644551
 20
2257.223211
 30
0.0
  0
VERTEX
  5
3A0
100
AcDbEntity
  8
Tadpole
100
AcDbVertex
100
AcDb2dVertex
 10
4628.666329
 20
2359.72558
 30
0.0
  0
VERTEX
  5
3A1
100
AcDbEntity
  8
Tadpole
100
AcDbVertex
100
AcDb2dVertex
 10
4631.294686
 20
2360.846761
 30
0.0
  0
SEQEND
  5
3A2
100
AcDbEntity
  8
Tadpole
  0
SOLID
  5
3A3
100
AcDbEntity
  8
Tadpole
  6
$INVISIBLE
100
AcDbTrace
 10
4631.294686
 20
2360.846761
 30
0.0
 11
4690.069901
 21
2274.040932
 31
0.0
 12
4628.666329
 22
2359.72558
 32
0.0
 13
4650.644551
 23
2257.223211
 33
0.0
  0
POLYLINE
  5
3A4
100
AcDbEntity
  8
Tadpole
100
AcDb2dPolyline
 66
     1
 10
0.0
 20
0.0
 30
0.0
 70
     1
  0
VERTEX
  5
3A5
100
AcDbEntity
  8
Tadpole
100
AcDbVertex
100
AcDb2dVertex
 10
4604.736227
 20
2230.953572
 30
0.0
  0
VERTEX
  5
3A6
100
AcDbEntity
  8
Tadpole
100
AcDbVertex
100
AcDb2dVertex
 10
4566.165289
 20
2211.98788
 30
0.0
  0
VERTEX
  5
3A7
100
AcDbEntity
  8
Tadpole
100
AcDbVertex
100
AcDb2dVertex
 10
4538.631399
 20
2313.441327
 30
0.0
  0
VERTEX
  5
3A8
100
AcDbEntity
  8
Tadpole
100
AcDbVertex
100
AcDb2dVertex
 10
4541.202795
 20
2314.705706
 30
0.0
  0
SEQEND
  5
3A9
100
AcDbEntity
  8
Tadpole
  0
SOLID
  5
3AA
100
AcDbEntity
  8
Tadpole
  6
$INVISIBLE
100
AcDbTrace
 10
4541.202795
 20
2314.705706
 30
0.0
 11
4604.736227
 21
2230.953572
 31
0.0
 12
4538.631399
 22
2313.441327
 32
0.0
 13
4566.165289
 23
2211.98788
 33
0.0
  0
POLYLINE
  5
3AB
100
AcDbEntity
  8
Tadpole
100
AcDb2dPolyline
 66
     1
 10
0.0
 20
0.0
 30
0.0
 70
     1
  0
VERTEX
  5
3AC
100
AcDbEntity
  8
Tadpole
100
AcDbVertex
100
AcDb2dVertex
 10
4531.350528
 20
2190.333086
 30
0.0
  0
VERTEX
  5
3AD
100
AcDbEntity
  8
Tadpole
100
AcDbVertex
100
AcDb2dVertex
 10
4496.789721
 20
2164.980678
 30
0.0
  0
VERTEX
  5
3AE
100
AcDbEntity
  8
Tadpole
100
AcDbVertex
100
AcDb2dVertex
 10
4452.050931
 20
2259.786894
 30
0.0
  0
VERTEX
  5
3AF
100
AcDbEntity
  8
Tadpole
100
AcDbVertex
100
AcDb2dVertex
 10
4454.354985
 20
2261.477054
 30
0.0
  0
SEQEND
  5
3B0
100
AcDbEntity
  8
Tadpole
  0
SOLID
  5
3B1
100
AcDbEntity
  8
Tadpole
  6
$INVISIBLE
100
AcDbTrace
 10
4454.354985
 20
2261.477054
 30
0.0
 11
4531.350528
 21
2190.333086
 31
0.0
 12
4452.050931
 22
2259.786894
 32
0.0
 13
4496.789721
 23
2164.980678
 33
0.0
  0
POLYLINE
  5
3B2
100
AcDbEntity
  8
Tadpole
100
AcDb2dPolyline
 66
     1
 10
0.0
 20
0.0
 30
0.0
 70
     1
  0
VERTEX
  5
3B3
100
AcDbEntity
  8
Tadpole
100
AcDbVertex
100
AcDb2dVertex
 10
4448.583278
 20
2431.266174
 30
0.0
  0
VERTEX
  5
3B4
100
AcDbEntity
  8
Tadpole
100
AcDbVertex
100
AcDb2dVertex
 10
4417.196141
 20
2432.954261
 30
0.0
  0
VERTEX
  5
3B5
100
AcDbEntity
  8
Tadpole
100
AcDbVertex
100
AcDb2dVertex
 10
4435.896304
 20
2507.522097
 30
0.0
  0
VERTEX
  5
3B6
100
AcDbEntity
  8
Tadpole
100
AcDbVertex
100
AcDb2dVertex
 10
4437.98878
 20
2507.409558
 30
0.0
  0
SEQEND
  5
3B7
100
AcDbEntity
  8
Tadpole
  0
SOLID
  5
3B8
100
AcDbEntity
  8
Tadpole
  6
$INVISIBLE
100
AcDbTrace
 10
4437.98878
 20
2507.409558
 30
0.0
 11
4448.583278
 21
2431.266174
 31
0.0
 12
4435.896304
 22
2507.522097
 32
0.0
 13
4417.196141
 23
2432.954261
 33
0.0
  0
POLYLINE
  5
3B9
100
AcDbEntity
  8
Tadpole
100
AcDb2dPolyline
 66
     1
 10
0.0
 20
0.0
 30
0.0
 70
     1
  0
VERTEX
  5
3BA
100
AcDbEntity
  8
Tadpole
100
AcDbVertex
100
AcDb2dVertex
 10
4356.956099
 20
2395.634058
 30
0.0
  0
VERTEX
  5
3BB
100
AcDbEntity
  8
Tadpole
100
AcDbVertex
100
AcDb2dVertex
 10
4309.340217
 20
2396.56597
 30
0.0
  0
VERTEX
  5
3BC
100
AcDbEntity
  8
Tadpole
100
AcDbVertex
100
AcDb2dVertex
 10
4333.798339
 20
2510.449364
 30
0.0
  0
VERTEX
  5
3BD
100
AcDbEntity
  8
Tadpole
100
AcDbVertex
100
AcDb2dVertex
 10
4336.972731
 20
2510.387236
 30
0.0
  0
SEQEND
  5
3BE
100
AcDbEntity
  8
Tadpole
  0
SOLID
  5
3BF
100
AcDbEntity
  8
Tadpole
  6
$INVISIBLE
100
AcDbTrace
 10
4336.972731
 20
2510.387236
 30
0.0
 11
4356.956099
 21
2395.634058
 31
0.0
 12
4333.798339
 22
2510.449364
 32
0.0
 13
4309.340217
 23
2396.56597
 33
0.0
  0
POLYLINE
  5
3C0
100
AcDbEntity
  8
Tadpole
100
AcDb2dPolyline
 66
     1
 10
0.0
 20
0.0
 30
0.0
 70
     1
  0
VERTEX
  5
3C1
100
AcDbEntity
  8
Tadpole
100
AcDbVertex
100
AcDb2dVertex
 10
4543.795926
 20
2467.724622
 30
0.0
  0
VERTEX
  5
3C2
100
AcDbEntity
  8
Tadpole
100
AcDbVertex
100
AcDb2dVertex
 10
4528.822937
 20
2468.655133
 30
0.0
  0
VERTEX
  5
3C3
100
AcDbEntity
  8
Tadpole
100
AcDbVertex
100
AcDb2dVertex
 10
4538.044345
 20
2504.1687
 30
0.0
  0
VERTEX
  5
3C4
100
AcDbEntity
  8
Tadpole
100
AcDbVertex
100
AcDb2dVertex
 10
4539.042544
 20
2504.106666
 30
0.0
  0
SEQEND
  5
3C5
100
AcDbEntity
  8
Tadpole
  0
SOLID
  5
3C6
100
AcDbEntity
  8
Tadpole
  6
$INVISIBLE
100
AcDbTrace
 10
4539.042544
 20
2504.106666
 30
0.0
 11
4543.795926
 21
2467.724622
 31
0.0
 12
4538.044345
 22
2504.1687
 32
0.0
 13
4528.822937
 23
2468.655133
 33
0.0
  0
POLYLINE
  5
3C7
100
AcDbEntity
  8
Tadpole
100
AcDb2dPolyline
 66
     1
 10
0.0
 20
0.0
 30
0.0
 70
     1
  0
VERTEX
  5
3C8
100
AcDbEntity
  8
Tadpole
100
AcDbVertex
100
AcDb2dVertex
 10
4642.239459
 20
2486.08968
 30
0.0
  0
VERTEX
  5
3C9
100
AcDbEntity
  8
Tadpole
100
AcDbVertex
100
AcDb2dVertex
 10
4636.294672
 20
2486.404643
 30
0.0
  0
VERTEX
  5
3CA
100
AcDbEntity
  8
Tadpole
100
AcDbVertex
100
AcDb2dVertex
 10
4639.825081
 20
2500.530165
 30
0.0
  0
VERTEX
  5
3CB
100
AcDbEntity
  8
Tadpole
100
AcDbVertex
100
AcDb2dVertex
 10
4640.2214
 20
2500.509168
 30
0.0
  0
SEQEND
  5
3CC
100
AcDbEntity
  8
Tadpole
  0
SOLID
  5
3CD
100
AcDbEntity
  8
Tadpole
  6
$INVISIBLE
100
AcDbTrace
 10
4640.2214
 20
2500.509168
 30
0.0
 11
4642.239459
 21
2486.08968
 31
0.0
 12
4639.825081
 22
2500.530165
 32
0.0
 13
4636.294672
 23
2486.404643
 33
0.0
  0
POLYLINE
  5
3CE
100
AcDbEntity
  8
Tadpole
100
AcDb2dPolyline
 66
     1
 10
0.0
 20
0.0
 30
0.0
 70
     1
  0
VERTEX
  5
3CF
100
AcDbEntity
  8
Tadpole
100
AcDbVertex
100
AcDb2dVertex
 10
4628.872951
 20
2483.763944
 30
0.0
  0
VERTEX
  5
3D0
100
AcDbEntity
  8
Tadpole
100
AcDbVertex
100
AcDb2dVertex
 10
4635.671677
 20
2485.957227
 30
0.0
  0
VERTEX
  5
3D1
100
AcDbEntity
  8
Tadpole
100
AcDbVertex
100
AcDb2dVertex
 10
4637.764668
 20
2468.611017
 30
0.0
  0
VERTEX
  5
3D2
100
AcDbEntity
  8
Tadpole
100
AcDbVertex
100
AcDb2dVertex
 10
4637.31142
 20
2468.464798
 30
0.0
  0
SEQEND
  5
3D3
100
AcDbEntity
  8
Tadpole
  0
SOLID
  5
3D4
100
AcDbEntity
  8
Tadpole
  6
$INVISIBLE
100
AcDbTrace
 10
4637.31142
 20
2468.464798
 30
0.0
 11
4628.872951
 21
2483.763944
 31
0.0
 12
4637.764668
 22
2468.611017
 32
0.0
 13
4635.671677
 23
2485.957227
 33
0.0
  0
POLYLINE
  5
3D5
100
AcDbEntity
  8
Tadpole
100
AcDb2dPolyline
 66
     1
 10
0.0
 20
0.0
 30
0.0
 70
     1
  0
VERTEX
  5
3D6
100
AcDbEntity
  8
Tadpole
100
AcDbVertex
100
AcDb2dVertex
 10
4524.116321
 20
2461.402679
 30
0.0
  0
VERTEX
  5
3D7
100
AcDbEntity
  8
Tadpole
100
AcDbVertex
100
AcDb2dVertex
 10
4537.382288
 20
2466.378495
 30
0.0
  0
VERTEX
  5
3D8
100
AcDbEntity
  8
Tadpole
100
AcDbVertex
100
AcDb2dVertex
 10
4543.137659
 20
2432.206936
 30
0.0
  0
VERTEX
  5
3D9
100
AcDbEntity
  8
Tadpole
100
AcDbVertex
100
AcDb2dVertex
 10
4542.253261
 20
2431.875214
 30
0.0
  0
SEQEND
  5
3DA
100
AcDbEntity
  8
Tadpole
  0
SOLID
  5
3DB
100
AcDbEntity
  8
Tadpole
  6
$INVISIBLE
100
AcDbTrace
 10
4542.253261
 20
2431.875214
 30
0.0
 11
4524.116321
 21
2461.402679
 31
0.0
 12
4543.137659
 22
2432.206936
 32
0.0
 13
4537.382288
 23
2466.378495
 33
0.0
  0
POLYLINE
  5
3DC
100
AcDbEntity
  8
Tadpole
100
AcDb2dPolyline
 66
     1
 10
0.0
 20
0.0
 30
0.0
 70
     1
  0
VERTEX
  5
3DD
100
AcDbEntity
  8
Tadpole
100
AcDbVertex
100
AcDb2dVertex
 10
4421.488292
 20
2424.18324
 30
0.0
  0
VERTEX
  5
3DE
100
AcDbEntity
  8
Tadpole
100
AcDbVertex
100
AcDb2dVertex
 10
4438.566222
 20
2433.14851
 30
0.0
  0
VERTEX
  5
3DF
100
AcDbEntity
  8
Tadpole
100
AcDbVertex
100
AcDb2dVertex
 10
4452.120734
 20
2387.963278
 30
0.0
  0
VERTEX
  5
3E0
100
AcDbEntity
  8
Tadpole
100
AcDbVertex
100
AcDb2dVertex
 10
4450.982206
 20
2387.365593
 30
0.0
  0
SEQEND
  5
3E1
100
AcDbEntity
  8
Tadpole
  0
SOLID
  5
3E2
100
AcDbEntity
  8
Tadpole
  6
$INVISIBLE
100
AcDbTrace
 10
4450.982206
 20
2387.365593
 30
0.0
 11
4421.488292
 21
2424.18324
 31
0.0
 12
4452.120734
 22
2387.963278
 32
0.0
 13
4438.566222
 23
2433.14851
 33
0.0
  0
POLYLINE
  5
3E3
100
AcDbEntity
  8
Tadpole
100
AcDb2dPolyline
 66
     1
 10
0.0
 20
0.0
 30
0.0
 70
     1
  0
VERTEX
  5
3E4
100
AcDbEntity
  8
Tadpole
100
AcDbVertex
100
AcDb2dVertex
 10
4319.175689
 20
2379.160844
 30
0.0
  0
VERTEX
  5
3E5
100
AcDbEntity
  8
Tadpole
100
AcDbVertex
100
AcDb2dVertex
 10
4340.435146
 20
2393.632377
 30
0.0
  0
VERTEX
  5
3E6
100
AcDbEntity
  8
Tadpole
100
AcDbVertex
100
AcDb2dVertex
 10
4365.257954
 20
2335.838362
 30
0.0
  0
VERTEX
  5
3E7
100
AcDbEntity
  8
Tadpole
100
AcDbVertex
100
AcDb2dVertex
 10
4363.840657
 20
2334.873593
 30
0.0
  0
SEQEND
  5
3E8
100
AcDbEntity
  8
Tadpole
  0
SOLID
  5
3E9
100
AcDbEntity
  8
Tadpole
  6
$INVISIBLE
100
AcDbTrace
 10
4363.840657
 20
2334.873593
 30
0.0
 11
4319.175689
 21
2379.160844
 31
0.0
 12
4365.257954
 22
2335.838362
 32
0.0
 13
4340.435146
 23
2393.632377
 33
0.0
  0
POLYLINE
  5
3EA
100
AcDbEntity
  8
Tadpole
100
AcDb2dPolyline
 66
     1
 10
0.0
 20
0.0
 30
0.0
 70
     1
  0
VERTEX
  5
3EB
100
AcDbEntity
  8
Tadpole
100
AcDbVertex
100
AcDb2dVertex
 10
4448.618827
 20
2137.940772
 30
0.0
  0
VERTEX
  5
3EC
100
AcDbEntity
  8
Tadpole
100
AcDbVertex
100
AcDb2dVertex
 10
4403.602626
 20
2137.940772
 30
0.0
  0
VERTEX
  5
3ED
100
AcDbEntity
  8
Tadpole
100
AcDbVertex
100
AcDb2dVertex
 10
4370.649792
 20
2199.849485
 30
0.0
  0
VERTEX
  5
3EE
100
AcDbEntity
  8
Tadpole
100
AcDbVertex
100
AcDb2dVertex
 10
4372.746365
 20
2201.54879
 30
0.0
  0
SEQEND
  5
3EF
100
AcDbEntity
  8
Tadpole
  0
SOLID
  5
3F0
100
AcDbEntity
  8
Tadpole
  6
$INVISIBLE
100
AcDbTrace
 10
4372.746365
 20
2201.54879
 30
0.0
 11
4448.618827
 21
2137.940772
 31
0.0
 12
4370.649792
 22
2199.849485
 32
0.0
 13
4403.602626
 23
2137.940772
 33
0.0
  0
POLYLINE
  5
3F1
100
AcDbEntity
  8
Tadpole
100
AcDb2dPolyline
 66
     1
 10
0.0
 20
0.0
 30
0.0
 70
     1
  0
VERTEX
  5
3F2
100
AcDbEntity
  8
Tadpole
100
AcDbVertex
100
AcDb2dVertex
 10
4131.781963
 20
2262.58113
 30
0.0
  0
VERTEX
  5
3F3
100
AcDbEntity
  8
Tadpole
100
AcDbVertex
100
AcDb2dVertex
 10
4160.115876
 20
2288.05267
 30
0.0
  0
VERTEX
  5
3F4
100
AcDbEntity
  8
Tadpole
100
AcDbVertex
100
AcDb2dVertex
 10
4208.046567
 20
2208.140655
 30
0.0
  0
VERTEX
  5
3F5
100
AcDbEntity
  8
Tadpole
100
AcDbVertex
100
AcDb2dVertex
 10
4206.157639
 20
2206.442552
 30
0.0
  0
SEQEND
  5
3F6
100
AcDbEntity
  8
Tadpole
  0
SOLID
  5
3F7
100
AcDbEntity
  8
Tadpole
  6
$INVISIBLE
100
AcDbTrace
 10
4206.157639
 20
2206.442552
 30
0.0
 11
4131.781963
 21
2262.58113
 31
0.0
 12
4208.046567
 22
2208.140655
 32
0.0
 13
4160.115876
 23
2288.05267
 33
0.0
  0
POLYLINE
  5
3F8
100
AcDbEntity
  8
Tadpole
100
AcDb2dPolyline
 66
     1
 10
0.0
 20
0.0
 30
0.0
 70
     1
  0
VERTEX
  5
3F9
100
AcDbEntity
  8
Tadpole
100
AcDbVertex
100
AcDb2dVertex
 10
4220.90383
 20
2318.765686
 30
0.0
  0
VERTEX
  5
3FA
100
AcDbEntity
  8
Tadpole
100
AcDbVertex
100
AcDb2dVertex
 10
4243.566771
 20
2339.853134
 30
0.0
  0
VERTEX
  5
3FB
100
AcDbEntity
  8
Tadpole
100
AcDbVertex
100
AcDb2dVertex
 10
4283.618399
 20
2275.602146
 30
0.0
  0
VERTEX
  5
3FC
100
AcDbEntity
  8
Tadpole
100
AcDbVertex
100
AcDb2dVertex
 10
4282.107536
 20
2274.196316
 30
0.0
  0
SEQEND
  5
3FD
100
AcDbEntity
  8
Tadpole
  0
SOLID
  5
3FE
100
AcDbEntity
  8
Tadpole
  6
$INVISIBLE
100
AcDbTrace
 10
4282.107536
 20
2274.196316
 30
0.0
 11
4220.90383
 21
2318.765686
 31
0.0
 12
4283.618399
 22
2275.602146
 32
0.0
 13
4243.566771
 23
2339.853134
 33
0.0
  0
POLYLINE
  5
3FF
100
AcDbEntity
  8
Tadpole
100
AcDb2dPolyline
 66
     1
 10
0.0
 20
0.0
 30
0.0
 70
     1
  0
VERTEX
  5
400
100
AcDbEntity
  8
Tadpole
100
AcDbVertex
100
AcDb2dVertex
 10
4249.363444
 20
2400.894048
 30
0.0
  0
VERTEX
  5
401
100
AcDbEntity
  8
Tadpole
100
AcDbVertex
100
AcDb2dVertex
 10
4201.866414
 20
2404.382997
 30
0.0
  0
VERTEX
  5
402
100
AcDbEntity
  8
Tadpole
100
AcDbVertex
100
AcDb2dVertex
 10
4232.408115
 20
2516.787763
 30
0.0
  0
VERTEX
  5
403
100
AcDbEntity
  8
Tadpole
100
AcDbVertex
100
AcDb2dVertex
 10
4235.574583
 20
2516.555166
 30
0.0
  0
SEQEND
  5
404
100
AcDbEntity
  8
Tadpole
  0
SOLID
  5
405
100
AcDbEntity
  8
Tadpole
  6
$INVISIBLE
100
AcDbTrace
 10
4235.574583
 20
2516.555166
 30
0.0
 11
4249.363444
 21
2400.894048
 31
0.0
 12
4232.408115
 22
2516.787763
 32
0.0
 13
4201.866414
 23
2404.382997
 33
0.0
  0
POLYLINE
  5
406
100
AcDbEntity
  8
Tadpole
100
AcDb2dPolyline
 66
     1
 10
0.0
 20
0.0
 30
0.0
 70
     1
  0
VERTEX
  5
407
100
AcDbEntity
  8
Tadpole
100
AcDbVertex
100
AcDb2dVertex
 10
4141.451744
 20
2411.160157
 30
0.0
  0
VERTEX
  5
408
100
AcDbEntity
  8
Tadpole
100
AcDbVertex
100
AcDb2dVertex
 10
4094.246788
 20
2417.471477
 30
0.0
  0
VERTEX
  5
409
100
AcDbEntity
  8
Tadpole
100
AcDbVertex
100
AcDb2dVertex
 10
4131.428262
 20
2527.857912
 30
0.0
  0
VERTEX
  5
40A
100
AcDbEntity
  8
Tadpole
100
AcDbVertex
100
AcDb2dVertex
 10
4134.575259
 20
2527.437157
 30
0.0
  0
SEQEND
  5
40B
100
AcDbEntity
  8
Tadpole
  0
SOLID
  5
40C
100
AcDbEntity
  8
Tadpole
  6
$INVISIBLE
100
AcDbTrace
 10
4134.575259
 20
2527.437157
 30
0.0
 11
4141.451744
 21
2411.160157
 31
0.0
 12
4131.428262
 22
2527.857912
 32
0.0
 13
4094.246788
 23
2417.471477
 33
0.0
  0
POLYLINE
  5
40D
100
AcDbEntity
  8
Tadpole
100
AcDb2dPolyline
 66
     1
 10
0.0
 20
0.0
 30
0.0
 70
     1
  0
VERTEX
  5
40E
100
AcDbEntity
  8
Tadpole
100
AcDbVertex
100
AcDb2dVertex
 10
4036.530604
 20
2422.71831
 30
0.0
  0
VERTEX
  5
40F
100
AcDbEntity
  8
Tadpole
100
AcDbVertex
100
AcDb2dVertex
 10
3989.570299
 20
2430.647397
 30
0.0
  0
VERTEX
  5
410
100
AcDbEntity
  8
Tadpole
100
AcDbVertex
100
AcDb2dVertex
 10
4030.521604
 20
2539.691505
 30
0.0
  0
VERTEX
  5
411
100
AcDbEntity
  8
Tadpole
100
AcDbVertex
100
AcDb2dVertex
 10
4033.652291
 20
2539.162899
 30
0.0
  0
SEQEND
  5
412
100
AcDbEntity
  8
Tadpole
  0
SOLID
  5
413
100
AcDbEntity
  8
Tadpole
  6
$INVISIBLE
100
AcDbTrace
 10
4033.652291
 20
2539.162899
 30
0.0
 11
4036.530604
 21
2422.71831
 31
0.0
 12
4030.521604
 22
2539.691505
 32
0.0
 13
3989.570299
 23
2430.647397
 33
0.0
  0
POLYLINE
  5
414
100
AcDbEntity
  8
Tadpole
100
AcDb2dPolyline
 66
     1
 10
0.0
 20
0.0
 30
0.0
 70
     1
  0
VERTEX
  5
415
100
AcDbEntity
  8
Tadpole
100
AcDbVertex
100
AcDb2dVertex
 10
3939.572529
 20
2434.715905
 30
0.0
  0
VERTEX
  5
416
100
AcDbEntity
  8
Tadpole
100
AcDbVertex
100
AcDb2dVertex
 10
3892.370264
 20
2441.04732
 30
0.0
  0
VERTEX
  5
417
100
AcDbEntity
  8
Tadpole
100
AcDbVertex
100
AcDb2dVertex
 10
3929.598726
 20
2551.417916
 30
0.0
  0
VERTEX
  5
418
100
AcDbEntity
  8
Tadpole
100
AcDbVertex
100
AcDb2dVertex
 10
3932.745543
 20
2550.995822
 30
0.0
  0
SEQEND
  5
419
100
AcDbEntity
  8
Tadpole
  0
SOLID
  5
41A
100
AcDbEntity
  8
Tadpole
  6
$INVISIBLE
100
AcDbTrace
 10
3932.745543
 20
2550.995822
 30
0.0
 11
3939.572529
 21
2434.715905
 31
0.0
 12
3929.598726
 22
2551.417916
 32
0.0
 13
3892.370264
 23
2441.04732
 33
0.0
  0
POLYLINE
  5
41B
100
AcDbEntity
  8
Tadpole
100
AcDb2dPolyline
 66
     1
 10
0.0
 20
0.0
 30
0.0
 70
     1
  0
VERTEX
  5
41C
100
AcDbEntity
  8
Tadpole
100
AcDbVertex
100
AcDb2dVertex
 10
3836.846654
 20
2446.379109
 30
0.0
  0
VERTEX
  5
41D
100
AcDbEntity
  8
Tadpole
100
AcDbVertex
100
AcDb2dVertex
 10
3789.748466
 20
2453.443193
 30
0.0
  0
VERTEX
  5
41E
100
AcDbEntity
  8
Tadpole
100
AcDbVertex
100
AcDb2dVertex
 10
3828.687382
 20
2563.222006
 30
0.0
  0
VERTEX
  5
41F
100
AcDbEntity
  8
Tadpole
100
AcDbVertex
100
AcDb2dVertex
 10
3831.827261
 20
2562.751067
 30
0.0
  0
SEQEND
  5
420
100
AcDbEntity
  8
Tadpole
  0
SOLID
  5
421
100
AcDbEntity
  8
Tadpole
  6
$INVISIBLE
100
AcDbTrace
 10
3831.827261
 20
2562.751067
 30
0.0
 11
3836.846654
 21
2446.379109
 31
0.0
 12
3828.687382
 22
2563.222006
 32
0.0
 13
3789.748466
 23
2453.443193
 33
0.0
  0
POLYLINE
  5
422
100
AcDbEntity
  8
Tadpole
100
AcDb2dPolyline
 66
     1
 10
0.0
 20
0.0
 30
0.0
 70
     1
  0
VERTEX
  5
423
100
AcDbEntity
  8
Tadpole
100
AcDbVertex
100
AcDb2dVertex
 10
3742.86245
 20
2455.090959
 30
0.0
  0
VERTEX
  5
424
100
AcDbEntity
  8
Tadpole
100
AcDbVertex
100
AcDb2dVertex
 10
3695.415342
 20
2459.203448
 30
0.0
  0
VERTEX
  5
425
100
AcDbEntity
  8
Tadpole
100
AcDbVertex
100
AcDb2dVertex
 10
3727.430768
 20
2571.197374
 30
0.0
  0
VERTEX
  5
426
100
AcDbEntity
  8
Tadpole
100
AcDbVertex
100
AcDb2dVertex
 10
3730.593908
 20
2570.923208
 30
0.0
  0
SEQEND
  5
427
100
AcDbEntity
  8
Tadpole
  0
SOLID
  5
428
100
AcDbEntity
  8
Tadpole
  6
$INVISIBLE
100
AcDbTrace
 10
3730.593908
 20
2570.923208
 30
0.0
 11
3742.86245
 21
2455.090959
 31
0.0
 12
3727.430768
 22
2571.197374
 32
0.0
 13
3695.415342
 23
2459.203448
 33
0.0
  0
POLYLINE
  5
429
100
AcDbEntity
  8
Tadpole
100
AcDb2dPolyline
 66
     1
 10
0.0
 20
0.0
 30
0.0
 70
     1
  0
VERTEX
  5
42A
100
AcDbEntity
  8
Tadpole
100
AcDbVertex
100
AcDb2dVertex
 10
3648.925838
 20
2457.497702
 30
0.0
  0
VERTEX
  5
42B
100
AcDbEntity
  8
Tadpole
100
AcDbVertex
100
AcDb2dVertex
 10
3601.310643
 20
2458.464049
 30
0.0
  0
VERTEX
  5
42C
100
AcDbEntity
  8
Tadpole
100
AcDbVertex
100
AcDb2dVertex
 10
3625.851115
 20
2572.329725
 30
0.0
  0
VERTEX
  5
42D
100
AcDbEntity
  8
Tadpole
100
AcDbVertex
100
AcDb2dVertex
 10
3629.025461
 20
2572.265302
 30
0.0
  0
SEQEND
  5
42E
100
AcDbEntity
  8
Tadpole
  0
SOLID
  5
42F
100
AcDbEntity
  8
Tadpole
  6
$INVISIBLE
100
AcDbTrace
 10
3629.025461
 20
2572.265302
 30
0.0
 11
3648.925838
 21
2457.497702
 31
0.0
 12
3625.851115
 22
2572.329725
 32
0.0
 13
3601.310643
 23
2458.464049
 33
0.0
  0
POLYLINE
  5
430
100
AcDbEntity
  8
Tadpole
100
AcDb2dPolyline
 66
     1
 10
0.0
 20
0.0
 30
0.0
 70
     1
  0
VERTEX
  5
431
100
AcDbEntity
  8
Tadpole
100
AcDbVertex
100
AcDb2dVertex
 10
3546.4415
 20
2457.59137
 30
0.0
  0
VERTEX
  5
432
100
AcDbEntity
  8
Tadpole
100
AcDbVertex
100
AcDb2dVertex
 10
3498.83516
 20
2458.924422
 30
0.0
  0
VERTEX
  5
433
100
AcDbEntity
  8
Tadpole
100
AcDbVertex
100
AcDb2dVertex
 10
3524.251901
 20
2572.597709
 30
0.0
  0
VERTEX
  5
434
100
AcDbEntity
  8
Tadpole
100
AcDbVertex
100
AcDb2dVertex
 10
3527.425657
 20
2572.508839
 30
0.0
  0
SEQEND
  5
435
100
AcDbEntity
  8
Tadpole
  0
SOLID
  5
436
100
AcDbEntity
  8
Tadpole
  6
$INVISIBLE
100
AcDbTrace
 10
3527.425657
 20
2572.508839
 30
0.0
 11
3546.4415
 21
2457.59137
 31
0.0
 12
3524.251901
 22
2572.597709
 32
0.0
 13
3498.83516
 23
2458.924422
 33
0.0
  0
POLYLINE
  5
437
100
AcDbEntity
  8
Tadpole
100
AcDb2dPolyline
 66
     1
 10
0.0
 20
0.0
 30
0.0
 70
     1
  0
VERTEX
  5
438
100
AcDbEntity
  8
Tadpole
100
AcDbVertex
100
AcDb2dVertex
 10
3445.236814
 20
2457.527191
 30
0.0
  0
VERTEX
  5
439
100
AcDbEntity
  8
Tadpole
100
AcDbVertex
100
AcDb2dVertex
 10
3397.626173
 20
2458.696595
 30
0.0
  0
VERTEX
  5
43A
100
AcDbEntity
  8
Tadpole
100
AcDbVertex
100
AcDb2dVertex
 10
3422.652028
 20
2572.456577
 30
0.0
  0
VERTEX
  5
43B
100
AcDbEntity
  8
Tadpole
100
AcDbVertex
100
AcDb2dVertex
 10
3425.826071
 20
2572.378617
 30
0.0
  0
SEQEND
  5
43C
100
AcDbEntity
  8
Tadpole
  0
SOLID
  5
43D
100
AcDbEntity
  8
Tadpole
  6
$INVISIBLE
100
AcDbTrace
 10
3425.826071
 20
2572.378617
 30
0.0
 11
3445.236814
 21
2457.527191
 31
0.0
 12
3422.652028
 22
2572.456577
 32
0.0
 13
3397.626173
 23
2458.696595
 33
0.0
  0
POLYLINE
  5
43E
100
AcDbEntity
  8
Tadpole
100
AcDb2dPolyline
 66
     1
 10
0.0
 20
0.0
 30
0.0
 70
     1
  0
VERTEX
  5
43F
100
AcDbEntity
  8
Tadpole
100
AcDbVertex
100
AcDb2dVertex
 10
3351.592531
 20
2458.874964
 30
0.0
  0
VERTEX
  5
440
100
AcDbEntity
  8
Tadpole
100
AcDbVertex
100
AcDb2dVertex
 10
3304.016135
 20
2456.723897
 30
0.0
  0
VERTEX
  5
441
100
AcDbEntity
  8
Tadpole
100
AcDbVertex
100
AcDb2dVertex
 10
3321.054076
 20
2571.951218
 30
0.0
  0
VERTEX
  5
442
100
AcDbEntity
  8
Tadpole
100
AcDbVertex
100
AcDb2dVertex
 10
3324.225836
 20
2572.094622
 30
0.0
  0
SEQEND
  5
443
100
AcDbEntity
  8
Tadpole
  0
SOLID
  5
444
100
AcDbEntity
  8
Tadpole
  6
$INVISIBLE
100
AcDbTrace
 10
3324.225836
 20
2572.094622
 30
0.0
 11
3351.592531
 21
2458.874964
 31
0.0
 12
3321.054076
 22
2571.951218
 32
0.0
 13
3304.016135
 23
2456.723897
 33
0.0
  0
POLYLINE
  5
445
100
AcDbEntity
  8
Tadpole
100
AcDb2dPolyline
 66
     1
 10
0.0
 20
0.0
 30
0.0
 70
     1
  0
VERTEX
  5
446
100
AcDbEntity
  8
Tadpole
100
AcDbVertex
100
AcDb2dVertex
 10
3242.251157
 20
2456.389096
 30
0.0
  0
VERTEX
  5
447
100
AcDbEntity
  8
Tadpole
100
AcDbVertex
100
AcDb2dVertex
 10
3194.638454
 20
2457.471324
 30
0.0
  0
VERTEX
  5
448
100
AcDbEntity
  8
Tadpole
100
AcDbVertex
100
AcDb2dVertex
 10
3219.455976
 20
2571.276937
 30
0.0
  0
VERTEX
  5
449
100
AcDbEntity
  8
Tadpole
100
AcDbVertex
100
AcDb2dVertex
 10
3222.630156
 20
2571.204788
 30
0.0
  0
SEQEND
  5
44A
100
AcDbEntity
  8
Tadpole
  0
SOLID
  5
44B
100
AcDbEntity
  8
Tadpole
  6
$INVISIBLE
100
AcDbTrace
 10
3222.630156
 20
2571.204788
 30
0.0
 11
3242.251157
 21
2456.389096
 31
0.0
 12
3219.455976
 22
2571.276937
 32
0.0
 13
3194.638454
 23
2457.471324
 33
0.0
  0
POLYLINE
  5
44C
100
AcDbEntity
  8
Tadpole
100
AcDb2dPolyline
 66
     1
 10
0.0
 20
0.0
 30
0.0
 70
     1
  0
VERTEX
  5
44D
100
AcDbEntity
  8
Tadpole
100
AcDbVertex
100
AcDb2dVertex
 10
3050.200045
 20
2456.438424
 30
0.0
  0
VERTEX
  5
44E
100
AcDbEntity
  8
Tadpole
100
AcDbVertex
100
AcDb2dVertex
 10
3002.709792
 20
2452.858401
 30
0.0
  0
VERTEX
  5
44F
100
AcDbEntity
  8
Tadpole
100
AcDbVertex
100
AcDb2dVertex
 10
3016.276835
 20
2568.545748
 30
0.0
  0
VERTEX
  5
450
100
AcDbEntity
  8
Tadpole
100
AcDbVertex
100
AcDb2dVertex
 10
3019.442852
 20
2568.784416
 30
0.0
  0
SEQEND
  5
451
100
AcDbEntity
  8
Tadpole
  0
SOLID
  5
452
100
AcDbEntity
  8
Tadpole
  6
$INVISIBLE
100
AcDbTrace
 10
3019.442852
 20
2568.784416
 30
0.0
 11
3050.200045
 21
2456.438424
 31
0.0
 12
3016.276835
 22
2568.545748
 32
0.0
 13
3002.709792
 23
2452.858401
 33
0.0
  0
POLYLINE
  5
453
100
AcDbEntity
  8
Tadpole
100
AcDb2dPolyline
 66
     1
 10
0.0
 20
0.0
 30
0.0
 70
     1
  0
VERTEX
  5
454
100
AcDbEntity
  8
Tadpole
100
AcDbVertex
100
AcDb2dVertex
 10
3150.224451
 20
2457.419399
 30
0.0
  0
VERTEX
  5
455
100
AcDbEntity
  8
Tadpole
100
AcDbVertex
100
AcDb2dVertex
 10
3102.68896
 20
2454.500873
 30
0.0
  0
VERTEX
  5
456
100
AcDbEntity
  8
Tadpole
100
AcDbVertex
100
AcDb2dVertex
 10
3117.865265
 20
2569.988131
 30
0.0
  0
VERTEX
  5
457
100
AcDbEntity
  8
Tadpole
100
AcDbVertex
100
AcDb2dVertex
 10
3121.034297
 20
2570.182699
 30
0.0
  0
SEQEND
  5
458
100
AcDbEntity
  8
Tadpole
  0
SOLID
  5
459
100
AcDbEntity
  8
Tadpole
  6
$INVISIBLE
100
AcDbTrace
 10
3121.034297
 20
2570.182699
 30
0.0
 11
3150.224451
 21
2457.419399
 31
0.0
 12
3117.865265
 22
2569.988131
 32
0.0
 13
3102.68896
 23
2454.500873
 33
0.0
  0
POLYLINE
  5
45A
100
AcDbEntity
  8
Tadpole
100
AcDb2dPolyline
 66
     1
 10
0.0
 20
0.0
 30
0.0
 70
     1
  0
VERTEX
  5
45B
100
AcDbEntity
  8
Tadpole
100
AcDbVertex
100
AcDb2dVertex
 10
2949.804
 20
2450.880948
 30
0.0
  0
VERTEX
  5
45C
100
AcDbEntity
  8
Tadpole
100
AcDbVertex
100
AcDb2dVertex
 10
2902.346817
 20
2446.886402
 30
0.0
  0
VERTEX
  5
45D
100
AcDbEntity
  8
Tadpole
100
AcDbVertex
100
AcDb2dVertex
 10
2914.903223
 20
2562.687799
 30
0.0
  0
VERTEX
  5
45E
100
AcDbEntity
  8
Tadpole
100
AcDbVertex
100
AcDb2dVertex
 10
2918.067035
 20
2562.954102
 30
0.0
  0
SEQEND
  5
45F
100
AcDbEntity
  8
Tadpole
  0
SOLID
  5
460
100
AcDbEntity
  8
Tadpole
  6
$INVISIBLE
100
AcDbTrace
 10
2918.067035
 20
2562.954102
 30
0.0
 11
2949.804
 21
2450.880948
 31
0.0
 12
2914.903223
 22
2562.687799
 32
0.0
 13
2902.346817
 23
2446.886402
 33
0.0
  0
POLYLINE
  5
461
100
AcDbEntity
  8
Tadpole
100
AcDb2dPolyline
 66
     1
 10
0.0
 20
0.0
 30
0.0
 70
     1
  0
VERTEX
  5
462
100
AcDbEntity
  8
Tadpole
100
AcDbVertex
100
AcDb2dVertex
 10
2851.913888
 20
2439.567388
 30
0.0
  0
VERTEX
  5
463
100
AcDbEntity
  8
Tadpole
100
AcDbVertex
100
AcDb2dVertex
 10
2804.57949
 20
2434.314263
 30
0.0
  0
VERTEX
  5
464
100
AcDbEntity
  8
Tadpole
100
AcDbVertex
100
AcDb2dVertex
 10
2814.056943
 20
2550.408211
 30
0.0
  0
VERTEX
  5
465
100
AcDbEntity
  8
Tadpole
100
AcDbVertex
100
AcDb2dVertex
 10
2817.212569
 20
2550.758419
 30
0.0
  0
SEQEND
  5
466
100
AcDbEntity
  8
Tadpole
  0
SOLID
  5
467
100
AcDbEntity
  8
Tadpole
  6
$INVISIBLE
100
AcDbTrace
 10
2817.212569
 20
2550.758419
 30
0.0
 11
2851.913888
 21
2439.567388
 31
0.0
 12
2814.056943
 22
2550.408211
 32
0.0
 13
2804.57949
 23
2434.314263
 33
0.0
  0
POLYLINE
  5
468
100
AcDbEntity
  8
Tadpole
100
AcDb2dPolyline
 66
     1
 10
0.0
 20
0.0
 30
0.0
 70
     1
  0
VERTEX
  5
469
100
AcDbEntity
  8
Tadpole
100
AcDbVertex
100
AcDb2dVertex
 10
2753.662996
 20
2427.650754
 30
0.0
  0
VERTEX
  5
46A
100
AcDbEntity
  8
Tadpole
100
AcDbVertex
100
AcDb2dVertex
 10
2706.461847
 20
2421.311024
 30
0.0
  0
VERTEX
  5
46B
100
AcDbEntity
  8
Tadpole
100
AcDbVertex
100
AcDb2dVertex
 10
2713.268352
 20
2537.592143
 30
0.0
  0
VERTEX
  5
46C
100
AcDbEntity
  8
Tadpole
100
AcDbVertex
100
AcDb2dVertex
 10
2716.415095
 20
2538.014791
 30
0.0
  0
SEQEND
  5
46D
100
AcDbEntity
  8
Tadpole
  0
SOLID
  5
46E
100
AcDbEntity
  8
Tadpole
  6
$INVISIBLE
100
AcDbTrace
 10
2716.415095
 20
2538.014791
 30
0.0
 11
2753.662996
 21
2427.650754
 31
0.0
 12
2713.268352
 22
2537.592143
 32
0.0
 13
2706.461847
 23
2421.311024
 33
0.0
  0
POLYLINE
  5
46F
100
AcDbEntity
  8
Tadpole
100
AcDb2dPolyline
 66
     1
 10
0.0
 20
0.0
 30
0.0
 70
     1
  0
VERTEX
  5
470
100
AcDbEntity
  8
Tadpole
100
AcDbVertex
100
AcDb2dVertex
 10
2651.061261
 20
2414.250061
 30
0.0
  0
VERTEX
  5
471
100
AcDbEntity
  8
Tadpole
100
AcDbVertex
100
AcDb2dVertex
 10
2603.762641
 20
2408.683992
 30
0.0
  0
VERTEX
  5
472
100
AcDbEntity
  8
Tadpole
100
AcDbVertex
100
AcDb2dVertex
 10
2612.47207
 20
2524.838083
 30
0.0
  0
VERTEX
  5
473
100
AcDbEntity
  8
Tadpole
100
AcDbVertex
100
AcDb2dVertex
 10
2615.625311
 20
2525.209154
 30
0.0
  0
SEQEND
  5
474
100
AcDbEntity
  8
Tadpole
  0
SOLID
  5
475
100
AcDbEntity
  8
Tadpole
  6
$INVISIBLE
100
AcDbTrace
 10
2615.625311
 20
2525.209154
 30
0.0
 11
2651.061261
 21
2414.250061
 31
0.0
 12
2612.47207
 22
2524.838083
 32
0.0
 13
2603.762641
 23
2408.683992
 33
0.0
  0
POLYLINE
  5
476
100
AcDbEntity
  8
Tadpole
100
AcDb2dPolyline
 66
     1
 10
0.0
 20
0.0
 30
0.0
 70
     1
  0
VERTEX
  5
477
100
AcDbEntity
  8
Tadpole
100
AcDbVertex
100
AcDb2dVertex
 10
2554.709363
 20
2403.054477
 30
0.0
  0
VERTEX
  5
478
100
AcDbEntity
  8
Tadpole
100
AcDbVertex
100
AcDb2dVertex
 10
2507.67396
 20
2395.583768
 30
0.0
  0
VERTEX
  5
479
100
AcDbEntity
  8
Tadpole
100
AcDbVertex
100
AcDb2dVertex
 10
2511.687811
 20
2511.994747
 30
0.0
  0
VERTEX
  5
47A
100
AcDbEntity
  8
Tadpole
100
AcDbVertex
100
AcDb2dVertex
 10
2514.823504
 20
2512.492794
 30
0.0
  0
SEQEND
  5
47B
100
AcDbEntity
  8
Tadpole
  0
SOLID
  5
47C
100
AcDbEntity
  8
Tadpole
  6
$INVISIBLE
100
AcDbTrace
 10
2514.823504
 20
2512.492794
 30
0.0
 11
2554.709363
 21
2403.054477
 31
0.0
 12
2511.687811
 22
2511.994747
 32
0.0
 13
2507.67396
 23
2395.583768
 33
0.0
  0
POLYLINE
  5
47D
100
AcDbEntity
  8
Tadpole
100
AcDb2dPolyline
 66
     1
 10
0.0
 20
0.0
 30
0.0
 70
     1
  0
VERTEX
  5
47E
100
AcDbEntity
  8
Tadpole
100
AcDbVertex
100
AcDb2dVertex
 10
2445.254839
 20
2391.295779
 30
0.0
  0
VERTEX
  5
47F
100
AcDbEntity
  8
Tadpole
100
AcDbVertex
100
AcDb2dVertex
 10
2397.792795
 20
2387.35941
 30
0.0
  0
VERTEX
  5
480
100
AcDbEntity
  8
Tadpole
100
AcDbVertex
100
AcDb2dVertex
 10
2410.491144
 20
2503.145329
 30
0.0
  0
VERTEX
  5
481
100
AcDbEntity
  8
Tadpole
100
AcDbVertex
100
AcDb2dVertex
 10
2413.65528
 20
2503.407753
 30
0.0
  0
SEQEND
  5
482
100
AcDbEntity
  8
Tadpole
  0
SOLID
  5
483
100
AcDbEntity
  8
Tadpole
  6
$INVISIBLE
100
AcDbTrace
 10
2413.65528
 20
2503.407753
 30
0.0
 11
2445.254839
 21
2391.295779
 31
0.0
 12
2410.491144
 22
2503.145329
 32
0.0
 13
2397.792795
 23
2387.35941
 33
0.0
  0
POLYLINE
  5
484
100
AcDbEntity
  8
Tadpole
100
AcDb2dPolyline
 66
     1
 10
0.0
 20
0.0
 30
0.0
 70
     1
  0
VERTEX
  5
485
100
AcDbEntity
  8
Tadpole
100
AcDbVertex
100
AcDb2dVertex
 10
2337.676298
 20
2384.629013
 30
0.0
  0
VERTEX
  5
486
100
AcDbEntity
  8
Tadpole
100
AcDbVertex
100
AcDb2dVertex
 10
2290.070657
 20
2383.271208
 30
0.0
  0
VERTEX
  5
487
100
AcDbEntity
  8
Tadpole
100
AcDbVertex
100
AcDb2dVertex
 10
2309.026746
 20
2498.198549
 30
0.0
  0
VERTEX
  5
488
100
AcDbEntity
  8
Tadpole
100
AcDbVertex
100
AcDb2dVertex
 10
2312.200456
 20
2498.289069
 30
0.0
  0
SEQEND
  5
489
100
AcDbEntity
  8
Tadpole
  0
SOLID
  5
48A
100
AcDbEntity
  8
Tadpole
  6
$INVISIBLE
100
AcDbTrace
 10
2312.200456
 20
2498.289069
 30
0.0
 11
2337.676298
 21
2384.629013
 31
0.0
 12
2309.026746
 22
2498.198549
 32
0.0
 13
2290.070657
 23
2383.271208
 33
0.0
  0
POLYLINE
  5
48B
100
AcDbEntity
  8
Tadpole
100
AcDb2dPolyline
 66
     1
 10
0.0
 20
0.0
 30
0.0
 70
     1
  0
VERTEX
  5
48C
100
AcDbEntity
  8
Tadpole
100
AcDbVertex
100
AcDb2dVertex
 10
2241.293429
 20
2381.786497
 30
0.0
  0
VERTEX
  5
48D
100
AcDbEntity
  8
Tadpole
100
AcDbVertex
100
AcDb2dVertex
 10
2193.798534
 20
2378.268601
 30
0.0
  0
VERTEX
  5
48E
100
AcDbEntity
  8
Tadpole
100
AcDbVertex
100
AcDb2dVertex
 10
2207.5169
 20
2493.938102
 30
0.0
  0
VERTEX
  5
48F
100
AcDbEntity
  8
Tadpole
100
AcDbVertex
100
AcDb2dVertex
 10
2210.683226
 20
2494.172628
 30
0.0
  0
SEQEND
  5
490
100
AcDbEntity
  8
Tadpole
  0
SOLID
  5
491
100
AcDbEntity
  8
Tadpole
  6
$INVISIBLE
100
AcDbTrace
 10
2210.683226
 20
2494.172628
 30
0.0
 11
2241.293429
 21
2381.786497
 31
0.0
 12
2207.5169
 22
2493.938102
 32
0.0
 13
2193.798534
 23
2378.268601
 33
0.0
  0
POLYLINE
  5
492
100
AcDbEntity
  8
Tadpole
100
AcDb2dPolyline
 66
     1
 10
0.0
 20
0.0
 30
0.0
 70
     1
  0
VERTEX
  5
493
100
AcDbEntity
  8
Tadpole
100
AcDbVertex
100
AcDb2dVertex
 10
2141.282646
 20
2377.691682
 30
0.0
  0
VERTEX
  5
494
100
AcDbEntity
  8
Tadpole
100
AcDbVertex
100
AcDb2dVertex
 10
2093.838651
 20
2373.543438
 30
0.0
  0
VERTEX
  5
495
100
AcDbEntity
  8
Tadpole
100
AcDbVertex
100
AcDb2dVertex
 10
2106.019897
 20
2489.384899
 30
0.0
  0
VERTEX
  5
496
100
AcDbEntity
  8
Tadpole
100
AcDbVertex
100
AcDb2dVertex
 10
2109.18283
 20
2489.661449
 30
0.0
  0
SEQEND
  5
497
100
AcDbEntity
  8
Tadpole
  0
SOLID
  5
498
100
AcDbEntity
  8
Tadpole
  6
$INVISIBLE
100
AcDbTrace
 10
2109.18283
 20
2489.661449
 30
0.0
 11
2141.282646
 21
2377.691682
 31
0.0
 12
2106.019897
 22
2489.384899
 32
0.0
 13
2093.838651
 23
2373.543438
 33
0.0
  0
POLYLINE
  5
499
100
AcDbEntity
  8
Tadpole
100
AcDb2dPolyline
 66
     1
 10
0.0
 20
0.0
 30
0.0
 70
     1
  0
VERTEX
  5
49A
100
AcDbEntity
  8
Tadpole
100
AcDbVertex
100
AcDb2dVertex
 10
2033.545529
 20
2371.12594
 30
0.0
  0
VERTEX
  5
49B
100
AcDbEntity
  8
Tadpole
100
AcDbVertex
100
AcDb2dVertex
 10
1985.944491
 20
2369.615385
 30
0.0
  0
VERTEX
  5
49C
100
AcDbEntity
  8
Tadpole
100
AcDbVertex
100
AcDb2dVertex
 10
2004.531702
 20
2484.60296
 30
0.0
  0
VERTEX
  5
49D
100
AcDbEntity
  8
Tadpole
100
AcDbVertex
100
AcDb2dVertex
 10
2007.705104
 20
2484.703664
 30
0.0
  0
SEQEND
  5
49E
100
AcDbEntity
  8
Tadpole
  0
SOLID
  5
49F
100
AcDbEntity
  8
Tadpole
  6
$INVISIBLE
100
AcDbTrace
 10
2007.705104
 20
2484.703664
 30
0.0
 11
2033.545529
 21
2371.12594
 31
0.0
 12
2004.531702
 22
2484.60296
 32
0.0
 13
1985.944491
 23
2369.615385
 33
0.0
  0
POLYLINE
  5
4A0
100
AcDbEntity
  8
Tadpole
100
AcDb2dPolyline
 66
     1
 10
0.0
 20
0.0
 30
0.0
 70
     1
  0
VERTEX
  5
4A1
100
AcDbEntity
  8
Tadpole
100
AcDbVertex
100
AcDb2dVertex
 10
1941.62879
 20
2368.756171
 30
0.0
  0
VERTEX
  5
4A2
100
AcDbEntity
  8
Tadpole
100
AcDbVertex
100
AcDb2dVertex
 10
1894.328617
 20
2363.20331
 30
0.0
  0
VERTEX
  5
4A3
100
AcDbEntity
  8
Tadpole
100
AcDbVertex
100
AcDb2dVertex
 10
1903.07048
 20
2479.354964
 30
0.0
  0
VERTEX
  5
4A4
100
AcDbEntity
  8
Tadpole
100
AcDbVertex
100
AcDb2dVertex
 10
1906.223825
 20
2479.725155
 30
0.0
  0
SEQEND
  5
4A5
100
AcDbEntity
  8
Tadpole
  0
SOLID
  5
4A6
100
AcDbEntity
  8
Tadpole
  6
$INVISIBLE
100
AcDbTrace
 10
1906.223825
 20
2479.725155
 30
0.0
 11
1941.62879
 21
2368.756171
 31
0.0
 12
1903.07048
 22
2479.354964
 32
0.0
 13
1894.328617
 23
2363.20331
 33
0.0
  0
POLYLINE
  5
4A7
100
AcDbEntity
  8
Tadpole
100
AcDb2dPolyline
 66
     1
 10
0.0
 20
0.0
 30
0.0
 70
     1
  0
VERTEX
  5
4A8
100
AcDbEntity
  8
Tadpole
100
AcDbVertex
100
AcDb2dVertex
 10
1837.155339
 20
2362.252543
 30
0.0
  0
VERTEX
  5
4A9
100
AcDbEntity
  8
Tadpole
100
AcDbVertex
100
AcDb2dVertex
 10
1789.721721
 20
2357.987276
 30
0.0
  0
VERTEX
  5
4AA
100
AcDbEntity
  8
Tadpole
100
AcDbVertex
100
AcDb2dVertex
 10
1801.617171
 20
2473.858434
 30
0.0
  0
VERTEX
  5
4AB
100
AcDbEntity
  8
Tadpole
100
AcDbVertex
100
AcDb2dVertex
 10
1804.779412
 20
2474.142785
 30
0.0
  0
SEQEND
  5
4AC
100
AcDbEntity
  8
Tadpole
  0
SOLID
  5
4AD
100
AcDbEntity
  8
Tadpole
  6
$INVISIBLE
100
AcDbTrace
 10
1804.779412
 20
2474.142785
 30
0.0
 11
1837.155339
 21
2362.252543
 31
0.0
 12
1801.617171
 22
2473.858434
 32
0.0
 13
1789.721721
 23
2357.987276
 33
0.0
  0
POLYLINE
  5
4AE
100
AcDbEntity
  8
Tadpole
100
AcDb2dPolyline
 66
     1
 10
0.0
 20
0.0
 30
0.0
 70
     1
  0
VERTEX
  5
4AF
100
AcDbEntity
  8
Tadpole
100
AcDbVertex
100
AcDb2dVertex
 10
1737.581788
 20
2354.786827
 30
0.0
  0
VERTEX
  5
4B0
100
AcDbEntity
  8
Tadpole
100
AcDbVertex
100
AcDb2dVertex
 10
1690.218794
 20
2349.798106
 30
0.0
  0
VERTEX
  5
4B1
100
AcDbEntity
  8
Tadpole
100
AcDbVertex
100
AcDb2dVertex
 10
1700.344384
 20
2465.83732
 30
0.0
  0
VERTEX
  5
4B2
100
AcDbEntity
  8
Tadpole
100
AcDbVertex
100
AcDb2dVertex
 10
1703.501917
 20
2466.169902
 30
0.0
  0
SEQEND
  5
4B3
100
AcDbEntity
  8
Tadpole
  0
SOLID
  5
4B4
100
AcDbEntity
  8
Tadpole
  6
$INVISIBLE
100
AcDbTrace
 10
1703.501917
 20
2466.169902
 30
0.0
 11
1737.581788
 21
2354.786827
 31
0.0
 12
1700.344384
 22
2465.83732
 32
0.0
 13
1690.218794
 23
2349.798106
 33
0.0
  0
POLYLINE
  5
4B5
100
AcDbEntity
  8
Tadpole
100
AcDb2dPolyline
 66
     1
 10
0.0
 20
0.0
 30
0.0
 70
     1
  0
VERTEX
  5
4B6
100
AcDbEntity
  8
Tadpole
100
AcDbVertex
100
AcDb2dVertex
 10
1637.072632
 20
2342.32105
 30
0.0
  0
VERTEX
  5
4B7
100
AcDbEntity
  8
Tadpole
100
AcDbVertex
100
AcDb2dVertex
 10
1589.723024
 20
2337.206832
 30
0.0
  0
VERTEX
  5
4B8
100
AcDbEntity
  8
Tadpole
100
AcDbVertex
100
AcDb2dVertex
 10
1599.54107
 20
2453.272473
 30
0.0
  0
VERTEX
  5
4B9
100
AcDbEntity
  8
Tadpole
100
AcDbVertex
100
AcDb2dVertex
 10
1602.697711
 20
2453.613421
 30
0.0
  0
SEQEND
  5
4BA
100
AcDbEntity
  8
Tadpole
  0
SOLID
  5
4BB
100
AcDbEntity
  8
Tadpole
  6
$INVISIBLE
100
AcDbTrace
 10
1602.697711
 20
2453.613421
 30
0.0
 11
1637.072632
 21
2342.32105
 31
0.0
 12
1599.54107
 22
2453.272473
 32
0.0
 13
1589.723024
 23
2337.206832
 33
0.0
  0
POLYLINE
  5
4BC
100
AcDbEntity
  8
Tadpole
100
AcDb2dPolyline
 66
     1
 10
0.0
 20
0.0
 30
0.0
 70
     1
  0
VERTEX
  5
4BD
100
AcDbEntity
  8
Tadpole
100
AcDbVertex
100
AcDb2dVertex
 10
1534.405328
 20
2327.762226
 30
0.0
  0
VERTEX
  5
4BE
100
AcDbEntity
  8
Tadpole
100
AcDbVertex
100
AcDb2dVertex
 10
1486.97039
 20
2323.511657
 30
0.0
  0
VERTEX
  5
4BF
100
AcDbEntity
  8
Tadpole
100
AcDbVertex
100
AcDb2dVertex
 10
1498.901743
 20
2439.379124
 30
0.0
  0
VERTEX
  5
4C0
100
AcDbEntity
  8
Tadpole
100
AcDbVertex
100
AcDb2dVertex
 10
1502.064072
 20
2439.662495
 30
0.0
  0
SEQEND
  5
4C1
100
AcDbEntity
  8
Tadpole
  0
SOLID
  5
4C2
100
AcDbEntity
  8
Tadpole
  6
$INVISIBLE
100
AcDbTrace
 10
1502.064072
 20
2439.662495
 30
0.0
 11
1534.405328
 21
2327.762226
 31
0.0
 12
1498.901743
 22
2439.379124
 32
0.0
 13
1486.97039
 23
2323.511657
 33
0.0
  0
POLYLINE
  5
4C3
100
AcDbEntity
  8
Tadpole
100
AcDb2dPolyline
 66
     1
 10
0.0
 20
0.0
 30
0.0
 70
     1
  0
VERTEX
  5
4C4
100
AcDbEntity
  8
Tadpole
100
AcDbVertex
100
AcDb2dVertex
 10
1425.975187
 20
2317.562136
 30
0.0
  0
VERTEX
  5
4C5
100
AcDbEntity
  8
Tadpole
100
AcDbVertex
100
AcDb2dVertex
 10
1378.364947
 20
2316.376524
 30
0.0
  0
VERTEX
  5
4C6
100
AcDbEntity
  8
Tadpole
100
AcDbVertex
100
AcDb2dVertex
 10
1397.736592
 20
2431.234551
 30
0.0
  0
VERTEX
  5
4C7
100
AcDbEntity
  8
Tadpole
100
AcDbVertex
100
AcDb2dVertex
 10
1400.910608
 20
2431.313592
 30
0.0
  0
SEQEND
  5
4C8
100
AcDbEntity
  8
Tadpole
  0
SOLID
  5
4C9
100
AcDbEntity
  8
Tadpole
  6
$INVISIBLE
100
AcDbTrace
 10
1400.910608
 20
2431.313592
 30
0.0
 11
1425.975187
 21
2317.562136
 31
0.0
 12
1397.736592
 22
2431.234551
 32
0.0
 13
1378.364947
 23
2316.376524
 33
0.0
  0
POLYLINE
  5
4CA
100
AcDbEntity
  8
Tadpole
100
AcDb2dPolyline
 66
     1
 10
0.0
 20
0.0
 30
0.0
 70
     1
  0
VERTEX
  5
4CB
100
AcDbEntity
  8
Tadpole
100
AcDbVertex
100
AcDb2dVertex
 10
1327.921091
 20
2310.732681
 30
0.0
  0
VERTEX
  5
4CC
100
AcDbEntity
  8
Tadpole
100
AcDbVertex
100
AcDb2dVertex
 10
1280.362173
 20
2308.22471
 30
0.0
  0
VERTEX
  5
4CD
100
AcDbEntity
  8
Tadpole
100
AcDbVertex
100
AcDb2dVertex
 10
1296.535088
 20
2423.576623
 30
0.0
  0
VERTEX
  5
4CE
100
AcDbEntity
  8
Tadpole
100
AcDbVertex
100
AcDb2dVertex
 10
1299.705683
 20
2423.743821
 30
0.0
  0
SEQEND
  5
4CF
100
AcDbEntity
  8
Tadpole
  0
SOLID
  5
4D0
100
AcDbEntity
  8
Tadpole
  6
$INVISIBLE
100
AcDbTrace
 10
1299.705683
 20
2423.743821
 30
0.0
 11
1327.921091
 21
2310.732681
 31
0.0
 12
1296.535088
 22
2423.576623
 32
0.0
 13
1280.362173
 23
2308.22471
 33
0.0
  0
POLYLINE
  5
4D1
100
AcDbEntity
  8
Tadpole
100
AcDb2dPolyline
 66
     1
 10
0.0
 20
0.0
 30
0.0
 70
     1
  0
VERTEX
  5
4D2
100
AcDbEntity
  8
Tadpole
100
AcDbVertex
100
AcDb2dVertex
 10
1247.957738
 20
2299.020444
 30
0.0
  0
VERTEX
  5
4D3
100
AcDbEntity
  8
Tadpole
100
AcDbVertex
100
AcDb2dVertex
 10
1201.624568
 20
2288.003276
 30
0.0
  0
VERTEX
  5
4D4
100
AcDbEntity
  8
Tadpole
100
AcDbVertex
100
AcDb2dVertex
 10
1196.796217
 20
2404.383317
 30
0.0
  0
VERTEX
  5
4D5
100
AcDbEntity
  8
Tadpole
100
AcDbVertex
100
AcDb2dVertex
 10
1199.885095
 20
2405.117795
 30
0.0
  0
SEQEND
  5
4D6
100
AcDbEntity
  8
Tadpole
  0
SOLID
  5
4D7
100
AcDbEntity
  8
Tadpole
  6
$INVISIBLE
100
AcDbTrace
 10
1199.885095
 20
2405.117795
 30
0.0
 11
1247.957738
 21
2299.020444
 31
0.0
 12
1196.796217
 22
2404.383317
 32
0.0
 13
1201.624568
 23
2288.003276
 33
0.0
  0
POLYLINE
  5
4D8
100
AcDbEntity
  8
Tadpole
100
AcDb2dPolyline
 66
     1
 10
0.0
 20
0.0
 30
0.0
 70
     1
  0
VERTEX
  5
4D9
100
AcDbEntity
  8
Tadpole
100
AcDbVertex
100
AcDb2dVertex
 10
1061.879119
 20
2228.844459
 30
0.0
  0
VERTEX
  5
4DA
100
AcDbEntity
  8
Tadpole
100
AcDbVertex
100
AcDb2dVertex
 10
1015.957736
 20
2216.220385
 30
0.0
  0
VERTEX
  5
4DB
100
AcDbEntity
  8
Tadpole
100
AcDbVertex
100
AcDb2dVertex
 10
1007.079288
 20
2332.361678
 30
0.0
  0
VERTEX
  5
4DC
100
AcDbEntity
  8
Tadpole
100
AcDbVertex
100
AcDb2dVertex
 10
1010.140713
 20
2333.203283
 30
0.0
  0
SEQEND
  5
4DD
100
AcDbEntity
  8
Tadpole
  0
SOLID
  5
4DE
100
AcDbEntity
  8
Tadpole
  6
$INVISIBLE
100
AcDbTrace
 10
1010.140713
 20
2333.203283
 30
0.0
 11
1061.879119
 21
2228.844459
 31
0.0
 12
1007.079288
 22
2332.361678
 32
0.0
 13
1015.957736
 23
2216.220385
 33
0.0
  0
POLYLINE
  5
4DF
100
AcDbEntity
  8
Tadpole
100
AcDb2dPolyline
 66
     1
 10
0.0
 20
0.0
 30
0.0
 70
     1
  0
VERTEX
  5
4E0
100
AcDbEntity
  8
Tadpole
100
AcDbVertex
100
AcDb2dVertex
 10
1159.076244
 20
2271.643237
 30
0.0
  0
VERTEX
  5
4E1
100
AcDbEntity
  8
Tadpole
100
AcDbVertex
100
AcDb2dVertex
 10
1113.692839
 20
2257.204151
 30
0.0
  0
VERTEX
  5
4E2
100
AcDbEntity
  8
Tadpole
100
AcDbVertex
100
AcDb2dVertex
 10
1100.205773
 20
2372.900849
 30
0.0
  0
VERTEX
  5
4E3
100
AcDbEntity
  8
Tadpole
100
AcDbVertex
100
AcDb2dVertex
 10
1103.231333
 20
2373.863455
 30
0.0
  0
SEQEND
  5
4E4
100
AcDbEntity
  8
Tadpole
  0
SOLID
  5
4E5
100
AcDbEntity
  8
Tadpole
  6
$INVISIBLE
100
AcDbTrace
 10
1103.231333
 20
2373.863455
 30
0.0
 11
1159.076244
 21
2271.643237
 31
0.0
 12
1100.205773
 22
2372.900849
 32
0.0
 13
1113.692839
 23
2257.204151
 33
0.0
  0
POLYLINE
  5
4E6
100
AcDbEntity
  8
Tadpole
100
AcDb2dPolyline
 66
     1
 10
0.0
 20
0.0
 30
0.0
 70
     1
  0
VERTEX
  5
4E7
100
AcDbEntity
  8
Tadpole
100
AcDbVertex
100
AcDb2dVertex
 10
976.744054
 20
2209.670082
 30
0.0
  0
VERTEX
  5
4E8
100
AcDbEntity
  8
Tadpole
100
AcDbVertex
100
AcDb2dVertex
 10
937.363459
 20
2203.712726
 30
0.0
  0
VERTEX
  5
4E9
100
AcDbEntity
  8
Tadpole
100
AcDbVertex
100
AcDb2dVertex
 10
916.206584
 20
2286.913617
 30
0.0
  0
VERTEX
  5
4EA
100
AcDbEntity
  8
Tadpole
100
AcDbVertex
100
AcDb2dVertex
 10
919.077828
 20
2288.268821
 30
0.0
  0
SEQEND
  5
4EB
100
AcDbEntity
  8
Tadpole
  0
SOLID
  5
4EC
100
AcDbEntity
  8
Tadpole
  6
$INVISIBLE
100
AcDbTrace
 10
919.077828
 20
2288.268821
 30
0.0
 11
976.744054
 21
2209.670082
 31
0.0
 12
916.206584
 22
2286.913617
 32
0.0
 13
937.363459
 23
2203.712726
 33
0.0
  0
POLYLINE
  5
4ED
100
AcDbEntity
  8
Tadpole
100
AcDb2dPolyline
 66
     1
 10
0.0
 20
0.0
 30
0.0
 70
     1
  0
VERTEX
  5
4EE
100
AcDbEntity
  8
Tadpole
100
AcDbVertex
100
AcDb2dVertex
 10
857.063815
 20
2190.212829
 30
0.0
  0
VERTEX
  5
4EF
100
AcDbEntity
  8
Tadpole
100
AcDbVertex
100
AcDb2dVertex
 10
835.712356
 20
2195.072668
 30
0.0
  0
VERTEX
  5
4F0
100
AcDbEntity
  8
Tadpole
100
AcDbVertex
100
AcDb2dVertex
 10
845.157474
 20
2247.386779
 30
0.0
  0
VERTEX
  5
4F1
100
AcDbEntity
  8
Tadpole
100
AcDbVertex
100
AcDb2dVertex
 10
848.329927
 20
2247.259618
 30
0.0
  0
SEQEND
  5
4F2
100
AcDbEntity
  8
Tadpole
  0
SOLID
  5
4F3
100
AcDbEntity
  8
Tadpole
  6
$INVISIBLE
100
AcDbTrace
 10
848.329927
 20
2247.259618
 30
0.0
 11
857.063815
 21
2190.212829
 31
0.0
 12
845.157474
 22
2247.386779
 32
0.0
 13
835.712356
 23
2195.072668
 33
0.0
  0
POLYLINE
  5
4F4
100
AcDbEntity
  8
Tadpole
100
AcDb2dPolyline
 66
     1
 10
0.0
 20
0.0
 30
0.0
 70
     1
  0
VERTEX
  5
4F5
100
AcDbEntity
  8
Tadpole
100
AcDbVertex
100
AcDb2dVertex
 10
805.979705
 20
2202.187741
 30
0.0
  0
VERTEX
  5
4F6
100
AcDbEntity
  8
Tadpole
100
AcDbVertex
100
AcDb2dVertex
 10
768.728317
 20
2211.678389
 30
0.0
  0
VERTEX
  5
4F7
100
AcDbEntity
  8
Tadpole
100
AcDbVertex
100
AcDb2dVertex
 10
751.450644
 20
2247.290521
 30
0.0
  0
VERTEX
  5
4F8
100
AcDbEntity
  8
Tadpole
100
AcDbVertex
100
AcDb2dVertex
 10
753.990285
 20
2249.196
 30
0.0
  0
SEQEND
  5
4F9
100
AcDbEntity
  8
Tadpole
  0
SOLID
  5
4FA
100
AcDbEntity
  8
Tadpole
  6
$INVISIBLE
100
AcDbTrace
 10
753.990285
 20
2249.196
 30
0.0
 11
805.979705
 21
2202.187741
 31
0.0
 12
751.450644
 22
2247.290521
 32
0.0
 13
768.728317
 23
2211.678389
 33
0.0
  0
POLYLINE
  5
4FB
100
AcDbEntity
  8
Tadpole
100
AcDb2dPolyline
 66
     1
 10
0.0
 20
0.0
 30
0.0
 70
     1
  0
VERTEX
  5
4FC
100
AcDbEntity
  8
Tadpole
100
AcDbVertex
100
AcDb2dVertex
 10
4052.696841
 20
2185.564111
 30
0.0
  0
VERTEX
  5
4FD
100
AcDbEntity
  8
Tadpole
100
AcDbVertex
100
AcDb2dVertex
 10
4080.413313
 20
2215.068835
 30
0.0
  0
VERTEX
  5
4FE
100
AcDbEntity
  8
Tadpole
100
AcDbVertex
100
AcDb2dVertex
 10
4138.31519
 20
2134.757048
 30
0.0
  0
VERTEX
  5
4FF
100
AcDbEntity
  8
Tadpole
100
AcDbVertex
100
AcDb2dVertex
 10
4136.467425
 20
2132.790066
 30
0.0
  0
SEQEND
  5
500
100
AcDbEntity
  8
Tadpole
  0
SOLID
  5
501
100
AcDbEntity
  8
Tadpole
  6
$INVISIBLE
100
AcDbTrace
 10
4136.467425
 20
2132.790066
 30
0.0
 11
4052.696841
 21
2185.564111
 31
0.0
 12
4138.31519
 22
2134.757048
 32
0.0
 13
4080.413313
 23
2215.068835
 33
0.0
  0
ENDSEC
  0
SECTION
  2
OBJECTS
  0
DICTIONARY
  5
19
100
AcDbDictionary
280
     0
281
     1
  3
ACAD_GROUP
350
1A
  3
ACAD_MLINESTYLE
350
1B
  3
ACAD_LAYOUT
350
1E
  3
ACAD_PLOTSETTINGS
350
22
  3
ACAD_PLOTSTYLENAME
350
1F
  0
DICTIONARY
  5
1A
102
{ACAD_REACTORS
330
19
102
}
100
AcDbDictionary
280
     0
281
     1
  0
DICTIONARY
  5
1B
102
{ACAD_REACTORS
330
19
102
}
100
AcDbDictionary
280
     0
281
     1
  3
Standard
350
1C
  0
MLINESTYLE
  5
1C
100
AcDbMlineStyle
  2
STANDARD
 70
     0
  3

 62
   256
 51
90.0
 52
90.0
 71
     2
 49
0.5
 62
   256
  6
BYLAYER
 49
-0.5
 62
   256
  6
BYLAYER
  0
ACDBDICTIONARYWDFLT
  5
1F
102
{ACAD_REACTORS
330
19
102
}
100
AcDbDictionary
281
     1
  3
Normal
350
1D
100
AcDbDictionaryWithDefault
340
1D
  0
ACDBPLACEHOLDER
  5
1D
102
{ACAD_REACTORS
330
1F
102
}
  0
LAYOUT
  5
21
102
{ACAD_REACTORS
330
1E
102
}
100
AcDbPlotSettings
  1

  2

  4

  6

 40
0.0
 41
0.0
 42
0.0
 43
0.0
 44
0.0
 45
0.0
 46
0.0
 47
0.0
 48
0.0
 49
0.0
140
0.0
141
0.0
142
1.0
143
1.0
 70
     0
 72
     0
 73
     0
 74
     0
  7

 75
     0
147
1.0
148
0.0
149
0.0
100
AcDbLayout
  1
Layout1
 70
     0
 71
     0
 10
0.0
 20
0.0
 11
0.0
 21
0.0
 12
0.0
 22
0.0
 32
0.0
 14
0.0
 24
0.0
 34
0.0
 15
0.0
 25
0.0
 35
0.0
146
0.0
 13
0.0
 23
0.0
 33
0.0
 16
0.0
 26
0.0
 36
0.0
 17
0.0
 27
0.0
 37
0.0
 76
     0
330
B
331
0
345
0
346
0
  0
DICTIONARY
  5
1E
102
{ACAD_REACTORS
330
19
102
}
100
AcDbDictionary
280
     0
281
     1
  3
Model
350
502
  3
Final
350
505
  0
DICTIONARY
  5
22
102
{ACAD_REACTORS
330
19
102
}
100
AcDbDictionary
280
     0
281
     1
  0
LAYOUT
  5
502
100
AcDbPlotSettings
  1

  2

  4

  6

 40
0.0
 41
0.0
 42
0.0
 43
0.0
 44
0.0
 45
0.0
 46
0.0
 47
0.0
 48
0.0
 49
0.0
140
0.0
141
0.0
142
1.0
143
1.0
 70
     0
 72
     0
 73
     0
 74
     0
  7

 75
     0
147
1.0
148
0.0
149
0.0
100
AcDbLayout
  1
Model
 70
     0
 71
     0
 10
0.0
 20
0.0
 11
0.0
 21
0.0
 12
0.0
 22
0.0
 32
0.0
 14
0.0
 24
0.0
 34
0.0
 15
0.0
 25
0.0
 35
0.0
146
0.0
 13
0.0
 23
0.0
 33
0.0
 16
0.0
 26
0.0
 36
0.0
 17
0.0
 27
0.0
 37
0.0
 76
     0
330
A
331
0
345
0
346
0
  0
LAYOUT
  5
505
100
AcDbPlotSettings
  1

  2

  4

  6

 40
4.995333
 41
13.292661
 42
4.9953
 43
13.292664
 44
589906.991786
 45
393262.231533
 46
-3135.077465
 47
47710.9093
 48
0.0
 49
0.0
140
0.0
141
0.0
142
1.0
143
0.03937
 70
     0
 72
     0
 73
     0
 74
     0
  7

 75
     0
147
1.0
148
0.0
149
0.0
100
AcDbLayout
  1
Final
 70
     1
 71
     1
 10
3130.082132
 20
-47724.201961
 11
593037.073918
 21
345538.029572
 12
0.0
 22
0.0
 32
0.0
 14
0.0
 24
0.0
 34
0.0
 15
0.0
 25
0.0
 35
0.0
146
0.0
 13
0.0
 23
0.0
 33
0.0
 16
0.0
 26
0.0
 36
0.0
 17
0.0
 27
0.0
 37
0.0
 76
     0
330
B
331
503
345
0
346
0
  0
ENDSEC
  0
EOF
