  0
SECTION
  2
HEADER
  0
ENDSEC
  0
SECTION
  2
TABLES
  0
TABLE
  2
LTYPE
 70
10
  0
LTYPE
  2
CONTINUOUS
 70
64
  3
solid line
 72
65
 73
0
 40
0.0
  0
LTYPE
  2
DASHED
 70
0
  3
__ __ __ __ __ __ __ __ __ __ __ __ __ __ __
 72
65
 73
2
 40
0.75
 49
0.5
 49
-0.25
  0
LTYPE
  2
HIDDEN
 70
0
  3
_ _ _ _ _ _ _ _ _ _ _ _ _ _ _ _ _ _ _ _ _ _
 72
65
 73
2
 40
0.375
 49
0.25
 49
-0.125
  0
LTYPE
  2
CENTER
 70
0
  3
____ _ ____ _ ____ _ ____ _ ____ _ ____ _ __
 72
65
 73
4
 40
2.0
 49
1.25
 49
-0.25
 49
0.25
 49
-0.25
  0
LTYPE
  2
PHANTOM
 70
0
  3
_____ _ _ _____ _ _ _____ _ _ _____ _ _ ____
 72
65
 73
6
 40
2.5
 49
1.25
 49
-0.25
 49
0.25
 49
-0.25
 49
0.25
 49
-0.25
  0
LTYPE
  2
DOT
 70
0
  3
............................................
 72
65
 73
2
 40
0.25
 49
0.0
 49
-0.25
  0
LTYPE
  2
DASHDOT
 70
0
  3
__ . __ . __ . __ . __ . __ . __ . __ . __ .
 72
65
 73
4
 40
1.0
 49
0.5
 49
-0.25
 49
0.0
 49
-0.25
  0
LTYPE
  2
BORDER
 70
0
  3
__ __ . __ __ . __ __ . __ __ . __ __ . __ _
 72
65
 73
6
 40
1.75
 49
0.5
 49
-0.25
 49
0.5
 49
-0.25
 49
0.0
 49
-0.25
  0
LTYPE
  2
DIVIDE
 70
0
  3
__ . . __ . . __ . . __ . . __ . . __ . . __
 72
65
 73
6
 40
1.25
 49
0.5
 49
-0.25
 49
0.0
 49
-0.25
 49
0.0
 49
-0.25
  0
LTYPE
  2
DIVIDE2
 70
0
  3
__..__..__..__..__..__..__..__..__..__..__..__.
 72
65
 73
8
 40
0.9
 49
0.25
 49
-0.1
 49
0.25
 49
-0.1
 49
0.0
 49
-0.1
 49
0.0
 49
-0.1
  0
ENDTAB
  0
TABLE
  2
LAYER
 70
18
  0
LAYER
  2
RAILS
 70
0
  6
CONTINUOUS
 62
7
  0
LAYER
  2
TIMBOUTL
 70
0
  6
CONTINUOUS
 62
5
  0
LAYER
  2
RLSIDE3D
 70
0
  6
CONTINUOUS
 62
33
  0
LAYER
  2
RLTOP3D
 70
0
  6
CONTINUOUS
 62
252
  0
LAYER
  2
CHAIR3D
 70
0
  6
CONTINUOUS
 62
54
  0
LAYER
  2
TIMBER3D
 70
0
  6
CONTINUOUS
 62
8
  0
ENDTAB
  0
ENDSEC
  0
SECTION
  2
ENTITIES
  0
LINE
  8
TIMBOUTL
 10
1503.59
 20
1253.28
 11
1510.59
 21
1253.32
  0
LINE
  8
TIMBOUTL
 10
1503.42
 20
1287.28
 11
1510.42
 21
1287.32
  0
LINE
  8
TIMBOUTL
 10
1505.10
 20
1251.79
 11
1504.91
 21
1288.79
  0
LINE
  8
TIMBOUTL
 10
1509.10
 20
1251.81
 11
1508.91
 21
1288.81
  0
LINE
  8
TIMBOUTL
 10
1494.20
 20
1253.26
 11
1501.20
 21
1253.28
  0
LINE
  8
TIMBOUTL
 10
1494.15
 20
1287.26
 11
1501.15
 21
1287.28
  0
LINE
  8
TIMBOUTL
 10
1495.70
 20
1251.77
 11
1495.65
 21
1288.77
  0
LINE
  8
TIMBOUTL
 10
1499.70
 20
1251.77
 11
1499.65
 21
1288.77
  0
LINE
  8
TIMBOUTL
 10
1512.99
 20
1253.36
 11
1519.99
 21
1253.42
  0
LINE
  8
TIMBOUTL
 10
1512.69
 20
1287.36
 11
1519.69
 21
1287.42
  0
LINE
  8
TIMBOUTL
 10
1514.50
 20
1251.87
 11
1514.18
 21
1288.87
  0
LINE
  8
TIMBOUTL
 10
1518.50
 20
1251.91
 11
1518.18
 21
1288.90
  0
LINE
  8
TIMBOUTL
 10
1522.38
 20
1253.59
 11
1529.38
 21
1253.67
  0
LINE
  8
TIMBOUTL
 10
1521.96
 20
1287.59
 11
1528.96
 21
1287.67
  0
LINE
  8
TIMBOUTL
 10
1523.90
 20
1252.11
 11
1523.45
 21
1289.11
  0
LINE
  8
TIMBOUTL
 10
1527.90
 20
1252.16
 11
1527.45
 21
1289.15
  0
LINE
  8
TIMBOUTL
 10
1531.77
 20
1253.85
 11
1538.77
 21
1253.96
  0
LINE
  8
TIMBOUTL
 10
1531.23
 20
1287.85
 11
1538.23
 21
1287.96
  0
LINE
  8
TIMBOUTL
 10
1533.29
 20
1252.38
 11
1532.71
 21
1289.37
  0
LINE
  8
TIMBOUTL
 10
1537.29
 20
1252.44
 11
1536.71
 21
1289.44
  0
LINE
  8
TIMBOUTL
 10
1541.18
 20
1253.15
 11
1548.18
 21
1253.29
  0
LINE
  8
TIMBOUTL
 10
1540.48
 20
1289.15
 11
1547.48
 21
1289.28
  0
LINE
  8
TIMBOUTL
 10
1542.71
 20
1251.68
 11
1541.95
 21
1290.67
  0
LINE
  8
TIMBOUTL
 10
1546.70
 20
1251.76
 11
1545.95
 21
1290.75
  0
LINE
  8
TIMBOUTL
 10
1550.57
 20
1253.49
 11
1557.56
 21
1253.65
  0
LINE
  8
TIMBOUTL
 10
1549.75
 20
1289.48
 11
1556.74
 21
1289.64
  0
LINE
  8
TIMBOUTL
 10
1552.10
 20
1252.03
 11
1551.21
 21
1291.02
  0
LINE
  8
TIMBOUTL
 10
1556.10
 20
1252.12
 11
1555.21
 21
1291.11
  0
LINE
  8
TIMBOUTL
 10
1559.95
 20
1253.88
 11
1566.95
 21
1254.07
  0
LINE
  8
TIMBOUTL
 10
1559.01
 20
1289.87
 11
1566.00
 21
1290.06
  0
LINE
  8
TIMBOUTL
 10
1561.49
 20
1252.42
 11
1560.47
 21
1291.41
  0
LINE
  8
TIMBOUTL
 10
1565.49
 20
1252.53
 11
1564.47
 21
1291.52
  0
LINE
  8
TIMBOUTL
 10
1569.34
 20
1254.33
 11
1576.34
 21
1254.54
  0
LINE
  8
TIMBOUTL
 10
1568.26
 20
1290.31
 11
1575.26
 21
1290.52
  0
LINE
  8
TIMBOUTL
 10
1570.88
 20
1252.87
 11
1569.72
 21
1291.86
  0
LINE
  8
TIMBOUTL
 10
1574.88
 20
1252.99
 11
1573.72
 21
1291.97
  0
LINE
  8
TIMBOUTL
 10
1578.89
 20
1254.83
 11
1585.89
 21
1255.06
  0
LINE
  8
TIMBOUTL
 10
1577.68
 20
1290.81
 11
1584.68
 21
1291.04
  0
LINE
  8
TIMBOUTL
 10
1580.44
 20
1253.38
 11
1579.13
 21
1292.36
  0
LINE
  8
TIMBOUTL
 10
1584.44
 20
1253.52
 11
1583.13
 21
1292.49
  0
LINE
  8
TIMBOUTL
 10
1588.47
 20
1254.39
 11
1595.47
 21
1254.65
  0
LINE
  8
TIMBOUTL
 10
1587.06
 20
1292.36
 11
1594.06
 21
1292.62
  0
LINE
  8
TIMBOUTL
 10
1590.03
 20
1252.94
 11
1588.51
 21
1293.92
  0
LINE
  8
TIMBOUTL
 10
1594.02
 20
1253.09
 11
1592.51
 21
1294.06
  0
LINE
  8
TIMBOUTL
 10
1598.02
 20
1255.00
 11
1605.01
 21
1255.28
  0
LINE
  8
TIMBOUTL
 10
1596.47
 20
1292.97
 11
1603.47
 21
1293.25
  0
LINE
  8
TIMBOUTL
 10
1599.58
 20
1253.56
 11
1597.91
 21
1294.53
  0
LINE
  8
TIMBOUTL
 10
1603.58
 20
1253.72
 11
1601.91
 21
1294.69
  0
LINE
  8
TIMBOUTL
 10
1606.72
 20
1255.61
 11
1613.72
 21
1255.92
  0
LINE
  8
TIMBOUTL
 10
1605.05
 20
1293.57
 11
1612.05
 21
1293.88
  0
LINE
  8
TIMBOUTL
 10
1608.29
 20
1254.18
 11
1606.49
 21
1295.14
  0
LINE
  8
TIMBOUTL
 10
1612.28
 20
1254.35
 11
1610.48
 21
1295.31
  0
LINE
  8
TIMBOUTL
 10
1614.76
 20
1256.23
 11
1621.75
 21
1256.56
  0
LINE
  8
TIMBOUTL
 10
1612.97
 20
1294.19
 11
1619.96
 21
1294.52
  0
LINE
  8
TIMBOUTL
 10
1616.32
 20
1254.80
 11
1614.40
 21
1295.76
  0
LINE
  8
TIMBOUTL
 10
1620.32
 20
1254.99
 11
1618.39
 21
1295.94
  0
LINE
  8
TIMBOUTL
 10
1709.96
 20
1261.24
 11
1716.87
 21
1262.34
  0
LINE
  8
TIMBOUTL
 10
1702.11
 20
1310.62
 11
1709.02
 21
1311.72
  0
LINE
  8
TIMBOUTL
 10
1711.67
 20
1260.00
 11
1703.35
 21
1312.34
  0
LINE
  8
TIMBOUTL
 10
1715.62
 20
1260.62
 11
1707.30
 21
1312.97
  0
LINE
  8
TIMBOUTL
 10
1720.03
 20
1262.86
 11
1726.94
 21
1264.02
  0
LINE
  8
TIMBOUTL
 10
1711.78
 20
1312.18
 11
1718.68
 21
1313.33
  0
LINE
  8
TIMBOUTL
 10
1721.76
 20
1261.63
 11
1713.01
 21
1313.90
  0
LINE
  8
TIMBOUTL
 10
1725.70
 20
1262.29
 11
1716.95
 21
1314.57
  0
LINE
  8
TIMBOUTL
 10
1730.22
 20
1263.58
 11
1737.12
 21
1264.78
  0
LINE
  8
TIMBOUTL
 10
1721.31
 20
1314.81
 11
1728.20
 21
1316.01
  0
LINE
  8
TIMBOUTL
 10
1731.96
 20
1262.36
 11
1722.53
 21
1316.54
  0
LINE
  8
TIMBOUTL
 10
1735.90
 20
1263.04
 11
1726.47
 21
1317.23
  0
LINE
  8
TIMBOUTL
 10
1740.34
 20
1264.34
 11
1747.24
 21
1265.57
  0
LINE
  8
TIMBOUTL
 10
1730.89
 20
1317.51
 11
1737.78
 21
1318.73
  0
LINE
  8
TIMBOUTL
 10
1742.08
 20
1263.13
 11
1732.10
 21
1319.24
  0
LINE
  8
TIMBOUTL
 10
1746.02
 20
1263.83
 11
1736.04
 21
1319.95
  0
LINE
  8
TIMBOUTL
 10
1750.46
 20
1265.14
 11
1757.35
 21
1266.39
  0
LINE
  8
TIMBOUTL
 10
1740.44
 20
1320.24
 11
1747.33
 21
1321.49
  0
LINE
  8
TIMBOUTL
 10
1752.21
 20
1263.93
 11
1741.65
 21
1321.98
  0
LINE
  8
TIMBOUTL
 10
1756.14
 20
1264.65
 11
1745.59
 21
1322.70
  0
LINE
  8
TIMBOUTL
 10
1760.58
 20
1265.98
 11
1767.46
 21
1267.26
  0
LINE
  8
TIMBOUTL
 10
1749.99
 20
1323.00
 11
1756.87
 21
1324.28
  0
LINE
  8
TIMBOUTL
 10
1762.33
 20
1264.78
 11
1751.19
 21
1324.75
  0
LINE
  8
TIMBOUTL
 10
1766.26
 20
1265.51
 11
1755.12
 21
1325.48
  0
LINE
  8
TIMBOUTL
 10
1770.51
 20
1267.84
 11
1777.38
 21
1269.14
  0
LINE
  8
TIMBOUTL
 10
1759.70
 20
1324.82
 11
1766.58
 21
1326.13
  0
LINE
  8
TIMBOUTL
 10
1772.26
 20
1266.64
 11
1760.89
 21
1326.57
  0
LINE
  8
TIMBOUTL
 10
1776.19
 20
1267.39
 11
1764.82
 21
1327.32
  0
LINE
  8
TIMBOUTL
 10
1780.61
 20
1268.75
 11
1787.48
 21
1270.08
  0
LINE
  8
TIMBOUTL
 10
1769.21
 20
1327.66
 11
1776.08
 21
1328.99
  0
LINE
  8
TIMBOUTL
 10
1782.37
 20
1267.56
 11
1770.40
 21
1329.42
  0
LINE
  8
TIMBOUTL
 10
1786.30
 20
1268.32
 11
1774.32
 21
1330.18
  0
LINE
  8
TIMBOUTL
 10
1627.03
 20
1256.25
 11
1634.02
 21
1256.65
  0
LINE
  8
TIMBOUTL
 10
1624.74
 20
1296.19
 11
1631.73
 21
1296.59
  0
LINE
  8
TIMBOUTL
 10
1628.62
 20
1254.84
 11
1626.15
 21
1297.77
  0
LINE
  8
TIMBOUTL
 10
1632.61
 20
1255.07
 11
1630.15
 21
1298.00
  0
LINE
  8
TIMBOUTL
 10
1639.28
 20
1257.39
 11
1646.27
 21
1257.87
  0
LINE
  8
TIMBOUTL
 10
1636.52
 20
1297.30
 11
1643.50
 21
1297.78
  0
LINE
  8
TIMBOUTL
 10
1640.88
 20
1256.00
 11
1637.91
 21
1298.90
  0
LINE
  8
TIMBOUTL
 10
1644.87
 20
1256.27
 11
1641.90
 21
1299.17
  0
LINE
  8
TIMBOUTL
 10
1651.63
 20
1257.65
 11
1658.61
 21
1258.23
  0
LINE
  8
TIMBOUTL
 10
1648.18
 20
1299.51
 11
1655.15
 21
1300.09
  0
LINE
  8
TIMBOUTL
 10
1653.25
 20
1256.28
 11
1649.55
 21
1301.13
  0
LINE
  8
TIMBOUTL
 10
1657.24
 20
1256.61
 11
1653.53
 21
1301.46
  0
LINE
  8
TIMBOUTL
 10
1664.03
 20
1258.04
 11
1671.00
 21
1258.72
  0
LINE
  8
TIMBOUTL
 10
1659.76
 20
1301.83
 11
1666.73
 21
1302.51
  0
LINE
  8
TIMBOUTL
 10
1665.67
 20
1256.69
 11
1661.11
 21
1303.47
  0
LINE
  8
TIMBOUTL
 10
1669.65
 20
1257.08
 11
1665.09
 21
1303.85
  0
LINE
  8
TIMBOUTL
 10
1676.37
 20
1259.54
 11
1683.32
 21
1260.33
  0
LINE
  8
TIMBOUTL
 10
1671.38
 20
1303.26
 11
1678.34
 21
1304.05
  0
LINE
  8
TIMBOUTL
 10
1678.03
 20
1258.22
 11
1672.70
 21
1304.92
  0
LINE
  8
TIMBOUTL
 10
1682.00
 20
1258.67
 11
1676.68
 21
1305.37
  0
LINE
  8
TIMBOUTL
 10
1688.86
 20
1260.17
 11
1695.80
 21
1261.09
  0
LINE
  8
TIMBOUTL
 10
1682.83
 20
1305.78
 11
1689.77
 21
1306.70
  0
LINE
  8
TIMBOUTL
 10
1690.54
 20
1258.88
 11
1684.12
 21
1307.46
  0
LINE
  8
TIMBOUTL
 10
1694.50
 20
1259.41
 11
1688.08
 21
1307.99
  0
LINE
  8
TIMBOUTL
 10
1701.40
 20
1260.94
 11
1708.32
 21
1261.99
  0
LINE
  8
TIMBOUTL
 10
1694.19
 20
1308.40
 11
1701.11
 21
1309.45
  0
LINE
  8
TIMBOUTL
 10
1703.11
 20
1259.68
 11
1695.44
 21
1310.11
  0
LINE
  8
TIMBOUTL
 10
1707.06
 20
1260.29
 11
1699.40
 21
1310.71
  0
LINE
  8
TIMBOUTL
 10
1787.30
 20
1269.56
 11
1793.60
 21
1270.27
  0
LINE
  8
TIMBOUTL
 10
1783.50
 20
1303.34
 11
1789.80
 21
1304.05
  0
LINE
  8
TIMBOUTL
 10
1788.96
 20
1268.23
 11
1784.82
 21
1305.00
  0
LINE
  8
TIMBOUTL
 10
1792.27
 20
1268.61
 11
1788.14
 21
1305.38
  0
LINE
  8
TIMBOUTL
 10
1799.64
 20
1270.96
 11
1805.93
 21
1271.70
  0
LINE
  8
TIMBOUTL
 10
1795.68
 20
1304.73
 11
1801.97
 21
1305.46
  0
LINE
  8
TIMBOUTL
 10
1801.30
 20
1269.64
 11
1796.99
 21
1306.39
  0
LINE
  8
TIMBOUTL
 10
1804.61
 20
1270.03
 11
1800.30
 21
1306.78
  0
LINE
  8
RAILS
 10
1493.51
 20
1260.85
 11
1499.53
 21
1260.86
  0
LINE
  8
RAILS
 10
1499.53
 20
1260.86
 11
1505.55
 21
1260.88
  0
LINE
  8
RAILS
 10
1505.55
 20
1260.88
 11
1511.57
 21
1260.91
  0
LINE
  8
RAILS
 10
1511.57
 20
1260.91
 11
1517.59
 21
1260.96
  0
LINE
  8
RAILS
 10
1517.59
 20
1260.96
 11
1523.61
 21
1261.02
  0
LINE
  8
RAILS
 10
1523.61
 20
1261.02
 11
1529.64
 21
1261.10
  0
LINE
  8
RAILS
 10
1529.64
 20
1261.10
 11
1535.66
 21
1261.19
  0
LINE
  8
RAILS
 10
1535.66
 20
1261.19
 11
1541.68
 21
1261.29
  0
LINE
  8
RAILS
 10
1541.68
 20
1261.29
 11
1547.70
 21
1261.41
  0
LINE
  8
RAILS
 10
1547.70
 20
1261.41
 11
1553.72
 21
1261.54
  0
LINE
  8
RAILS
 10
1553.72
 20
1261.54
 11
1559.74
 21
1261.68
  0
LINE
  8
RAILS
 10
1559.74
 20
1261.68
 11
1565.76
 21
1261.84
  0
LINE
  8
RAILS
 10
1565.76
 20
1261.84
 11
1571.77
 21
1262.01
  0
LINE
  8
RAILS
 10
1571.77
 20
1262.01
 11
1577.79
 21
1262.19
  0
LINE
  8
RAILS
 10
1577.79
 20
1262.19
 11
1583.81
 21
1262.39
  0
LINE
  8
RAILS
 10
1583.81
 20
1262.39
 11
1589.83
 21
1262.60
  0
LINE
  8
RAILS
 10
1589.83
 20
1262.60
 11
1595.85
 21
1262.83
  0
LINE
  8
RAILS
 10
1595.85
 20
1262.83
 11
1601.86
 21
1263.07
  0
LINE
  8
RAILS
 10
1601.86
 20
1263.07
 11
1607.88
 21
1263.32
  0
LINE
  8
RAILS
 10
1607.88
 20
1263.32
 11
1613.89
 21
1263.59
  0
LINE
  8
RAILS
 10
1613.89
 20
1263.59
 11
1619.91
 21
1263.87
  0
LINE
  8
RAILS
 10
1619.91
 20
1263.87
 11
1625.92
 21
1264.16
  0
LINE
  8
RAILS
 10
1625.92
 20
1264.16
 11
1631.94
 21
1264.47
  0
LINE
  8
RAILS
 10
1631.94
 20
1264.47
 11
1637.95
 21
1264.79
  0
LINE
  8
RAILS
 10
1637.95
 20
1264.79
 11
1643.96
 21
1265.13
  0
LINE
  8
RAILS
 10
1643.96
 20
1265.13
 11
1649.97
 21
1265.48
  0
LINE
  8
RAILS
 10
1649.97
 20
1265.48
 11
1655.98
 21
1265.84
  0
LINE
  8
RAILS
 10
1655.98
 20
1265.84
 11
1661.99
 21
1266.21
  0
LINE
  8
RAILS
 10
1661.99
 20
1266.21
 11
1668.00
 21
1266.60
  0
LINE
  8
RAILS
 10
1668.00
 20
1266.60
 11
1674.01
 21
1267.01
  0
LINE
  8
RAILS
 10
1674.01
 20
1267.01
 11
1680.02
 21
1267.42
  0
LINE
  8
RAILS
 10
1680.02
 20
1267.42
 11
1686.02
 21
1267.86
  0
LINE
  8
RAILS
 10
1686.02
 20
1267.86
 11
1692.03
 21
1268.30
  0
LINE
  8
RAILS
 10
1692.03
 20
1268.30
 11
1698.03
 21
1268.76
  0
LINE
  8
RAILS
 10
1698.03
 20
1268.76
 11
1704.03
 21
1269.23
  0
LINE
  8
RAILS
 10
1704.03
 20
1269.23
 11
1710.04
 21
1269.71
  0
LINE
  8
RAILS
 10
1710.04
 20
1269.71
 11
1716.04
 21
1270.21
  0
LINE
  8
RAILS
 10
1716.04
 20
1270.21
 11
1722.04
 21
1270.73
  0
LINE
  8
RAILS
 10
1722.04
 20
1270.73
 11
1728.04
 21
1271.25
  0
LINE
  8
RAILS
 10
1728.04
 20
1271.25
 11
1734.03
 21
1271.79
  0
LINE
  8
RAILS
 10
1734.03
 20
1271.79
 11
1740.03
 21
1272.35
  0
LINE
  8
RAILS
 10
1740.03
 20
1272.35
 11
1746.02
 21
1272.91
  0
LINE
  8
RAILS
 10
1746.02
 20
1272.91
 11
1752.02
 21
1273.49
  0
LINE
  8
RAILS
 10
1752.02
 20
1273.49
 11
1758.01
 21
1274.09
  0
LINE
  8
RAILS
 10
1758.01
 20
1274.09
 11
1764.00
 21
1274.70
  0
LINE
  8
RAILS
 10
1764.00
 20
1274.70
 11
1769.99
 21
1275.32
  0
LINE
  8
RAILS
 10
1769.99
 20
1275.32
 11
1775.98
 21
1275.95
  0
LINE
  8
RAILS
 10
1775.98
 20
1275.95
 11
1781.96
 21
1276.60
  0
LINE
  8
RAILS
 10
1781.96
 20
1276.60
 11
1787.95
 21
1277.26
  0
LINE
  8
RAILS
 10
1787.95
 20
1277.26
 11
1793.93
 21
1277.94
  0
LINE
  8
RAILS
 10
1793.93
 20
1277.94
 11
1799.91
 21
1278.63
  0
LINE
  8
RAILS
 10
1799.91
 20
1278.63
 11
1801.90
 21
1278.86
  0
LINE
  8
RAILS
 10
1514.80
 20
1279.77
 11
1520.78
 21
1279.82
  0
LINE
  8
RAILS
 10
1520.78
 20
1279.82
 11
1526.76
 21
1279.89
  0
LINE
  8
RAILS
 10
1526.76
 20
1279.89
 11
1532.74
 21
1279.97
  0
LINE
  8
RAILS
 10
1532.74
 20
1279.97
 11
1538.72
 21
1280.07
  0
LINE
  8
RAILS
 10
1538.72
 20
1280.07
 11
1544.03
 21
1280.17
  0
LINE
  8
RAILS
 10
1544.03
 20
1280.17
 11
1544.03
 21
1280.17
  0
LINE
  8
RAILS
 10
1544.03
 20
1280.17
 11
1550.01
 21
1280.29
  0
LINE
  8
RAILS
 10
1550.01
 20
1280.29
 11
1555.98
 21
1280.42
  0
LINE
  8
RAILS
 10
1555.98
 20
1280.42
 11
1561.96
 21
1280.57
  0
LINE
  8
RAILS
 10
1561.96
 20
1280.57
 11
1567.94
 21
1280.73
  0
LINE
  8
RAILS
 10
1567.94
 20
1280.73
 11
1573.91
 21
1280.91
  0
LINE
  8
RAILS
 10
1573.91
 20
1280.91
 11
1579.89
 21
1281.10
  0
LINE
  8
RAILS
 10
1579.89
 20
1281.10
 11
1585.86
 21
1281.30
  0
LINE
  8
RAILS
 10
1585.86
 20
1281.30
 11
1591.84
 21
1281.52
  0
LINE
  8
RAILS
 10
1591.84
 20
1281.52
 11
1597.81
 21
1281.75
  0
LINE
  8
RAILS
 10
1597.81
 20
1281.75
 11
1603.79
 21
1281.99
  0
LINE
  8
RAILS
 10
1603.79
 20
1281.99
 11
1609.76
 21
1282.25
  0
LINE
  8
RAILS
 10
1609.76
 20
1282.25
 11
1615.73
 21
1282.52
  0
LINE
  8
RAILS
 10
1615.73
 20
1282.52
 11
1621.70
 21
1282.81
  0
LINE
  8
RAILS
 10
1621.70
 20
1282.81
 11
1627.67
 21
1283.11
  0
LINE
  8
RAILS
 10
1627.67
 20
1283.11
 11
1633.65
 21
1283.42
  0
LINE
  8
RAILS
 10
1633.65
 20
1283.42
 11
1639.61
 21
1283.74
  0
LINE
  8
RAILS
 10
1639.61
 20
1283.74
 11
1645.58
 21
1284.08
  0
LINE
  8
RAILS
 10
1645.58
 20
1284.08
 11
1651.55
 21
1284.43
  0
LINE
  8
RAILS
 10
1651.55
 20
1284.43
 11
1657.52
 21
1284.80
  0
LINE
  8
RAILS
 10
1657.52
 20
1284.80
 11
1663.49
 21
1285.18
  0
LINE
  8
RAILS
 10
1663.49
 20
1285.18
 11
1669.45
 21
1285.57
  0
LINE
  8
RAILS
 10
1669.45
 20
1285.57
 11
1675.42
 21
1285.98
  0
LINE
  8
RAILS
 10
1675.42
 20
1285.98
 11
1681.38
 21
1286.40
  0
LINE
  8
RAILS
 10
1681.38
 20
1286.40
 11
1687.34
 21
1286.83
  0
LINE
  8
RAILS
 10
1687.34
 20
1286.83
 11
1693.30
 21
1287.28
  0
LINE
  8
RAILS
 10
1693.30
 20
1287.28
 11
1699.27
 21
1287.74
  0
LINE
  8
RAILS
 10
1699.27
 20
1287.74
 11
1705.23
 21
1288.22
  0
LINE
  8
RAILS
 10
1705.23
 20
1288.22
 11
1711.18
 21
1288.70
  0
LINE
  8
RAILS
 10
1711.18
 20
1288.70
 11
1717.14
 21
1289.20
  0
LINE
  8
RAILS
 10
1717.14
 20
1289.20
 11
1723.10
 21
1289.72
  0
LINE
  8
RAILS
 10
1723.10
 20
1289.72
 11
1729.05
 21
1290.25
  0
LINE
  8
RAILS
 10
1729.05
 20
1290.25
 11
1732.22
 21
1290.54
  0
LINE
  8
RAILS
 10
1732.22
 20
1290.54
 11
1732.22
 21
1290.54
  0
LINE
  8
RAILS
 10
1732.22
 20
1290.54
 11
1738.08
 21
1292.08
  0
LINE
  8
RAILS
 10
1738.08
 20
1292.08
 11
1742.69
 21
1293.30
  0
LINE
  8
RAILS
 10
1742.69
 20
1293.30
 11
1742.69
 21
1293.30
  0
LINE
  8
RAILS
 10
1742.69
 20
1293.30
 11
1748.51
 21
1295.17
  0
LINE
  8
RAILS
 10
1748.51
 20
1295.17
 11
1754.07
 21
1296.97
  0
LINE
  8
RAILS
 10
1515.25
 20
1260.95
 11
1521.27
 21
1261.19
  0
LINE
  8
RAILS
 10
1521.27
 20
1261.19
 11
1527.29
 21
1261.45
  0
LINE
  8
RAILS
 10
1527.29
 20
1261.45
 11
1533.31
 21
1261.72
  0
LINE
  8
RAILS
 10
1533.31
 20
1261.72
 11
1539.32
 21
1262.01
  0
LINE
  8
RAILS
 10
1539.32
 20
1262.01
 11
1544.65
 21
1262.27
  0
LINE
  8
RAILS
 10
1544.65
 20
1262.27
 11
1544.65
 21
1262.26
  0
LINE
  8
RAILS
 10
1544.65
 20
1262.26
 11
1550.67
 21
1262.58
  0
LINE
  8
RAILS
 10
1550.67
 20
1262.58
 11
1556.68
 21
1262.93
  0
LINE
  8
RAILS
 10
1556.68
 20
1262.93
 11
1562.69
 21
1263.30
  0
LINE
  8
RAILS
 10
1562.69
 20
1263.30
 11
1568.70
 21
1263.70
  0
LINE
  8
RAILS
 10
1568.70
 20
1263.70
 11
1574.71
 21
1264.13
  0
LINE
  8
RAILS
 10
1574.71
 20
1264.13
 11
1580.71
 21
1264.59
  0
LINE
  8
RAILS
 10
1580.71
 20
1264.59
 11
1586.71
 21
1265.08
  0
LINE
  8
RAILS
 10
1586.71
 20
1265.08
 11
1592.72
 21
1265.60
  0
LINE
  8
RAILS
 10
1592.72
 20
1265.60
 11
1598.71
 21
1266.14
  0
LINE
  8
RAILS
 10
1598.71
 20
1266.14
 11
1601.06
 21
1266.36
  0
LINE
  8
RAILS
 10
1601.06
 20
1266.36
 11
1601.06
 21
1266.36
  0
LINE
  8
RAILS
 10
1601.06
 20
1266.36
 11
1607.05
 21
1266.96
  0
LINE
  8
RAILS
 10
1607.05
 20
1266.96
 11
1613.04
 21
1267.59
  0
LINE
  8
RAILS
 10
1613.04
 20
1267.59
 11
1619.03
 21
1268.27
  0
LINE
  8
RAILS
 10
1619.03
 20
1268.27
 11
1625.01
 21
1269.00
  0
LINE
  8
RAILS
 10
1625.01
 20
1269.00
 11
1630.99
 21
1269.77
  0
LINE
  8
RAILS
 10
1630.99
 20
1269.77
 11
1636.96
 21
1270.59
  0
LINE
  8
RAILS
 10
1636.96
 20
1270.59
 11
1642.93
 21
1271.45
  0
LINE
  8
RAILS
 10
1642.93
 20
1271.45
 11
1648.90
 21
1272.35
  0
LINE
  8
RAILS
 10
1648.90
 20
1272.35
 11
1654.86
 21
1273.30
  0
LINE
  8
RAILS
 10
1654.86
 20
1273.30
 11
1660.81
 21
1274.29
  0
LINE
  8
RAILS
 10
1660.81
 20
1274.29
 11
1666.76
 21
1275.33
  0
LINE
  8
RAILS
 10
1666.76
 20
1275.33
 11
1672.70
 21
1276.42
  0
LINE
  8
RAILS
 10
1672.70
 20
1276.42
 11
1678.63
 21
1277.54
  0
LINE
  8
RAILS
 10
1678.63
 20
1277.54
 11
1684.56
 21
1278.72
  0
LINE
  8
RAILS
 10
1684.56
 20
1278.72
 11
1690.49
 21
1279.93
  0
LINE
  8
RAILS
 10
1690.49
 20
1279.93
 11
1696.40
 21
1281.20
  0
LINE
  8
RAILS
 10
1696.40
 20
1281.20
 11
1702.31
 21
1282.50
  0
LINE
  8
RAILS
 10
1702.31
 20
1282.50
 11
1708.21
 21
1283.86
  0
LINE
  8
RAILS
 10
1708.21
 20
1283.86
 11
1714.10
 21
1285.26
  0
LINE
  8
RAILS
 10
1714.10
 20
1285.26
 11
1719.99
 21
1286.70
  0
LINE
  8
RAILS
 10
1719.99
 20
1286.70
 11
1725.86
 21
1288.19
  0
LINE
  8
RAILS
 10
1725.86
 20
1288.19
 11
1728.41
 21
1288.84
  0
LINE
  8
RAILS
 10
1728.41
 20
1288.84
 11
1728.41
 21
1288.84
  0
LINE
  8
RAILS
 10
1728.41
 20
1288.84
 11
1732.34
 21
1289.87
  0
LINE
  8
RAILS
 10
1732.34
 20
1289.87
 11
1732.34
 21
1289.87
  0
LINE
  8
RAILS
 10
1732.34
 20
1289.87
 11
1738.29
 21
1290.42
  0
LINE
  8
RAILS
 10
1738.29
 20
1290.42
 11
1743.13
 21
1290.88
  0
LINE
  8
RAILS
 10
1743.13
 20
1290.88
 11
1743.13
 21
1290.88
  0
LINE
  8
RAILS
 10
1743.13
 20
1290.88
 11
1749.11
 21
1291.16
  0
LINE
  8
RAILS
 10
1749.11
 20
1291.16
 11
1755.09
 21
1291.46
  0
LINE
  8
RAILS
 10
1493.51
 20
1279.68
 11
1499.49
 21
1279.69
  0
LINE
  8
RAILS
 10
1499.49
 20
1279.69
 11
1505.47
 21
1279.71
  0
LINE
  8
RAILS
 10
1505.47
 20
1279.71
 11
1511.44
 21
1279.74
  0
LINE
  8
RAILS
 10
1511.44
 20
1279.74
 11
1514.80
 21
1279.77
  0
LINE
  8
RAILS
 10
1514.80
 20
1279.77
 11
1514.80
 21
1279.77
  0
LINE
  8
RAILS
 10
1514.80
 20
1279.77
 11
1520.78
 21
1280.01
  0
LINE
  8
RAILS
 10
1520.78
 20
1280.01
 11
1526.76
 21
1280.27
  0
LINE
  8
RAILS
 10
1526.76
 20
1280.27
 11
1532.73
 21
1280.54
  0
LINE
  8
RAILS
 10
1532.73
 20
1280.54
 11
1538.70
 21
1280.82
  0
LINE
  8
RAILS
 10
1538.70
 20
1280.82
 11
1543.71
 21
1281.07
  0
LINE
  8
RAILS
 10
1543.71
 20
1281.07
 11
1543.71
 21
1281.07
  0
LINE
  8
RAILS
 10
1543.71
 20
1281.07
 11
1549.68
 21
1281.38
  0
LINE
  8
RAILS
 10
1549.68
 20
1281.38
 11
1555.65
 21
1281.73
  0
LINE
  8
RAILS
 10
1555.65
 20
1281.73
 11
1561.61
 21
1282.10
  0
LINE
  8
RAILS
 10
1561.61
 20
1282.10
 11
1567.58
 21
1282.50
  0
LINE
  8
RAILS
 10
1567.58
 20
1282.50
 11
1573.54
 21
1282.93
  0
LINE
  8
RAILS
 10
1573.54
 20
1282.93
 11
1579.51
 21
1283.39
  0
LINE
  8
RAILS
 10
1579.51
 20
1283.39
 11
1585.47
 21
1283.87
  0
LINE
  8
RAILS
 10
1585.47
 20
1283.87
 11
1591.42
 21
1284.39
  0
LINE
  8
RAILS
 10
1591.42
 20
1284.39
 11
1597.38
 21
1284.93
  0
LINE
  8
RAILS
 10
1597.38
 20
1284.93
 11
1599.28
 21
1285.11
  0
LINE
  8
RAILS
 10
1599.28
 20
1285.11
 11
1599.28
 21
1285.11
  0
LINE
  8
RAILS
 10
1599.28
 20
1285.11
 11
1605.23
 21
1285.70
  0
LINE
  8
RAILS
 10
1605.23
 20
1285.70
 11
1611.18
 21
1286.33
  0
LINE
  8
RAILS
 10
1611.18
 20
1286.33
 11
1617.12
 21
1287.01
  0
LINE
  8
RAILS
 10
1617.12
 20
1287.01
 11
1623.06
 21
1287.73
  0
LINE
  8
RAILS
 10
1623.06
 20
1287.73
 11
1629.00
 21
1288.50
  0
LINE
  8
RAILS
 10
1629.00
 20
1288.50
 11
1634.93
 21
1289.31
  0
LINE
  8
RAILS
 10
1634.93
 20
1289.31
 11
1640.86
 21
1290.17
  0
LINE
  8
RAILS
 10
1640.86
 20
1290.17
 11
1646.78
 21
1291.08
  0
LINE
  8
RAILS
 10
1646.78
 20
1291.08
 11
1652.69
 21
1292.03
  0
LINE
  8
RAILS
 10
1652.69
 20
1292.03
 11
1658.61
 21
1293.02
  0
LINE
  8
RAILS
 10
1658.61
 20
1293.02
 11
1664.51
 21
1294.06
  0
LINE
  8
RAILS
 10
1664.51
 20
1294.06
 11
1670.41
 21
1295.14
  0
LINE
  8
RAILS
 10
1670.41
 20
1295.14
 11
1676.30
 21
1296.27
  0
LINE
  8
RAILS
 10
1676.30
 20
1296.27
 11
1682.19
 21
1297.45
  0
LINE
  8
RAILS
 10
1682.19
 20
1297.45
 11
1688.07
 21
1298.67
  0
LINE
  8
RAILS
 10
1688.07
 20
1298.67
 11
1693.94
 21
1299.93
  0
LINE
  8
RAILS
 10
1693.94
 20
1299.93
 11
1699.80
 21
1301.24
  0
LINE
  8
RAILS
 10
1699.80
 20
1301.24
 11
1705.66
 21
1302.60
  0
LINE
  8
RAILS
 10
1705.66
 20
1302.60
 11
1711.51
 21
1304.00
  0
LINE
  8
RAILS
 10
1711.51
 20
1304.00
 11
1717.35
 21
1305.45
  0
LINE
  8
RAILS
 10
1717.35
 20
1305.45
 11
1723.19
 21
1306.94
  0
LINE
  8
RAILS
 10
1723.19
 20
1306.94
 11
1723.70
 21
1307.07
  0
LINE
  8
RAILS
 10
1723.70
 20
1307.07
 11
1723.70
 21
1307.07
  0
LINE
  8
RAILS
 10
1723.70
 20
1307.07
 11
1729.52
 21
1308.60
  0
LINE
  8
RAILS
 10
1729.52
 20
1308.60
 11
1735.34
 21
1310.14
  0
LINE
  8
RAILS
 10
1735.34
 20
1310.14
 11
1741.16
 21
1311.69
  0
LINE
  8
RAILS
 10
1741.16
 20
1311.69
 11
1746.97
 21
1313.25
  0
LINE
  8
RAILS
 10
1746.97
 20
1313.25
 11
1752.77
 21
1314.83
  0
LINE
  8
RAILS
 10
1752.77
 20
1314.83
 11
1758.57
 21
1316.42
  0
LINE
  8
RAILS
 10
1758.57
 20
1316.42
 11
1764.36
 21
1318.03
  0
LINE
  8
RAILS
 10
1764.36
 20
1318.03
 11
1770.14
 21
1319.64
  0
LINE
  8
RAILS
 10
1770.14
 20
1319.64
 11
1775.92
 21
1321.27
  0
LINE
  8
RAILS
 10
1775.92
 20
1321.27
 11
1778.26
 21
1321.94
  0
LINE
  8
RAILS
 10
1737.77
 20
1291.05
 11
1743.72
 21
1291.61
  0
LINE
  8
RAILS
 10
1743.72
 20
1291.61
 11
1749.67
 21
1292.18
  0
LINE
  8
RAILS
 10
1749.67
 20
1292.18
 11
1755.62
 21
1292.77
  0
LINE
  8
RAILS
 10
1755.62
 20
1292.77
 11
1761.57
 21
1293.38
  0
LINE
  8
RAILS
 10
1761.57
 20
1293.38
 11
1767.52
 21
1293.99
  0
LINE
  8
RAILS
 10
1767.52
 20
1293.99
 11
1773.46
 21
1294.62
  0
LINE
  8
RAILS
 10
1773.46
 20
1294.62
 11
1779.41
 21
1295.26
  0
LINE
  8
RAILS
 10
1779.41
 20
1295.26
 11
1785.35
 21
1295.92
  0
LINE
  8
RAILS
 10
1785.35
 20
1295.92
 11
1791.29
 21
1296.59
  0
LINE
  8
RAILS
 10
1791.29
 20
1296.59
 11
1797.23
 21
1297.27
  0
LINE
  8
RAILS
 10
1797.23
 20
1297.27
 11
1799.71
 21
1297.56
  0
LINE
  8
RAILS
 10
1737.73
 20
1291.30
 11
1743.58
 21
1292.85
  0
LINE
  8
RAILS
 10
1743.58
 20
1292.85
 11
1749.44
 21
1294.42
  0
LINE
  8
RAILS
 10
1749.44
 20
1294.42
 11
1755.28
 21
1296.01
  0
LINE
  8
RAILS
 10
1755.28
 20
1296.01
 11
1761.12
 21
1297.60
  0
LINE
  8
RAILS
 10
1761.12
 20
1297.60
 11
1766.95
 21
1299.21
  0
LINE
  8
RAILS
 10
1766.95
 20
1299.21
 11
1772.78
 21
1300.84
  0
LINE
  8
RAILS
 10
1772.78
 20
1300.84
 11
1778.60
 21
1302.47
  0
LINE
  8
RAILS
 10
1778.60
 20
1302.47
 11
1783.35
 21
1303.82
  0
LINE
  8
RAILS
 10
1706.28
 20
1270.67
 11
1712.31
 21
1270.87
  0
LINE
  8
RAILS
 10
1712.31
 20
1270.87
 11
1718.33
 21
1271.08
  0
LINE
  8
RAILS
 10
1718.33
 20
1271.08
 11
1718.33
 21
1271.08
  0
LINE
  8
RAILS
 10
1718.33
 20
1271.08
 11
1724.33
 21
1271.60
  0
LINE
  8
RAILS
 10
1724.33
 20
1271.60
 11
1730.32
 21
1272.13
  0
LINE
  8
RAILS
 10
1730.32
 20
1272.13
 11
1736.32
 21
1272.67
  0
LINE
  8
RAILS
 10
1736.32
 20
1272.67
 11
1742.31
 21
1273.23
  0
LINE
  8
RAILS
 10
1742.31
 20
1273.23
 11
1746.31
 21
1273.61
  0
LINE
  8
RAILS
 10
1746.31
 20
1273.61
 11
1746.31
 21
1273.61
  0
LINE
  8
RAILS
 10
1746.31
 20
1273.61
 11
1752.27
 21
1274.48
  0
LINE
  8
RAILS
 10
1752.27
 20
1274.48
 11
1758.23
 21
1275.37
  0
LINE
  8
RAILS
 10
1701.40
 20
1300.32
 11
1707.23
 21
1301.98
  0
LINE
  8
RAILS
 10
1707.23
 20
1301.98
 11
1712.84
 21
1303.63
  0
LINE
  8
RAILS
 10
1712.84
 20
1303.63
 11
1712.84
 21
1303.63
  0
LINE
  8
RAILS
 10
1712.84
 20
1303.63
 11
1718.68
 21
1305.09
  0
LINE
  8
RAILS
 10
1718.68
 20
1305.09
 11
1724.52
 21
1306.59
  0
LINE
  8
RAILS
 10
1724.52
 20
1306.59
 11
1730.34
 21
1308.12
  0
LINE
  8
RAILS
 10
1730.34
 20
1308.12
 11
1731.67
 21
1308.47
  0
LINE
  8
RAILS
 10
1731.67
 20
1308.47
 11
1731.67
 21
1308.47
  0
LINE
  8
RAILS
 10
1731.67
 20
1308.47
 11
1737.49
 21
1310.02
  0
LINE
  8
RAILS
 10
1737.49
 20
1310.02
 11
1739.68
 21
1310.60
  0
LINE
  8
RAILS
 10
1739.68
 20
1310.60
 11
1739.68
 21
1310.60
  0
LINE
  8
RAILS
 10
1739.68
 20
1310.60
 11
1745.52
 21
1311.87
  0
LINE
  8
RAILS
 10
1745.52
 20
1311.87
 11
1751.29
 21
1313.13
  0
LINE
  8
RAILS
 10
1493.51
 20
1259.93
 11
1499.53
 21
1259.94
  0
LINE
  8
RAILS
 10
1499.53
 20
1259.94
 11
1505.55
 21
1259.96
  0
LINE
  8
RAILS
 10
1505.55
 20
1259.96
 11
1511.58
 21
1260.00
  0
LINE
  8
RAILS
 10
1511.58
 20
1260.00
 11
1517.60
 21
1260.04
  0
LINE
  8
RAILS
 10
1517.60
 20
1260.04
 11
1523.62
 21
1260.11
  0
LINE
  8
RAILS
 10
1523.62
 20
1260.11
 11
1529.65
 21
1260.18
  0
LINE
  8
RAILS
 10
1529.65
 20
1260.18
 11
1535.67
 21
1260.27
  0
LINE
  8
RAILS
 10
1535.67
 20
1260.27
 11
1541.69
 21
1260.37
  0
LINE
  8
RAILS
 10
1541.69
 20
1260.37
 11
1547.72
 21
1260.49
  0
LINE
  8
RAILS
 10
1547.72
 20
1260.49
 11
1553.74
 21
1260.62
  0
LINE
  8
RAILS
 10
1553.74
 20
1260.62
 11
1559.76
 21
1260.76
  0
LINE
  8
RAILS
 10
1559.76
 20
1260.76
 11
1565.78
 21
1260.92
  0
LINE
  8
RAILS
 10
1565.78
 20
1260.92
 11
1571.80
 21
1261.09
  0
LINE
  8
RAILS
 10
1571.80
 20
1261.09
 11
1577.82
 21
1261.28
  0
LINE
  8
RAILS
 10
1577.82
 20
1261.28
 11
1583.84
 21
1261.47
  0
LINE
  8
RAILS
 10
1583.84
 20
1261.47
 11
1589.86
 21
1261.69
  0
LINE
  8
RAILS
 10
1589.86
 20
1261.69
 11
1595.88
 21
1261.91
  0
LINE
  8
RAILS
 10
1595.88
 20
1261.91
 11
1601.90
 21
1262.15
  0
LINE
  8
RAILS
 10
1601.90
 20
1262.15
 11
1607.92
 21
1262.41
  0
LINE
  8
RAILS
 10
1607.92
 20
1262.41
 11
1613.94
 21
1262.67
  0
LINE
  8
RAILS
 10
1613.94
 20
1262.67
 11
1619.95
 21
1262.95
  0
LINE
  8
RAILS
 10
1619.95
 20
1262.95
 11
1625.97
 21
1263.25
  0
LINE
  8
RAILS
 10
1625.97
 20
1263.25
 11
1631.98
 21
1263.55
  0
LINE
  8
RAILS
 10
1631.98
 20
1263.55
 11
1638.00
 21
1263.88
  0
LINE
  8
RAILS
 10
1638.00
 20
1263.88
 11
1644.01
 21
1264.21
  0
LINE
  8
RAILS
 10
1644.01
 20
1264.21
 11
1650.03
 21
1264.56
  0
LINE
  8
RAILS
 10
1650.03
 20
1264.56
 11
1656.04
 21
1264.92
  0
LINE
  8
RAILS
 10
1656.04
 20
1264.92
 11
1662.05
 21
1265.30
  0
LINE
  8
RAILS
 10
1662.05
 20
1265.30
 11
1668.06
 21
1265.69
  0
LINE
  8
RAILS
 10
1668.06
 20
1265.69
 11
1674.07
 21
1266.09
  0
LINE
  8
RAILS
 10
1674.07
 20
1266.09
 11
1680.08
 21
1266.51
  0
LINE
  8
RAILS
 10
1680.08
 20
1266.51
 11
1686.09
 21
1266.94
  0
LINE
  8
RAILS
 10
1686.09
 20
1266.94
 11
1692.10
 21
1267.39
  0
LINE
  8
RAILS
 10
1692.10
 20
1267.39
 11
1698.10
 21
1267.84
  0
LINE
  8
RAILS
 10
1698.10
 20
1267.84
 11
1704.11
 21
1268.32
  0
LINE
  8
RAILS
 10
1704.11
 20
1268.32
 11
1710.11
 21
1268.80
  0
LINE
  8
RAILS
 10
1710.11
 20
1268.80
 11
1716.11
 21
1269.30
  0
LINE
  8
RAILS
 10
1716.11
 20
1269.30
 11
1722.12
 21
1269.81
  0
LINE
  8
RAILS
 10
1722.12
 20
1269.81
 11
1728.12
 21
1270.34
  0
LINE
  8
RAILS
 10
1728.12
 20
1270.34
 11
1734.12
 21
1270.88
  0
LINE
  8
RAILS
 10
1734.12
 20
1270.88
 11
1740.11
 21
1271.43
  0
LINE
  8
RAILS
 10
1740.11
 20
1271.43
 11
1746.11
 21
1272.00
  0
LINE
  8
RAILS
 10
1746.11
 20
1272.00
 11
1752.11
 21
1272.58
  0
LINE
  8
RAILS
 10
1752.11
 20
1272.58
 11
1758.10
 21
1273.18
  0
LINE
  8
RAILS
 10
1758.10
 20
1273.18
 11
1764.09
 21
1273.78
  0
LINE
  8
RAILS
 10
1764.09
 20
1273.78
 11
1770.08
 21
1274.41
  0
LINE
  8
RAILS
 10
1770.08
 20
1274.41
 11
1776.07
 21
1275.04
  0
LINE
  8
RAILS
 10
1776.07
 20
1275.04
 11
1782.06
 21
1275.69
  0
LINE
  8
RAILS
 10
1782.06
 20
1275.69
 11
1788.05
 21
1276.35
  0
LINE
  8
RAILS
 10
1788.05
 20
1276.35
 11
1794.03
 21
1277.03
  0
LINE
  8
RAILS
 10
1794.03
 20
1277.03
 11
1800.02
 21
1277.72
  0
LINE
  8
RAILS
 10
1800.02
 20
1277.72
 11
1802.00
 21
1277.95
  0
LINE
  8
RAILS
 10
1544.01
 20
1281.08
 11
1549.99
 21
1281.20
  0
LINE
  8
RAILS
 10
1549.99
 20
1281.20
 11
1555.96
 21
1281.34
  0
LINE
  8
RAILS
 10
1555.96
 20
1281.34
 11
1561.94
 21
1281.49
  0
LINE
  8
RAILS
 10
1561.94
 20
1281.49
 11
1567.91
 21
1281.65
  0
LINE
  8
RAILS
 10
1567.91
 20
1281.65
 11
1573.88
 21
1281.83
  0
LINE
  8
RAILS
 10
1573.88
 20
1281.83
 11
1579.86
 21
1282.02
  0
LINE
  8
RAILS
 10
1579.86
 20
1282.02
 11
1585.83
 21
1282.22
  0
LINE
  8
RAILS
 10
1585.83
 20
1282.22
 11
1591.80
 21
1282.44
  0
LINE
  8
RAILS
 10
1591.80
 20
1282.44
 11
1597.78
 21
1282.67
  0
LINE
  8
RAILS
 10
1597.78
 20
1282.67
 11
1603.75
 21
1282.91
  0
LINE
  8
RAILS
 10
1603.75
 20
1282.91
 11
1609.72
 21
1283.17
  0
LINE
  8
RAILS
 10
1609.72
 20
1283.17
 11
1615.69
 21
1283.44
  0
LINE
  8
RAILS
 10
1615.69
 20
1283.44
 11
1621.66
 21
1283.72
  0
LINE
  8
RAILS
 10
1621.66
 20
1283.72
 11
1627.63
 21
1284.02
  0
LINE
  8
RAILS
 10
1627.63
 20
1284.02
 11
1633.60
 21
1284.33
  0
LINE
  8
RAILS
 10
1633.60
 20
1284.33
 11
1639.56
 21
1284.66
  0
LINE
  8
RAILS
 10
1639.56
 20
1284.66
 11
1645.53
 21
1285.00
  0
LINE
  8
RAILS
 10
1645.53
 20
1285.00
 11
1651.50
 21
1285.35
  0
LINE
  8
RAILS
 10
1651.50
 20
1285.35
 11
1657.46
 21
1285.71
  0
LINE
  8
RAILS
 10
1657.46
 20
1285.71
 11
1663.43
 21
1286.09
  0
LINE
  8
RAILS
 10
1663.43
 20
1286.09
 11
1669.39
 21
1286.49
  0
LINE
  8
RAILS
 10
1669.39
 20
1286.49
 11
1675.35
 21
1286.89
  0
LINE
  8
RAILS
 10
1675.35
 20
1286.89
 11
1681.31
 21
1287.31
  0
LINE
  8
RAILS
 10
1681.31
 20
1287.31
 11
1687.28
 21
1287.75
  0
LINE
  8
RAILS
 10
1687.28
 20
1287.75
 11
1693.24
 21
1288.19
  0
LINE
  8
RAILS
 10
1693.24
 20
1288.19
 11
1699.19
 21
1288.65
  0
LINE
  8
RAILS
 10
1699.19
 20
1288.65
 11
1705.15
 21
1289.13
  0
LINE
  8
RAILS
 10
1705.15
 20
1289.13
 11
1711.11
 21
1289.62
  0
LINE
  8
RAILS
 10
1711.11
 20
1289.62
 11
1717.06
 21
1290.12
  0
LINE
  8
RAILS
 10
1717.06
 20
1290.12
 11
1723.02
 21
1290.63
  0
LINE
  8
RAILS
 10
1723.02
 20
1290.63
 11
1728.97
 21
1291.16
  0
LINE
  8
RAILS
 10
1728.97
 20
1291.16
 11
1732.07
 21
1291.44
  0
LINE
  8
RAILS
 10
1732.07
 20
1291.44
 11
1732.07
 21
1291.44
  0
LINE
  8
RAILS
 10
1732.07
 20
1291.44
 11
1737.92
 21
1292.99
  0
LINE
  8
RAILS
 10
1737.92
 20
1292.99
 11
1742.44
 21
1294.19
  0
LINE
  8
RAILS
 10
1742.44
 20
1294.19
 11
1742.44
 21
1294.19
  0
LINE
  8
RAILS
 10
1742.44
 20
1294.19
 11
1748.25
 21
1296.05
  0
LINE
  8
RAILS
 10
1748.25
 20
1296.05
 11
1753.79
 21
1297.85
  0
LINE
  8
RAILS
 10
1544.70
 20
1261.35
 11
1550.72
 21
1261.66
  0
LINE
  8
RAILS
 10
1550.72
 20
1261.66
 11
1556.73
 21
1262.01
  0
LINE
  8
RAILS
 10
1556.73
 20
1262.01
 11
1562.74
 21
1262.39
  0
LINE
  8
RAILS
 10
1562.74
 20
1262.39
 11
1568.76
 21
1262.79
  0
LINE
  8
RAILS
 10
1568.76
 20
1262.79
 11
1574.76
 21
1263.22
  0
LINE
  8
RAILS
 10
1574.76
 20
1263.22
 11
1580.77
 21
1263.68
  0
LINE
  8
RAILS
 10
1580.77
 20
1263.68
 11
1586.78
 21
1264.17
  0
LINE
  8
RAILS
 10
1586.78
 20
1264.17
 11
1592.78
 21
1264.68
  0
LINE
  8
RAILS
 10
1592.78
 20
1264.68
 11
1598.78
 21
1265.23
  0
LINE
  8
RAILS
 10
1598.78
 20
1265.23
 11
1601.15
 21
1265.45
  0
LINE
  8
RAILS
 10
1601.15
 20
1265.45
 11
1601.15
 21
1265.45
  0
LINE
  8
RAILS
 10
1601.15
 20
1265.45
 11
1607.14
 21
1266.04
  0
LINE
  8
RAILS
 10
1607.14
 20
1266.04
 11
1613.13
 21
1266.68
  0
LINE
  8
RAILS
 10
1613.13
 20
1266.68
 11
1619.12
 21
1267.36
  0
LINE
  8
RAILS
 10
1619.12
 20
1267.36
 11
1625.11
 21
1268.09
  0
LINE
  8
RAILS
 10
1625.11
 20
1268.09
 11
1631.09
 21
1268.86
  0
LINE
  8
RAILS
 10
1631.09
 20
1268.86
 11
1637.06
 21
1269.67
  0
LINE
  8
RAILS
 10
1637.06
 20
1269.67
 11
1643.04
 21
1270.53
  0
LINE
  8
RAILS
 10
1643.04
 20
1270.53
 11
1649.00
 21
1271.44
  0
LINE
  8
RAILS
 10
1649.00
 20
1271.44
 11
1654.96
 21
1272.39
  0
LINE
  8
RAILS
 10
1654.96
 20
1272.39
 11
1660.92
 21
1273.38
  0
LINE
  8
RAILS
 10
1660.92
 20
1273.38
 11
1666.87
 21
1274.42
  0
LINE
  8
RAILS
 10
1666.87
 20
1274.42
 11
1672.81
 21
1275.50
  0
LINE
  8
RAILS
 10
1672.81
 20
1275.50
 11
1678.75
 21
1276.63
  0
LINE
  8
RAILS
 10
1678.75
 20
1276.63
 11
1684.68
 21
1277.80
  0
LINE
  8
RAILS
 10
1684.68
 20
1277.80
 11
1690.60
 21
1279.02
  0
LINE
  8
RAILS
 10
1690.60
 20
1279.02
 11
1696.52
 21
1280.29
  0
LINE
  8
RAILS
 10
1696.52
 20
1280.29
 11
1702.43
 21
1281.59
  0
LINE
  8
RAILS
 10
1702.43
 20
1281.59
 11
1708.33
 21
1282.95
  0
LINE
  8
RAILS
 10
1708.33
 20
1282.95
 11
1714.23
 21
1284.34
  0
LINE
  8
RAILS
 10
1714.23
 20
1284.34
 11
1720.11
 21
1285.79
  0
LINE
  8
RAILS
 10
1720.11
 20
1285.79
 11
1725.99
 21
1287.27
  0
LINE
  8
RAILS
 10
1725.99
 20
1287.27
 11
1728.64
 21
1287.96
  0
LINE
  8
RAILS
 10
1728.64
 20
1287.96
 11
1728.64
 21
1287.96
  0
LINE
  8
RAILS
 10
1728.64
 20
1287.96
 11
1732.50
 21
1288.97
  0
LINE
  8
RAILS
 10
1732.50
 20
1288.97
 11
1732.50
 21
1288.97
  0
LINE
  8
RAILS
 10
1732.50
 20
1288.97
 11
1738.46
 21
1289.52
  0
LINE
  8
RAILS
 10
1738.46
 20
1289.52
 11
1743.19
 21
1289.96
  0
LINE
  8
RAILS
 10
1743.19
 20
1289.96
 11
1743.19
 21
1289.96
  0
LINE
  8
RAILS
 10
1743.19
 20
1289.96
 11
1749.17
 21
1290.25
  0
LINE
  8
RAILS
 10
1749.17
 20
1290.25
 11
1755.13
 21
1290.54
  0
LINE
  8
RAILS
 10
1493.51
 20
1280.60
 11
1499.48
 21
1280.60
  0
LINE
  8
RAILS
 10
1499.48
 20
1280.60
 11
1505.46
 21
1280.63
  0
LINE
  8
RAILS
 10
1505.46
 20
1280.63
 11
1511.44
 21
1280.66
  0
LINE
  8
RAILS
 10
1511.44
 20
1280.66
 11
1514.78
 21
1280.68
  0
LINE
  8
RAILS
 10
1514.78
 20
1280.68
 11
1514.78
 21
1280.68
  0
LINE
  8
RAILS
 10
1514.78
 20
1280.68
 11
1520.76
 21
1280.93
  0
LINE
  8
RAILS
 10
1520.76
 20
1280.93
 11
1526.73
 21
1281.18
  0
LINE
  8
RAILS
 10
1526.73
 20
1281.18
 11
1532.70
 21
1281.45
  0
LINE
  8
RAILS
 10
1532.70
 20
1281.45
 11
1538.67
 21
1281.74
  0
LINE
  8
RAILS
 10
1538.67
 20
1281.74
 11
1543.66
 21
1281.98
  0
LINE
  8
RAILS
 10
1543.66
 20
1281.98
 11
1543.66
 21
1281.98
  0
LINE
  8
RAILS
 10
1543.66
 20
1281.98
 11
1549.63
 21
1282.30
  0
LINE
  8
RAILS
 10
1549.63
 20
1282.30
 11
1555.60
 21
1282.64
  0
LINE
  8
RAILS
 10
1555.60
 20
1282.64
 11
1561.56
 21
1283.02
  0
LINE
  8
RAILS
 10
1561.56
 20
1283.02
 11
1567.53
 21
1283.42
  0
LINE
  8
RAILS
 10
1567.53
 20
1283.42
 11
1573.49
 21
1283.84
  0
LINE
  8
RAILS
 10
1573.49
 20
1283.84
 11
1579.45
 21
1284.30
  0
LINE
  8
RAILS
 10
1579.45
 20
1284.30
 11
1585.41
 21
1284.79
  0
LINE
  8
RAILS
 10
1585.41
 20
1284.79
 11
1591.36
 21
1285.30
  0
LINE
  8
RAILS
 10
1591.36
 20
1285.30
 11
1597.32
 21
1285.85
  0
LINE
  8
RAILS
 10
1597.32
 20
1285.85
 11
1599.19
 21
1286.02
  0
LINE
  8
RAILS
 10
1599.19
 20
1286.02
 11
1599.19
 21
1286.02
  0
LINE
  8
RAILS
 10
1599.19
 20
1286.02
 11
1605.14
 21
1286.61
  0
LINE
  8
RAILS
 10
1605.14
 20
1286.61
 11
1611.09
 21
1287.24
  0
LINE
  8
RAILS
 10
1611.09
 20
1287.24
 11
1617.03
 21
1287.92
  0
LINE
  8
RAILS
 10
1617.03
 20
1287.92
 11
1622.97
 21
1288.65
  0
LINE
  8
RAILS
 10
1622.97
 20
1288.65
 11
1628.90
 21
1289.41
  0
LINE
  8
RAILS
 10
1628.90
 20
1289.41
 11
1634.83
 21
1290.23
  0
LINE
  8
RAILS
 10
1634.83
 20
1290.23
 11
1640.76
 21
1291.09
  0
LINE
  8
RAILS
 10
1640.76
 20
1291.09
 11
1646.68
 21
1291.99
  0
LINE
  8
RAILS
 10
1646.68
 20
1291.99
 11
1652.59
 21
1292.94
  0
LINE
  8
RAILS
 10
1652.59
 20
1292.94
 11
1658.50
 21
1293.93
  0
LINE
  8
RAILS
 10
1658.50
 20
1293.93
 11
1664.40
 21
1294.97
  0
LINE
  8
RAILS
 10
1664.40
 20
1294.97
 11
1670.30
 21
1296.05
  0
LINE
  8
RAILS
 10
1670.30
 20
1296.05
 11
1676.19
 21
1297.18
  0
LINE
  8
RAILS
 10
1676.19
 20
1297.18
 11
1682.07
 21
1298.36
  0
LINE
  8
RAILS
 10
1682.07
 20
1298.36
 11
1687.95
 21
1299.58
  0
LINE
  8
RAILS
 10
1687.95
 20
1299.58
 11
1693.82
 21
1300.84
  0
LINE
  8
RAILS
 10
1693.82
 20
1300.84
 11
1699.68
 21
1302.15
  0
LINE
  8
RAILS
 10
1699.68
 20
1302.15
 11
1705.54
 21
1303.51
  0
LINE
  8
RAILS
 10
1705.54
 20
1303.51
 11
1711.39
 21
1304.91
  0
LINE
  8
RAILS
 10
1711.39
 20
1304.91
 11
1717.23
 21
1306.36
  0
LINE
  8
RAILS
 10
1717.23
 20
1306.36
 11
1723.06
 21
1307.85
  0
LINE
  8
RAILS
 10
1723.06
 20
1307.85
 11
1723.47
 21
1307.96
  0
LINE
  8
RAILS
 10
1723.47
 20
1307.96
 11
1723.47
 21
1307.96
  0
LINE
  8
RAILS
 10
1723.47
 20
1307.96
 11
1729.29
 21
1309.49
  0
LINE
  8
RAILS
 10
1729.29
 20
1309.49
 11
1735.11
 21
1311.02
  0
LINE
  8
RAILS
 10
1735.11
 20
1311.02
 11
1740.92
 21
1312.58
  0
LINE
  8
RAILS
 10
1740.92
 20
1312.58
 11
1746.73
 21
1314.14
  0
LINE
  8
RAILS
 10
1746.73
 20
1314.14
 11
1752.53
 21
1315.72
  0
LINE
  8
RAILS
 10
1752.53
 20
1315.72
 11
1758.33
 21
1317.31
  0
LINE
  8
RAILS
 10
1758.33
 20
1317.31
 11
1764.11
 21
1318.91
  0
LINE
  8
RAILS
 10
1764.11
 20
1318.91
 11
1769.90
 21
1320.53
  0
LINE
  8
RAILS
 10
1769.90
 20
1320.53
 11
1775.67
 21
1322.16
  0
LINE
  8
RAILS
 10
1775.67
 20
1322.16
 11
1778.02
 21
1322.82
  0
LINE
  8
RAILS
 10
1747.17
 20
1292.86
 11
1753.11
 21
1293.44
  0
LINE
  8
RAILS
 10
1753.11
 20
1293.44
 11
1759.06
 21
1294.04
  0
LINE
  8
RAILS
 10
1759.06
 20
1294.04
 11
1765.01
 21
1294.65
  0
LINE
  8
RAILS
 10
1765.01
 20
1294.65
 11
1770.95
 21
1295.27
  0
LINE
  8
RAILS
 10
1770.95
 20
1295.27
 11
1776.89
 21
1295.91
  0
LINE
  8
RAILS
 10
1776.89
 20
1295.91
 11
1782.83
 21
1296.56
  0
LINE
  8
RAILS
 10
1782.83
 20
1296.56
 11
1788.77
 21
1297.23
  0
LINE
  8
RAILS
 10
1788.77
 20
1297.23
 11
1794.71
 21
1297.91
  0
LINE
  8
RAILS
 10
1794.71
 20
1297.91
 11
1799.60
 21
1298.47
  0
LINE
  8
RAILS
 10
1747.17
 20
1292.86
 11
1753.02
 21
1294.44
  0
LINE
  8
RAILS
 10
1753.02
 20
1294.44
 11
1758.86
 21
1296.03
  0
LINE
  8
RAILS
 10
1758.86
 20
1296.03
 11
1764.70
 21
1297.63
  0
LINE
  8
RAILS
 10
1764.70
 20
1297.63
 11
1770.53
 21
1299.25
  0
LINE
  8
RAILS
 10
1770.53
 20
1299.25
 11
1776.35
 21
1300.88
  0
LINE
  8
RAILS
 10
1776.35
 20
1300.88
 11
1782.17
 21
1302.53
  0
LINE
  8
RAILS
 10
1782.17
 20
1302.53
 11
1783.60
 21
1302.93
  0
LINE
  8
RAILS
 10
1706.25
 20
1271.58
 11
1712.27
 21
1271.78
  0
LINE
  8
RAILS
 10
1712.27
 20
1271.78
 11
1718.27
 21
1271.99
  0
LINE
  8
RAILS
 10
1718.27
 20
1271.99
 11
1718.27
 21
1271.99
  0
LINE
  8
RAILS
 10
1718.27
 20
1271.99
 11
1724.27
 21
1272.51
  0
LINE
  8
RAILS
 10
1724.27
 20
1272.51
 11
1730.26
 21
1273.04
  0
LINE
  8
RAILS
 10
1730.26
 20
1273.04
 11
1736.26
 21
1273.59
  0
LINE
  8
RAILS
 10
1736.26
 20
1273.59
 11
1742.25
 21
1274.15
  0
LINE
  8
RAILS
 10
1742.25
 20
1274.15
 11
1746.20
 21
1274.52
  0
LINE
  8
RAILS
 10
1746.20
 20
1274.52
 11
1746.20
 21
1274.52
  0
LINE
  8
RAILS
 10
1746.20
 20
1274.52
 11
1752.16
 21
1275.39
  0
LINE
  8
RAILS
 10
1752.16
 20
1275.39
 11
1758.09
 21
1276.28
  0
LINE
  8
RAILS
 10
1701.64
 20
1299.43
 11
1707.48
 21
1301.10
  0
LINE
  8
RAILS
 10
1707.48
 20
1301.10
 11
1713.08
 21
1302.75
  0
LINE
  8
RAILS
 10
1713.08
 20
1302.75
 11
1713.08
 21
1302.75
  0
LINE
  8
RAILS
 10
1713.08
 20
1302.75
 11
1718.92
 21
1304.21
  0
LINE
  8
RAILS
 10
1718.92
 20
1304.21
 11
1724.76
 21
1305.71
  0
LINE
  8
RAILS
 10
1724.76
 20
1305.71
 11
1730.59
 21
1307.24
  0
LINE
  8
RAILS
 10
1730.59
 20
1307.24
 11
1731.90
 21
1307.59
  0
LINE
  8
RAILS
 10
1731.90
 20
1307.59
 11
1731.90
 21
1307.59
  0
LINE
  8
RAILS
 10
1731.90
 20
1307.59
 11
1737.73
 21
1309.13
  0
LINE
  8
RAILS
 10
1737.73
 20
1309.13
 11
1739.89
 21
1309.71
  0
LINE
  8
RAILS
 10
1739.89
 20
1309.71
 11
1739.89
 21
1309.71
  0
LINE
  8
RAILS
 10
1739.89
 20
1309.71
 11
1745.73
 21
1310.97
  0
LINE
  8
RAILS
 10
1745.73
 20
1310.97
 11
1751.48
 21
1312.23
  0
LINE
  8
RAILS
 10
1754.07
 20
1296.97
 11
1753.79
 21
1297.85
  0
LINE
  8
RAILS
 10
1755.09
 20
1291.46
 11
1755.13
 21
1290.54
  0
LINE
  8
RAILS
 10
1706.28
 20
1270.67
 11
1706.25
 21
1271.58
  0
LINE
  8
RAILS
 10
1758.23
 20
1275.37
 11
1758.09
 21
1276.28
  0
LINE
  8
RAILS
 10
1701.40
 20
1300.32
 11
1701.64
 21
1299.43
  0
LINE
  8
RAILS
 10
1751.29
 20
1313.13
 11
1751.48
 21
1312.23
  0
LINE
  8
RAILS
 10
1737.77
 20
1291.05
 11
1737.73
 21
1291.30
  0
ENDSEC
  0
EOF
