  0
SECTION
  2
HEADER
  0
ENDSEC
  0
SECTION
  2
TABLES
  0
TABLE
  2
LTYPE
 70
10
  0
LTYPE
  2
CONTINUOUS
 70
64
  3
solid line
 72
65
 73
0
 40
0.0
  0
LTYPE
  2
DASHED
 70
0
  3
__ __ __ __ __ __ __ __ __ __ __ __ __ __ __
 72
65
 73
2
 40
0.75
 49
0.5
 49
-0.25
  0
LTYPE
  2
HIDDEN
 70
0
  3
_ _ _ _ _ _ _ _ _ _ _ _ _ _ _ _ _ _ _ _ _ _
 72
65
 73
2
 40
0.375
 49
0.25
 49
-0.125
  0
LTYPE
  2
CENTER
 70
0
  3
____ _ ____ _ ____ _ ____ _ ____ _ ____ _ __
 72
65
 73
4
 40
2.0
 49
1.25
 49
-0.25
 49
0.25
 49
-0.25
  0
LTYPE
  2
PHANTOM
 70
0
  3
_____ _ _ _____ _ _ _____ _ _ _____ _ _ ____
 72
65
 73
6
 40
2.5
 49
1.25
 49
-0.25
 49
0.25
 49
-0.25
 49
0.25
 49
-0.25
  0
LTYPE
  2
DOT
 70
0
  3
............................................
 72
65
 73
2
 40
0.25
 49
0.0
 49
-0.25
  0
LTYPE
  2
DASHDOT
 70
0
  3
__ . __ . __ . __ . __ . __ . __ . __ . __ .
 72
65
 73
4
 40
1.0
 49
0.5
 49
-0.25
 49
0.0
 49
-0.25
  0
LTYPE
  2
BORDER
 70
0
  3
__ __ . __ __ . __ __ . __ __ . __ __ . __ _
 72
65
 73
6
 40
1.75
 49
0.5
 49
-0.25
 49
0.5
 49
-0.25
 49
0.0
 49
-0.25
  0
LTYPE
  2
DIVIDE
 70
0
  3
__ . . __ . . __ . . __ . . __ . . __ . . __
 72
65
 73
6
 40
1.25
 49
0.5
 49
-0.25
 49
0.0
 49
-0.25
 49
0.0
 49
-0.25
  0
LTYPE
  2
DIVIDE2
 70
0
  3
__..__..__..__..__..__..__..__..__..__..__..__.
 72
65
 73
8
 40
0.9
 49
0.25
 49
-0.1
 49
0.25
 49
-0.1
 49
0.0
 49
-0.1
 49
0.0
 49
-0.1
  0
ENDTAB
  0
TABLE
  2
LAYER
 70
18
  0
LAYER
  2
RAILS
 70
0
  6
CONTINUOUS
 62
7
  0
LAYER
  2
TIMBOUTL
 70
0
  6
CONTINUOUS
 62
5
  0
LAYER
  2
RLSIDE3D
 70
0
  6
CONTINUOUS
 62
33
  0
LAYER
  2
RLTOP3D
 70
0
  6
CONTINUOUS
 62
252
  0
LAYER
  2
CHAIR3D
 70
0
  6
CONTINUOUS
 62
54
  0
LAYER
  2
TIMBER3D
 70
0
  6
CONTINUOUS
 62
8
  0
ENDTAB
  0
ENDSEC
  0
SECTION
  2
ENTITIES
  0
LINE
  8
TIMBOUTL
 10
11.59
 20
15.44
 11
15.59
 21
15.46
  0
LINE
  8
TIMBOUTL
 10
11.41
 20
51.44
 11
15.41
 21
51.46
  0
LINE
  8
TIMBOUTL
 10
11.59
 20
15.44
 11
11.41
 21
51.44
  0
LINE
  8
TIMBOUTL
 10
15.59
 20
15.46
 11
15.41
 21
51.46
  0
LINE
  8
TIMBOUTL
 10
2.20
 20
15.42
 11
6.20
 21
15.42
  0
LINE
  8
TIMBOUTL
 10
2.14
 20
51.42
 11
6.14
 21
51.42
  0
LINE
  8
TIMBOUTL
 10
2.20
 20
15.42
 11
2.14
 21
51.42
  0
LINE
  8
TIMBOUTL
 10
6.20
 20
15.42
 11
6.14
 21
51.42
  0
LINE
  8
TIMBOUTL
 10
20.99
 20
15.52
 11
24.99
 21
15.55
  0
LINE
  8
TIMBOUTL
 10
20.68
 20
51.52
 11
24.68
 21
51.55
  0
LINE
  8
TIMBOUTL
 10
20.99
 20
15.52
 11
20.68
 21
51.52
  0
LINE
  8
TIMBOUTL
 10
24.99
 20
15.55
 11
24.68
 21
51.55
  0
LINE
  8
TIMBOUTL
 10
30.38
 20
15.76
 11
34.38
 21
15.81
  0
LINE
  8
TIMBOUTL
 10
29.94
 20
51.75
 11
33.94
 21
51.80
  0
LINE
  8
TIMBOUTL
 10
30.38
 20
15.76
 11
29.94
 21
51.75
  0
LINE
  8
TIMBOUTL
 10
34.38
 20
15.81
 11
33.94
 21
51.80
  0
LINE
  8
TIMBOUTL
 10
39.78
 20
16.03
 11
43.78
 21
16.09
  0
LINE
  8
TIMBOUTL
 10
39.21
 20
52.02
 11
43.21
 21
52.08
  0
LINE
  8
TIMBOUTL
 10
39.78
 20
16.03
 11
39.21
 21
52.02
  0
LINE
  8
TIMBOUTL
 10
43.78
 20
16.09
 11
43.21
 21
52.08
  0
LINE
  8
TIMBOUTL
 10
49.19
 20
15.33
 11
53.19
 21
15.41
  0
LINE
  8
TIMBOUTL
 10
48.46
 20
53.32
 11
52.46
 21
53.40
  0
LINE
  8
TIMBOUTL
 10
49.19
 20
15.33
 11
48.46
 21
53.32
  0
LINE
  8
TIMBOUTL
 10
53.19
 20
15.41
 11
52.46
 21
53.40
  0
LINE
  8
TIMBOUTL
 10
58.58
 20
15.68
 11
62.58
 21
15.77
  0
LINE
  8
TIMBOUTL
 10
57.71
 20
53.67
 11
61.71
 21
53.76
  0
LINE
  8
TIMBOUTL
 10
58.58
 20
15.68
 11
57.71
 21
53.67
  0
LINE
  8
TIMBOUTL
 10
62.58
 20
15.77
 11
61.71
 21
53.76
  0
LINE
  8
TIMBOUTL
 10
67.97
 20
16.07
 11
71.97
 21
16.18
  0
LINE
  8
TIMBOUTL
 10
66.97
 20
54.06
 11
70.97
 21
54.17
  0
LINE
  8
TIMBOUTL
 10
67.97
 20
16.07
 11
66.97
 21
54.06
  0
LINE
  8
TIMBOUTL
 10
71.97
 20
16.18
 11
70.97
 21
54.17
  0
LINE
  8
TIMBOUTL
 10
77.36
 20
16.52
 11
81.36
 21
16.64
  0
LINE
  8
TIMBOUTL
 10
76.23
 20
54.50
 11
80.22
 21
54.62
  0
LINE
  8
TIMBOUTL
 10
77.36
 20
16.52
 11
76.23
 21
54.50
  0
LINE
  8
TIMBOUTL
 10
81.36
 20
16.64
 11
80.22
 21
54.62
  0
LINE
  8
TIMBOUTL
 10
86.91
 20
17.03
 11
90.91
 21
17.16
  0
LINE
  8
TIMBOUTL
 10
85.64
 20
55.01
 11
89.64
 21
55.14
  0
LINE
  8
TIMBOUTL
 10
86.91
 20
17.03
 11
85.64
 21
55.01
  0
LINE
  8
TIMBOUTL
 10
90.91
 20
17.16
 11
89.64
 21
55.14
  0
LINE
  8
TIMBOUTL
 10
96.50
 20
16.59
 11
100.50
 21
16.74
  0
LINE
  8
TIMBOUTL
 10
95.02
 20
56.57
 11
99.02
 21
56.71
  0
LINE
  8
TIMBOUTL
 10
96.50
 20
16.59
 11
95.02
 21
56.57
  0
LINE
  8
TIMBOUTL
 10
100.50
 20
16.74
 11
99.02
 21
56.71
  0
LINE
  8
TIMBOUTL
 10
106.05
 20
17.21
 11
110.05
 21
17.37
  0
LINE
  8
TIMBOUTL
 10
104.42
 20
57.17
 11
108.42
 21
57.34
  0
LINE
  8
TIMBOUTL
 10
106.05
 20
17.21
 11
104.42
 21
57.17
  0
LINE
  8
TIMBOUTL
 10
110.05
 20
17.37
 11
108.42
 21
57.34
  0
LINE
  8
TIMBOUTL
 10
114.76
 20
17.83
 11
118.75
 21
18.00
  0
LINE
  8
TIMBOUTL
 10
113.00
 20
57.79
 11
117.00
 21
57.96
  0
LINE
  8
TIMBOUTL
 10
114.76
 20
17.83
 11
113.00
 21
57.79
  0
LINE
  8
TIMBOUTL
 10
118.75
 20
18.00
 11
117.00
 21
57.96
  0
LINE
  8
TIMBOUTL
 10
122.79
 20
18.45
 11
126.79
 21
18.64
  0
LINE
  8
TIMBOUTL
 10
120.91
 20
58.41
 11
124.91
 21
58.59
  0
LINE
  8
TIMBOUTL
 10
122.79
 20
18.45
 11
120.91
 21
58.41
  0
LINE
  8
TIMBOUTL
 10
126.79
 20
18.64
 11
124.91
 21
58.59
  0
LINE
  8
TIMBOUTL
 10
218.09
 20
23.64
 11
222.04
 21
24.27
  0
LINE
  8
TIMBOUTL
 10
209.92
 20
74.99
 11
213.87
 21
75.62
  0
LINE
  8
TIMBOUTL
 10
218.09
 20
23.64
 11
209.92
 21
74.99
  0
LINE
  8
TIMBOUTL
 10
222.04
 20
24.27
 11
213.87
 21
75.62
  0
LINE
  8
TIMBOUTL
 10
228.17
 20
25.27
 11
232.11
 21
25.93
  0
LINE
  8
TIMBOUTL
 10
219.58
 20
76.56
 11
223.53
 21
77.22
  0
LINE
  8
TIMBOUTL
 10
228.17
 20
25.27
 11
219.58
 21
76.56
  0
LINE
  8
TIMBOUTL
 10
232.11
 20
25.93
 11
223.53
 21
77.22
  0
LINE
  8
TIMBOUTL
 10
238.36
 20
26.00
 11
242.30
 21
26.69
  0
LINE
  8
TIMBOUTL
 10
229.11
 20
79.20
 11
233.05
 21
79.89
  0
LINE
  8
TIMBOUTL
 10
238.36
 20
26.00
 11
229.11
 21
79.20
  0
LINE
  8
TIMBOUTL
 10
242.30
 20
26.69
 11
233.05
 21
79.89
  0
LINE
  8
TIMBOUTL
 10
248.49
 20
26.77
 11
252.43
 21
27.47
  0
LINE
  8
TIMBOUTL
 10
238.68
 20
81.90
 11
242.62
 21
82.60
  0
LINE
  8
TIMBOUTL
 10
248.49
 20
26.77
 11
238.68
 21
81.90
  0
LINE
  8
TIMBOUTL
 10
252.43
 20
27.47
 11
242.62
 21
82.60
  0
LINE
  8
TIMBOUTL
 10
258.61
 20
27.57
 11
262.54
 21
28.29
  0
LINE
  8
TIMBOUTL
 10
248.23
 20
84.64
 11
252.17
 21
85.35
  0
LINE
  8
TIMBOUTL
 10
258.61
 20
27.57
 11
248.23
 21
84.64
  0
LINE
  8
TIMBOUTL
 10
262.54
 20
28.29
 11
252.17
 21
85.35
  0
LINE
  8
TIMBOUTL
 10
268.73
 20
28.42
 11
272.66
 21
29.15
  0
LINE
  8
TIMBOUTL
 10
257.77
 20
87.41
 11
261.70
 21
88.14
  0
LINE
  8
TIMBOUTL
 10
268.73
 20
28.42
 11
257.77
 21
87.41
  0
LINE
  8
TIMBOUTL
 10
272.66
 20
29.15
 11
261.70
 21
88.14
  0
LINE
  8
TIMBOUTL
 10
278.66
 20
30.28
 11
282.59
 21
31.03
  0
LINE
  8
TIMBOUTL
 10
267.48
 20
89.23
 11
271.41
 21
89.98
  0
LINE
  8
TIMBOUTL
 10
278.66
 20
30.28
 11
267.48
 21
89.23
  0
LINE
  8
TIMBOUTL
 10
282.59
 20
31.03
 11
271.41
 21
89.98
  0
LINE
  8
TIMBOUTL
 10
288.77
 20
31.20
 11
292.69
 21
31.96
  0
LINE
  8
TIMBOUTL
 10
276.98
 20
92.07
 11
280.91
 21
92.83
  0
LINE
  8
TIMBOUTL
 10
288.77
 20
31.20
 11
276.98
 21
92.07
  0
LINE
  8
TIMBOUTL
 10
292.69
 20
31.96
 11
280.91
 21
92.83
  0
LINE
  8
TIMBOUTL
 10
132.36
 20
18.25
 11
136.35
 21
18.47
  0
LINE
  8
TIMBOUTL
 10
130.05
 20
60.18
 11
134.05
 21
60.40
  0
LINE
  8
TIMBOUTL
 10
132.36
 20
18.25
 11
130.05
 21
60.18
  0
LINE
  8
TIMBOUTL
 10
136.35
 20
18.47
 11
134.05
 21
60.40
  0
LINE
  8
TIMBOUTL
 10
141.89
 20
19.12
 11
145.88
 21
19.37
  0
LINE
  8
TIMBOUTL
 10
139.22
 20
61.03
 11
143.21
 21
61.29
  0
LINE
  8
TIMBOUTL
 10
141.89
 20
19.12
 11
139.22
 21
61.03
  0
LINE
  8
TIMBOUTL
 10
145.88
 20
19.37
 11
143.21
 21
61.29
  0
LINE
  8
TIMBOUTL
 10
151.50
 20
19.06
 11
155.49
 21
19.35
  0
LINE
  8
TIMBOUTL
 10
148.28
 20
62.94
 11
152.27
 21
63.24
  0
LINE
  8
TIMBOUTL
 10
151.50
 20
19.06
 11
148.28
 21
62.94
  0
LINE
  8
TIMBOUTL
 10
155.49
 20
19.35
 11
152.27
 21
63.24
  0
LINE
  8
TIMBOUTL
 10
161.07
 20
20.08
 11
165.06
 21
20.41
  0
LINE
  8
TIMBOUTL
 10
157.38
 20
63.92
 11
161.37
 21
64.26
  0
LINE
  8
TIMBOUTL
 10
161.07
 20
20.08
 11
157.38
 21
63.92
  0
LINE
  8
TIMBOUTL
 10
165.06
 20
20.41
 11
161.37
 21
64.26
  0
LINE
  8
TIMBOUTL
 10
170.65
 20
21.17
 11
174.63
 21
21.55
  0
LINE
  8
TIMBOUTL
 10
166.45
 20
64.97
 11
170.43
 21
65.35
  0
LINE
  8
TIMBOUTL
 10
170.65
 20
21.17
 11
166.45
 21
64.97
  0
LINE
  8
TIMBOUTL
 10
174.63
 20
21.55
 11
170.43
 21
65.35
  0
LINE
  8
TIMBOUTL
 10
180.35
 20
21.34
 11
184.32
 21
21.77
  0
LINE
  8
TIMBOUTL
 10
175.39
 20
67.07
 11
179.37
 21
67.50
  0
LINE
  8
TIMBOUTL
 10
180.35
 20
21.34
 11
175.39
 21
67.07
  0
LINE
  8
TIMBOUTL
 10
184.32
 20
21.77
 11
179.37
 21
67.50
  0
LINE
  8
TIMBOUTL
 10
190.08
 20
21.59
 11
194.05
 21
22.08
  0
LINE
  8
TIMBOUTL
 10
184.27
 20
69.24
 11
188.24
 21
69.72
  0
LINE
  8
TIMBOUTL
 10
190.08
 20
21.59
 11
184.27
 21
69.24
  0
LINE
  8
TIMBOUTL
 10
194.05
 20
22.08
 11
188.24
 21
69.72
  0
LINE
  8
TIMBOUTL
 10
199.72
 20
22.91
 11
203.68
 21
23.46
  0
LINE
  8
TIMBOUTL
 10
193.23
 20
70.47
 11
197.20
 21
71.01
  0
LINE
  8
TIMBOUTL
 10
199.72
 20
22.91
 11
193.23
 21
70.47
  0
LINE
  8
TIMBOUTL
 10
203.68
 20
23.46
 11
197.20
 21
71.01
  0
LINE
  8
TIMBOUTL
 10
209.52
 20
23.33
 11
213.48
 21
23.93
  0
LINE
  8
TIMBOUTL
 10
202.01
 20
72.76
 11
205.97
 21
73.36
  0
LINE
  8
TIMBOUTL
 10
209.52
 20
23.33
 11
202.01
 21
72.76
  0
LINE
  8
TIMBOUTL
 10
213.48
 20
23.93
 11
205.97
 21
73.36
  0
LINE
  8
TIMBOUTL
 10
294.73
 20
31.81
 11
298.04
 21
32.18
  0
LINE
  8
TIMBOUTL
 10
290.71
 20
67.58
 11
294.03
 21
67.95
  0
LINE
  8
TIMBOUTL
 10
294.73
 20
31.81
 11
290.71
 21
67.58
  0
LINE
  8
TIMBOUTL
 10
298.04
 20
32.18
 11
294.03
 21
67.95
  0
LINE
  8
TIMBOUTL
 10
303.40
 20
32.79
 11
306.71
 21
33.17
  0
LINE
  8
TIMBOUTL
 10
299.27
 20
68.55
 11
302.58
 21
68.93
  0
LINE
  8
TIMBOUTL
 10
303.40
 20
32.79
 11
299.27
 21
68.55
  0
LINE
  8
TIMBOUTL
 10
306.71
 20
33.17
 11
302.58
 21
68.93
  0
LINE
  8
RAILS
 10
0.00
 20
24.00
 11
6.02
 21
24.01
  0
LINE
  8
RAILS
 10
6.02
 20
24.01
 11
12.04
 21
24.03
  0
LINE
  8
RAILS
 10
12.04
 20
24.03
 11
18.06
 21
24.06
  0
LINE
  8
RAILS
 10
18.06
 20
24.06
 11
24.09
 21
24.11
  0
LINE
  8
RAILS
 10
24.09
 20
24.11
 11
30.11
 21
24.17
  0
LINE
  8
RAILS
 10
30.11
 20
24.17
 11
36.13
 21
24.25
  0
LINE
  8
RAILS
 10
36.13
 20
24.25
 11
42.15
 21
24.34
  0
LINE
  8
RAILS
 10
42.15
 20
24.34
 11
48.17
 21
24.44
  0
LINE
  8
RAILS
 10
48.17
 20
24.44
 11
54.19
 21
24.55
  0
LINE
  8
RAILS
 10
54.19
 20
24.55
 11
60.21
 21
24.68
  0
LINE
  8
RAILS
 10
60.21
 20
24.68
 11
66.23
 21
24.83
  0
LINE
  8
RAILS
 10
66.23
 20
24.83
 11
72.25
 21
24.99
  0
LINE
  8
RAILS
 10
72.25
 20
24.99
 11
78.27
 21
25.16
  0
LINE
  8
RAILS
 10
78.27
 20
25.16
 11
84.29
 21
25.34
  0
LINE
  8
RAILS
 10
84.29
 20
25.34
 11
90.30
 21
25.54
  0
LINE
  8
RAILS
 10
90.30
 20
25.54
 11
96.32
 21
25.75
  0
LINE
  8
RAILS
 10
96.32
 20
25.75
 11
102.34
 21
25.98
  0
LINE
  8
RAILS
 10
102.34
 20
25.98
 11
108.35
 21
26.22
  0
LINE
  8
RAILS
 10
108.35
 20
26.22
 11
114.37
 21
26.47
  0
LINE
  8
RAILS
 10
114.37
 20
26.47
 11
120.39
 21
26.74
  0
LINE
  8
RAILS
 10
120.39
 20
26.74
 11
126.40
 21
27.02
  0
LINE
  8
RAILS
 10
126.40
 20
27.02
 11
132.42
 21
27.31
  0
LINE
  8
RAILS
 10
132.42
 20
27.31
 11
138.43
 21
27.62
  0
LINE
  8
RAILS
 10
138.43
 20
27.62
 11
144.44
 21
27.94
  0
LINE
  8
RAILS
 10
144.44
 20
27.94
 11
150.45
 21
28.28
  0
LINE
  8
RAILS
 10
150.45
 20
28.28
 11
156.47
 21
28.62
  0
LINE
  8
RAILS
 10
156.47
 20
28.62
 11
162.48
 21
28.99
  0
LINE
  8
RAILS
 10
162.48
 20
28.99
 11
168.49
 21
29.36
  0
LINE
  8
RAILS
 10
168.49
 20
29.36
 11
174.49
 21
29.75
  0
LINE
  8
RAILS
 10
174.49
 20
29.75
 11
180.50
 21
30.16
  0
LINE
  8
RAILS
 10
180.50
 20
30.16
 11
186.51
 21
30.57
  0
LINE
  8
RAILS
 10
186.51
 20
30.57
 11
192.51
 21
31.00
  0
LINE
  8
RAILS
 10
192.51
 20
31.00
 11
198.52
 21
31.45
  0
LINE
  8
RAILS
 10
198.52
 20
31.45
 11
204.52
 21
31.91
  0
LINE
  8
RAILS
 10
204.52
 20
31.91
 11
210.53
 21
32.38
  0
LINE
  8
RAILS
 10
210.53
 20
32.38
 11
216.53
 21
32.86
  0
LINE
  8
RAILS
 10
216.53
 20
32.86
 11
222.53
 21
33.36
  0
LINE
  8
RAILS
 10
222.53
 20
33.36
 11
228.53
 21
33.87
  0
LINE
  8
RAILS
 10
228.53
 20
33.87
 11
234.53
 21
34.40
  0
LINE
  8
RAILS
 10
234.53
 20
34.40
 11
240.52
 21
34.94
  0
LINE
  8
RAILS
 10
240.52
 20
34.94
 11
246.52
 21
35.49
  0
LINE
  8
RAILS
 10
246.52
 20
35.49
 11
252.51
 21
36.06
  0
LINE
  8
RAILS
 10
252.51
 20
36.06
 11
258.51
 21
36.64
  0
LINE
  8
RAILS
 10
258.51
 20
36.64
 11
264.50
 21
37.24
  0
LINE
  8
RAILS
 10
264.50
 20
37.24
 11
270.49
 21
37.84
  0
LINE
  8
RAILS
 10
270.49
 20
37.84
 11
276.48
 21
38.47
  0
LINE
  8
RAILS
 10
276.48
 20
38.47
 11
282.47
 21
39.10
  0
LINE
  8
RAILS
 10
282.47
 20
39.10
 11
288.45
 21
39.75
  0
LINE
  8
RAILS
 10
288.45
 20
39.75
 11
294.44
 21
40.41
  0
LINE
  8
RAILS
 10
294.44
 20
40.41
 11
300.42
 21
41.09
  0
LINE
  8
RAILS
 10
300.42
 20
41.09
 11
304.07
 21
41.51
  0
LINE
  8
RAILS
 10
21.30
 20
42.92
 11
27.27
 21
42.97
  0
LINE
  8
RAILS
 10
27.27
 20
42.97
 11
33.25
 21
43.04
  0
LINE
  8
RAILS
 10
33.25
 20
43.04
 11
39.23
 21
43.12
  0
LINE
  8
RAILS
 10
39.23
 20
43.12
 11
45.21
 21
43.22
  0
LINE
  8
RAILS
 10
45.21
 20
43.22
 11
50.52
 21
43.32
  0
LINE
  8
RAILS
 10
50.52
 20
43.32
 11
50.52
 21
43.32
  0
LINE
  8
RAILS
 10
50.52
 20
43.32
 11
56.50
 21
43.44
  0
LINE
  8
RAILS
 10
56.50
 20
43.44
 11
62.48
 21
43.57
  0
LINE
  8
RAILS
 10
62.48
 20
43.57
 11
68.45
 21
43.72
  0
LINE
  8
RAILS
 10
68.45
 20
43.72
 11
74.43
 21
43.88
  0
LINE
  8
RAILS
 10
74.43
 20
43.88
 11
80.40
 21
44.06
  0
LINE
  8
RAILS
 10
80.40
 20
44.06
 11
86.38
 21
44.25
  0
LINE
  8
RAILS
 10
86.38
 20
44.25
 11
92.36
 21
44.45
  0
LINE
  8
RAILS
 10
92.36
 20
44.45
 11
98.33
 21
44.67
  0
LINE
  8
RAILS
 10
98.33
 20
44.67
 11
104.30
 21
44.90
  0
LINE
  8
RAILS
 10
104.30
 20
44.90
 11
110.28
 21
45.14
  0
LINE
  8
RAILS
 10
110.28
 20
45.14
 11
116.25
 21
45.40
  0
LINE
  8
RAILS
 10
116.25
 20
45.40
 11
122.22
 21
45.67
  0
LINE
  8
RAILS
 10
122.22
 20
45.67
 11
128.20
 21
45.96
  0
LINE
  8
RAILS
 10
128.20
 20
45.96
 11
134.17
 21
46.25
  0
LINE
  8
RAILS
 10
134.17
 20
46.25
 11
140.14
 21
46.57
  0
LINE
  8
RAILS
 10
140.14
 20
46.57
 11
146.11
 21
46.89
  0
LINE
  8
RAILS
 10
146.11
 20
46.89
 11
152.08
 21
47.23
  0
LINE
  8
RAILS
 10
152.08
 20
47.23
 11
158.04
 21
47.58
  0
LINE
  8
RAILS
 10
158.04
 20
47.58
 11
164.01
 21
47.95
  0
LINE
  8
RAILS
 10
164.01
 20
47.95
 11
169.98
 21
48.33
  0
LINE
  8
RAILS
 10
169.98
 20
48.33
 11
175.94
 21
48.72
  0
LINE
  8
RAILS
 10
175.94
 20
48.72
 11
181.91
 21
49.13
  0
LINE
  8
RAILS
 10
181.91
 20
49.13
 11
187.87
 21
49.55
  0
LINE
  8
RAILS
 10
187.87
 20
49.55
 11
193.84
 21
49.98
  0
LINE
  8
RAILS
 10
193.84
 20
49.98
 11
199.80
 21
50.43
  0
LINE
  8
RAILS
 10
199.80
 20
50.43
 11
205.76
 21
50.89
  0
LINE
  8
RAILS
 10
205.76
 20
50.89
 11
211.72
 21
51.36
  0
LINE
  8
RAILS
 10
211.72
 20
51.36
 11
217.68
 21
51.85
  0
LINE
  8
RAILS
 10
217.68
 20
51.85
 11
223.63
 21
52.35
  0
LINE
  8
RAILS
 10
223.63
 20
52.35
 11
229.59
 21
52.87
  0
LINE
  8
RAILS
 10
229.59
 20
52.87
 11
235.55
 21
53.40
  0
LINE
  8
RAILS
 10
235.55
 20
53.40
 11
238.72
 21
53.68
  0
LINE
  8
RAILS
 10
238.72
 20
53.68
 11
238.72
 21
53.68
  0
LINE
  8
RAILS
 10
238.72
 20
53.68
 11
244.58
 21
55.23
  0
LINE
  8
RAILS
 10
244.58
 20
55.23
 11
249.18
 21
56.45
  0
LINE
  8
RAILS
 10
249.18
 20
56.45
 11
249.18
 21
56.45
  0
LINE
  8
RAILS
 10
249.18
 20
56.45
 11
255.00
 21
58.32
  0
LINE
  8
RAILS
 10
255.00
 20
58.32
 11
260.57
 21
60.12
  0
LINE
  8
RAILS
 10
21.74
 20
24.10
 11
27.76
 21
24.34
  0
LINE
  8
RAILS
 10
27.76
 20
24.34
 11
33.78
 21
24.60
  0
LINE
  8
RAILS
 10
33.78
 20
24.60
 11
39.80
 21
24.87
  0
LINE
  8
RAILS
 10
39.80
 20
24.87
 11
45.81
 21
25.16
  0
LINE
  8
RAILS
 10
45.81
 20
25.16
 11
51.15
 21
25.42
  0
LINE
  8
RAILS
 10
51.15
 20
25.42
 11
51.15
 21
25.41
  0
LINE
  8
RAILS
 10
51.15
 20
25.41
 11
57.16
 21
25.73
  0
LINE
  8
RAILS
 10
57.16
 20
25.73
 11
63.17
 21
26.07
  0
LINE
  8
RAILS
 10
63.17
 20
26.07
 11
69.18
 21
26.45
  0
LINE
  8
RAILS
 10
69.18
 20
26.45
 11
75.19
 21
26.85
  0
LINE
  8
RAILS
 10
75.19
 20
26.85
 11
81.20
 21
27.28
  0
LINE
  8
RAILS
 10
81.20
 20
27.28
 11
87.20
 21
27.74
  0
LINE
  8
RAILS
 10
87.20
 20
27.74
 11
93.21
 21
28.23
  0
LINE
  8
RAILS
 10
93.21
 20
28.23
 11
99.21
 21
28.75
  0
LINE
  8
RAILS
 10
99.21
 20
28.75
 11
105.21
 21
29.29
  0
LINE
  8
RAILS
 10
105.21
 20
29.29
 11
107.55
 21
29.51
  0
LINE
  8
RAILS
 10
107.55
 20
29.51
 11
107.55
 21
29.51
  0
LINE
  8
RAILS
 10
107.55
 20
29.51
 11
113.55
 21
30.10
  0
LINE
  8
RAILS
 10
113.55
 20
30.10
 11
119.54
 21
30.74
  0
LINE
  8
RAILS
 10
119.54
 20
30.74
 11
125.52
 21
31.42
  0
LINE
  8
RAILS
 10
125.52
 20
31.42
 11
131.50
 21
32.15
  0
LINE
  8
RAILS
 10
131.50
 20
32.15
 11
137.48
 21
32.92
  0
LINE
  8
RAILS
 10
137.48
 20
32.92
 11
143.46
 21
33.73
  0
LINE
  8
RAILS
 10
143.46
 20
33.73
 11
149.43
 21
34.59
  0
LINE
  8
RAILS
 10
149.43
 20
34.59
 11
155.39
 21
35.50
  0
LINE
  8
RAILS
 10
155.39
 20
35.50
 11
161.35
 21
36.45
  0
LINE
  8
RAILS
 10
161.35
 20
36.45
 11
167.30
 21
37.44
  0
LINE
  8
RAILS
 10
167.30
 20
37.44
 11
173.25
 21
38.48
  0
LINE
  8
RAILS
 10
173.25
 20
38.48
 11
179.19
 21
39.56
  0
LINE
  8
RAILS
 10
179.19
 20
39.56
 11
185.13
 21
40.69
  0
LINE
  8
RAILS
 10
185.13
 20
40.69
 11
191.06
 21
41.87
  0
LINE
  8
RAILS
 10
191.06
 20
41.87
 11
196.98
 21
43.08
  0
LINE
  8
RAILS
 10
196.98
 20
43.08
 11
202.89
 21
44.35
  0
LINE
  8
RAILS
 10
202.89
 20
44.35
 11
208.80
 21
45.65
  0
LINE
  8
RAILS
 10
208.80
 20
45.65
 11
214.70
 21
47.01
  0
LINE
  8
RAILS
 10
214.70
 20
47.01
 11
220.59
 21
48.40
  0
LINE
  8
RAILS
 10
220.59
 20
48.40
 11
226.48
 21
49.85
  0
LINE
  8
RAILS
 10
226.48
 20
49.85
 11
232.35
 21
51.33
  0
LINE
  8
RAILS
 10
232.35
 20
51.33
 11
234.90
 21
51.99
  0
LINE
  8
RAILS
 10
234.90
 20
51.99
 11
234.90
 21
51.99
  0
LINE
  8
RAILS
 10
234.90
 20
51.99
 11
238.83
 21
53.02
  0
LINE
  8
RAILS
 10
238.83
 20
53.02
 11
238.83
 21
53.02
  0
LINE
  8
RAILS
 10
238.83
 20
53.02
 11
244.79
 21
53.57
  0
LINE
  8
RAILS
 10
244.79
 20
53.57
 11
249.62
 21
54.03
  0
LINE
  8
RAILS
 10
249.62
 20
54.03
 11
249.62
 21
54.03
  0
LINE
  8
RAILS
 10
249.62
 20
54.03
 11
255.60
 21
54.31
  0
LINE
  8
RAILS
 10
255.60
 20
54.31
 11
261.58
 21
54.61
  0
LINE
  8
RAILS
 10
0.00
 20
42.83
 11
5.98
 21
42.84
  0
LINE
  8
RAILS
 10
5.98
 20
42.84
 11
11.96
 21
42.86
  0
LINE
  8
RAILS
 10
11.96
 20
42.86
 11
17.94
 21
42.89
  0
LINE
  8
RAILS
 10
17.94
 20
42.89
 11
21.30
 21
42.92
  0
LINE
  8
RAILS
 10
21.30
 20
42.92
 11
21.30
 21
42.92
  0
LINE
  8
RAILS
 10
21.30
 20
42.92
 11
27.27
 21
43.16
  0
LINE
  8
RAILS
 10
27.27
 20
43.16
 11
33.25
 21
43.42
  0
LINE
  8
RAILS
 10
33.25
 20
43.42
 11
39.22
 21
43.68
  0
LINE
  8
RAILS
 10
39.22
 20
43.68
 11
45.20
 21
43.97
  0
LINE
  8
RAILS
 10
45.20
 20
43.97
 11
50.20
 21
44.22
  0
LINE
  8
RAILS
 10
50.20
 20
44.22
 11
50.20
 21
44.22
  0
LINE
  8
RAILS
 10
50.20
 20
44.22
 11
56.17
 21
44.53
  0
LINE
  8
RAILS
 10
56.17
 20
44.53
 11
62.14
 21
44.88
  0
LINE
  8
RAILS
 10
62.14
 20
44.88
 11
68.11
 21
45.25
  0
LINE
  8
RAILS
 10
68.11
 20
45.25
 11
74.07
 21
45.65
  0
LINE
  8
RAILS
 10
74.07
 20
45.65
 11
80.04
 21
46.08
  0
LINE
  8
RAILS
 10
80.04
 20
46.08
 11
86.00
 21
46.54
  0
LINE
  8
RAILS
 10
86.00
 20
46.54
 11
91.96
 21
47.02
  0
LINE
  8
RAILS
 10
91.96
 20
47.02
 11
97.92
 21
47.54
  0
LINE
  8
RAILS
 10
97.92
 20
47.54
 11
103.87
 21
48.08
  0
LINE
  8
RAILS
 10
103.87
 20
48.08
 11
105.77
 21
48.26
  0
LINE
  8
RAILS
 10
105.77
 20
48.26
 11
105.77
 21
48.26
  0
LINE
  8
RAILS
 10
105.77
 20
48.26
 11
111.72
 21
48.85
  0
LINE
  8
RAILS
 10
111.72
 20
48.85
 11
117.67
 21
49.48
  0
LINE
  8
RAILS
 10
117.67
 20
49.48
 11
123.62
 21
50.16
  0
LINE
  8
RAILS
 10
123.62
 20
50.16
 11
129.56
 21
50.88
  0
LINE
  8
RAILS
 10
129.56
 20
50.88
 11
135.49
 21
51.65
  0
LINE
  8
RAILS
 10
135.49
 20
51.65
 11
141.42
 21
52.46
  0
LINE
  8
RAILS
 10
141.42
 20
52.46
 11
147.35
 21
53.32
  0
LINE
  8
RAILS
 10
147.35
 20
53.32
 11
153.27
 21
54.23
  0
LINE
  8
RAILS
 10
153.27
 20
54.23
 11
159.19
 21
55.17
  0
LINE
  8
RAILS
 10
159.19
 20
55.17
 11
165.10
 21
56.17
  0
LINE
  8
RAILS
 10
165.10
 20
56.17
 11
171.00
 21
57.21
  0
LINE
  8
RAILS
 10
171.00
 20
57.21
 11
176.90
 21
58.29
  0
LINE
  8
RAILS
 10
176.90
 20
58.29
 11
182.79
 21
59.42
  0
LINE
  8
RAILS
 10
182.79
 20
59.42
 11
188.68
 21
60.60
  0
LINE
  8
RAILS
 10
188.68
 20
60.60
 11
194.56
 21
61.82
  0
LINE
  8
RAILS
 10
194.56
 20
61.82
 11
200.43
 21
63.08
  0
LINE
  8
RAILS
 10
200.43
 20
63.08
 11
206.30
 21
64.39
  0
LINE
  8
RAILS
 10
206.30
 20
64.39
 11
212.15
 21
65.75
  0
LINE
  8
RAILS
 10
212.15
 20
65.75
 11
218.00
 21
67.15
  0
LINE
  8
RAILS
 10
218.00
 20
67.15
 11
223.85
 21
68.60
  0
LINE
  8
RAILS
 10
223.85
 20
68.60
 11
229.68
 21
70.09
  0
LINE
  8
RAILS
 10
229.68
 20
70.09
 11
230.19
 21
70.22
  0
LINE
  8
RAILS
 10
230.19
 20
70.22
 11
230.19
 21
70.22
  0
LINE
  8
RAILS
 10
230.19
 20
70.22
 11
236.02
 21
71.75
  0
LINE
  8
RAILS
 10
236.02
 20
71.75
 11
241.84
 21
73.29
  0
LINE
  8
RAILS
 10
241.84
 20
73.29
 11
247.65
 21
74.84
  0
LINE
  8
RAILS
 10
247.65
 20
74.84
 11
253.46
 21
76.40
  0
LINE
  8
RAILS
 10
253.46
 20
76.40
 11
259.26
 21
77.98
  0
LINE
  8
RAILS
 10
259.26
 20
77.98
 11
265.06
 21
79.57
  0
LINE
  8
RAILS
 10
265.06
 20
79.57
 11
270.85
 21
81.18
  0
LINE
  8
RAILS
 10
270.85
 20
81.18
 11
276.63
 21
82.79
  0
LINE
  8
RAILS
 10
276.63
 20
82.79
 11
282.41
 21
84.42
  0
LINE
  8
RAILS
 10
282.41
 20
84.42
 11
284.76
 21
85.09
  0
LINE
  8
RAILS
 10
244.26
 20
54.20
 11
250.22
 21
54.76
  0
LINE
  8
RAILS
 10
250.22
 20
54.76
 11
256.17
 21
55.33
  0
LINE
  8
RAILS
 10
256.17
 20
55.33
 11
262.12
 21
55.92
  0
LINE
  8
RAILS
 10
262.12
 20
55.92
 11
268.06
 21
56.52
  0
LINE
  8
RAILS
 10
268.06
 20
56.52
 11
274.01
 21
57.14
  0
LINE
  8
RAILS
 10
274.01
 20
57.14
 11
279.96
 21
57.77
  0
LINE
  8
RAILS
 10
279.96
 20
57.77
 11
285.90
 21
58.41
  0
LINE
  8
RAILS
 10
285.90
 20
58.41
 11
291.84
 21
59.07
  0
LINE
  8
RAILS
 10
291.84
 20
59.07
 11
297.78
 21
59.74
  0
LINE
  8
RAILS
 10
297.78
 20
59.74
 11
301.91
 21
60.21
  0
LINE
  8
RAILS
 10
244.22
 20
54.44
 11
250.08
 21
56.00
  0
LINE
  8
RAILS
 10
250.08
 20
56.00
 11
255.93
 21
57.57
  0
LINE
  8
RAILS
 10
255.93
 20
57.57
 11
261.77
 21
59.16
  0
LINE
  8
RAILS
 10
261.77
 20
59.16
 11
267.61
 21
60.75
  0
LINE
  8
RAILS
 10
267.61
 20
60.75
 11
273.44
 21
62.36
  0
LINE
  8
RAILS
 10
273.44
 20
62.36
 11
279.27
 21
63.98
  0
LINE
  8
RAILS
 10
279.27
 20
63.98
 11
285.09
 21
65.62
  0
LINE
  8
RAILS
 10
285.09
 20
65.62
 11
289.84
 21
66.97
  0
LINE
  8
RAILS
 10
212.77
 20
33.81
 11
218.80
 21
34.01
  0
LINE
  8
RAILS
 10
218.80
 20
34.01
 11
224.82
 21
34.23
  0
LINE
  8
RAILS
 10
224.82
 20
34.23
 11
224.82
 21
34.23
  0
LINE
  8
RAILS
 10
224.82
 20
34.23
 11
230.82
 21
34.75
  0
LINE
  8
RAILS
 10
230.82
 20
34.75
 11
236.81
 21
35.28
  0
LINE
  8
RAILS
 10
236.81
 20
35.28
 11
242.81
 21
35.82
  0
LINE
  8
RAILS
 10
242.81
 20
35.82
 11
248.80
 21
36.38
  0
LINE
  8
RAILS
 10
248.80
 20
36.38
 11
252.80
 21
36.76
  0
LINE
  8
RAILS
 10
252.80
 20
36.76
 11
252.80
 21
36.76
  0
LINE
  8
RAILS
 10
252.80
 20
36.76
 11
258.76
 21
37.63
  0
LINE
  8
RAILS
 10
258.76
 20
37.63
 11
264.72
 21
38.52
  0
LINE
  8
RAILS
 10
207.89
 20
63.47
 11
213.72
 21
65.13
  0
LINE
  8
RAILS
 10
213.72
 20
65.13
 11
219.33
 21
66.78
  0
LINE
  8
RAILS
 10
219.33
 20
66.78
 11
219.33
 21
66.78
  0
LINE
  8
RAILS
 10
219.33
 20
66.78
 11
225.18
 21
68.24
  0
LINE
  8
RAILS
 10
225.18
 20
68.24
 11
231.01
 21
69.74
  0
LINE
  8
RAILS
 10
231.01
 20
69.74
 11
236.83
 21
71.27
  0
LINE
  8
RAILS
 10
236.83
 20
71.27
 11
238.17
 21
71.62
  0
LINE
  8
RAILS
 10
238.17
 20
71.62
 11
238.17
 21
71.62
  0
LINE
  8
RAILS
 10
238.17
 20
71.62
 11
243.98
 21
73.16
  0
LINE
  8
RAILS
 10
243.98
 20
73.16
 11
246.17
 21
73.75
  0
LINE
  8
RAILS
 10
246.17
 20
73.75
 11
246.17
 21
73.75
  0
LINE
  8
RAILS
 10
246.17
 20
73.75
 11
252.01
 21
75.01
  0
LINE
  8
RAILS
 10
252.01
 20
75.01
 11
257.78
 21
76.28
  0
LINE
  8
RAILS
 10
0.00
 20
23.08
 11
6.02
 21
23.09
  0
LINE
  8
RAILS
 10
6.02
 20
23.09
 11
12.05
 21
23.11
  0
LINE
  8
RAILS
 10
12.05
 20
23.11
 11
18.07
 21
23.14
  0
LINE
  8
RAILS
 10
18.07
 20
23.14
 11
24.09
 21
23.19
  0
LINE
  8
RAILS
 10
24.09
 20
23.19
 11
30.12
 21
23.25
  0
LINE
  8
RAILS
 10
30.12
 20
23.25
 11
36.14
 21
23.33
  0
LINE
  8
RAILS
 10
36.14
 20
23.33
 11
42.16
 21
23.42
  0
LINE
  8
RAILS
 10
42.16
 20
23.42
 11
48.19
 21
23.52
  0
LINE
  8
RAILS
 10
48.19
 20
23.52
 11
54.21
 21
23.64
  0
LINE
  8
RAILS
 10
54.21
 20
23.64
 11
60.23
 21
23.77
  0
LINE
  8
RAILS
 10
60.23
 20
23.77
 11
66.25
 21
23.91
  0
LINE
  8
RAILS
 10
66.25
 20
23.91
 11
72.27
 21
24.07
  0
LINE
  8
RAILS
 10
72.27
 20
24.07
 11
78.29
 21
24.24
  0
LINE
  8
RAILS
 10
78.29
 20
24.24
 11
84.31
 21
24.42
  0
LINE
  8
RAILS
 10
84.31
 20
24.42
 11
90.33
 21
24.62
  0
LINE
  8
RAILS
 10
90.33
 20
24.62
 11
96.35
 21
24.84
  0
LINE
  8
RAILS
 10
96.35
 20
24.84
 11
102.37
 21
25.06
  0
LINE
  8
RAILS
 10
102.37
 20
25.06
 11
108.39
 21
25.30
  0
LINE
  8
RAILS
 10
108.39
 20
25.30
 11
114.41
 21
25.55
  0
LINE
  8
RAILS
 10
114.41
 20
25.55
 11
120.43
 21
25.82
  0
LINE
  8
RAILS
 10
120.43
 20
25.82
 11
126.45
 21
26.10
  0
LINE
  8
RAILS
 10
126.45
 20
26.10
 11
132.46
 21
26.40
  0
LINE
  8
RAILS
 10
132.46
 20
26.40
 11
138.48
 21
26.70
  0
LINE
  8
RAILS
 10
138.48
 20
26.70
 11
144.49
 21
27.02
  0
LINE
  8
RAILS
 10
144.49
 20
27.02
 11
150.51
 21
27.36
  0
LINE
  8
RAILS
 10
150.51
 20
27.36
 11
156.52
 21
27.71
  0
LINE
  8
RAILS
 10
156.52
 20
27.71
 11
162.53
 21
28.07
  0
LINE
  8
RAILS
 10
162.53
 20
28.07
 11
168.54
 21
28.45
  0
LINE
  8
RAILS
 10
168.54
 20
28.45
 11
174.55
 21
28.84
  0
LINE
  8
RAILS
 10
174.55
 20
28.84
 11
180.56
 21
29.24
  0
LINE
  8
RAILS
 10
180.56
 20
29.24
 11
186.57
 21
29.66
  0
LINE
  8
RAILS
 10
186.57
 20
29.66
 11
192.58
 21
30.09
  0
LINE
  8
RAILS
 10
192.58
 20
30.09
 11
198.59
 21
30.53
  0
LINE
  8
RAILS
 10
198.59
 20
30.53
 11
204.59
 21
30.99
  0
LINE
  8
RAILS
 10
204.59
 20
30.99
 11
210.60
 21
31.46
  0
LINE
  8
RAILS
 10
210.60
 20
31.46
 11
216.60
 21
31.95
  0
LINE
  8
RAILS
 10
216.60
 20
31.95
 11
222.61
 21
32.45
  0
LINE
  8
RAILS
 10
222.61
 20
32.45
 11
228.61
 21
32.96
  0
LINE
  8
RAILS
 10
228.61
 20
32.96
 11
234.61
 21
33.49
  0
LINE
  8
RAILS
 10
234.61
 20
33.49
 11
240.61
 21
34.03
  0
LINE
  8
RAILS
 10
240.61
 20
34.03
 11
246.61
 21
34.58
  0
LINE
  8
RAILS
 10
246.61
 20
34.58
 11
252.60
 21
35.15
  0
LINE
  8
RAILS
 10
252.60
 20
35.15
 11
258.60
 21
35.73
  0
LINE
  8
RAILS
 10
258.60
 20
35.73
 11
264.59
 21
36.32
  0
LINE
  8
RAILS
 10
264.59
 20
36.32
 11
270.58
 21
36.93
  0
LINE
  8
RAILS
 10
270.58
 20
36.93
 11
276.58
 21
37.55
  0
LINE
  8
RAILS
 10
276.58
 20
37.55
 11
282.57
 21
38.19
  0
LINE
  8
RAILS
 10
282.57
 20
38.19
 11
288.55
 21
38.84
  0
LINE
  8
RAILS
 10
288.55
 20
38.84
 11
294.54
 21
39.50
  0
LINE
  8
RAILS
 10
294.54
 20
39.50
 11
300.53
 21
40.18
  0
LINE
  8
RAILS
 10
300.53
 20
40.18
 11
304.18
 21
40.60
  0
LINE
  8
RAILS
 10
50.50
 20
44.23
 11
56.48
 21
44.35
  0
LINE
  8
RAILS
 10
56.48
 20
44.35
 11
62.45
 21
44.49
  0
LINE
  8
RAILS
 10
62.45
 20
44.49
 11
68.43
 21
44.64
  0
LINE
  8
RAILS
 10
68.43
 20
44.64
 11
74.40
 21
44.80
  0
LINE
  8
RAILS
 10
74.40
 20
44.80
 11
80.38
 21
44.98
  0
LINE
  8
RAILS
 10
80.38
 20
44.98
 11
86.35
 21
45.16
  0
LINE
  8
RAILS
 10
86.35
 20
45.16
 11
92.32
 21
45.37
  0
LINE
  8
RAILS
 10
92.32
 20
45.37
 11
98.30
 21
45.58
  0
LINE
  8
RAILS
 10
98.30
 20
45.58
 11
104.27
 21
45.81
  0
LINE
  8
RAILS
 10
104.27
 20
45.81
 11
110.24
 21
46.06
  0
LINE
  8
RAILS
 10
110.24
 20
46.06
 11
116.21
 21
46.32
  0
LINE
  8
RAILS
 10
116.21
 20
46.32
 11
122.18
 21
46.59
  0
LINE
  8
RAILS
 10
122.18
 20
46.59
 11
128.15
 21
46.87
  0
LINE
  8
RAILS
 10
128.15
 20
46.87
 11
134.12
 21
47.17
  0
LINE
  8
RAILS
 10
134.12
 20
47.17
 11
140.09
 21
47.48
  0
LINE
  8
RAILS
 10
140.09
 20
47.48
 11
146.06
 21
47.81
  0
LINE
  8
RAILS
 10
146.06
 20
47.81
 11
152.02
 21
48.14
  0
LINE
  8
RAILS
 10
152.02
 20
48.14
 11
157.99
 21
48.50
  0
LINE
  8
RAILS
 10
157.99
 20
48.50
 11
163.95
 21
48.86
  0
LINE
  8
RAILS
 10
163.95
 20
48.86
 11
169.92
 21
49.24
  0
LINE
  8
RAILS
 10
169.92
 20
49.24
 11
175.88
 21
49.64
  0
LINE
  8
RAILS
 10
175.88
 20
49.64
 11
181.84
 21
50.04
  0
LINE
  8
RAILS
 10
181.84
 20
50.04
 11
187.81
 21
50.46
  0
LINE
  8
RAILS
 10
187.81
 20
50.46
 11
193.77
 21
50.90
  0
LINE
  8
RAILS
 10
193.77
 20
50.90
 11
199.73
 21
51.34
  0
LINE
  8
RAILS
 10
199.73
 20
51.34
 11
205.69
 21
51.80
  0
LINE
  8
RAILS
 10
205.69
 20
51.80
 11
211.64
 21
52.28
  0
LINE
  8
RAILS
 10
211.64
 20
52.28
 11
217.60
 21
52.77
  0
LINE
  8
RAILS
 10
217.60
 20
52.77
 11
223.56
 21
53.27
  0
LINE
  8
RAILS
 10
223.56
 20
53.27
 11
229.51
 21
53.78
  0
LINE
  8
RAILS
 10
229.51
 20
53.78
 11
235.46
 21
54.31
  0
LINE
  8
RAILS
 10
235.46
 20
54.31
 11
238.56
 21
54.59
  0
LINE
  8
RAILS
 10
238.56
 20
54.59
 11
238.56
 21
54.59
  0
LINE
  8
RAILS
 10
238.56
 20
54.59
 11
244.42
 21
56.13
  0
LINE
  8
RAILS
 10
244.42
 20
56.13
 11
248.93
 21
57.33
  0
LINE
  8
RAILS
 10
248.93
 20
57.33
 11
248.93
 21
57.33
  0
LINE
  8
RAILS
 10
248.93
 20
57.33
 11
254.75
 21
59.20
  0
LINE
  8
RAILS
 10
254.75
 20
59.20
 11
260.29
 21
61.00
  0
LINE
  8
RAILS
 10
51.19
 20
24.49
 11
57.21
 21
24.81
  0
LINE
  8
RAILS
 10
57.21
 20
24.81
 11
63.22
 21
25.16
  0
LINE
  8
RAILS
 10
63.22
 20
25.16
 11
69.24
 21
25.53
  0
LINE
  8
RAILS
 10
69.24
 20
25.53
 11
75.25
 21
25.94
  0
LINE
  8
RAILS
 10
75.25
 20
25.94
 11
81.26
 21
26.37
  0
LINE
  8
RAILS
 10
81.26
 20
26.37
 11
87.26
 21
26.83
  0
LINE
  8
RAILS
 10
87.26
 20
26.83
 11
93.27
 21
27.32
  0
LINE
  8
RAILS
 10
93.27
 20
27.32
 11
99.27
 21
27.83
  0
LINE
  8
RAILS
 10
99.27
 20
27.83
 11
105.27
 21
28.38
  0
LINE
  8
RAILS
 10
105.27
 20
28.38
 11
107.64
 21
28.60
  0
LINE
  8
RAILS
 10
107.64
 20
28.60
 11
107.64
 21
28.60
  0
LINE
  8
RAILS
 10
107.64
 20
28.60
 11
113.63
 21
29.19
  0
LINE
  8
RAILS
 10
113.63
 20
29.19
 11
119.63
 21
29.83
  0
LINE
  8
RAILS
 10
119.63
 20
29.83
 11
125.62
 21
30.51
  0
LINE
  8
RAILS
 10
125.62
 20
30.51
 11
131.60
 21
31.24
  0
LINE
  8
RAILS
 10
131.60
 20
31.24
 11
137.58
 21
32.01
  0
LINE
  8
RAILS
 10
137.58
 20
32.01
 11
143.56
 21
32.82
  0
LINE
  8
RAILS
 10
143.56
 20
32.82
 11
149.53
 21
33.68
  0
LINE
  8
RAILS
 10
149.53
 20
33.68
 11
155.49
 21
34.59
  0
LINE
  8
RAILS
 10
155.49
 20
34.59
 11
161.45
 21
35.54
  0
LINE
  8
RAILS
 10
161.45
 20
35.54
 11
167.41
 21
36.53
  0
LINE
  8
RAILS
 10
167.41
 20
36.53
 11
173.36
 21
37.57
  0
LINE
  8
RAILS
 10
173.36
 20
37.57
 11
179.30
 21
38.65
  0
LINE
  8
RAILS
 10
179.30
 20
38.65
 11
185.24
 21
39.78
  0
LINE
  8
RAILS
 10
185.24
 20
39.78
 11
191.17
 21
40.95
  0
LINE
  8
RAILS
 10
191.17
 20
40.95
 11
197.10
 21
42.17
  0
LINE
  8
RAILS
 10
197.10
 20
42.17
 11
203.01
 21
43.43
  0
LINE
  8
RAILS
 10
203.01
 20
43.43
 11
208.92
 21
44.74
  0
LINE
  8
RAILS
 10
208.92
 20
44.74
 11
214.83
 21
46.09
  0
LINE
  8
RAILS
 10
214.83
 20
46.09
 11
220.72
 21
47.49
  0
LINE
  8
RAILS
 10
220.72
 20
47.49
 11
226.61
 21
48.93
  0
LINE
  8
RAILS
 10
226.61
 20
48.93
 11
232.49
 21
50.42
  0
LINE
  8
RAILS
 10
232.49
 20
50.42
 11
235.13
 21
51.11
  0
LINE
  8
RAILS
 10
235.13
 20
51.11
 11
235.13
 21
51.11
  0
LINE
  8
RAILS
 10
235.13
 20
51.11
 11
238.99
 21
52.12
  0
LINE
  8
RAILS
 10
238.99
 20
52.12
 11
238.99
 21
52.12
  0
LINE
  8
RAILS
 10
238.99
 20
52.12
 11
244.95
 21
52.67
  0
LINE
  8
RAILS
 10
244.95
 20
52.67
 11
249.68
 21
53.11
  0
LINE
  8
RAILS
 10
249.68
 20
53.11
 11
249.68
 21
53.11
  0
LINE
  8
RAILS
 10
249.68
 20
53.11
 11
255.67
 21
53.40
  0
LINE
  8
RAILS
 10
255.67
 20
53.40
 11
261.63
 21
53.69
  0
LINE
  8
RAILS
 10
0.00
 20
43.75
 11
5.98
 21
43.75
  0
LINE
  8
RAILS
 10
5.98
 20
43.75
 11
11.95
 21
43.77
  0
LINE
  8
RAILS
 10
11.95
 20
43.77
 11
17.93
 21
43.81
  0
LINE
  8
RAILS
 10
17.93
 20
43.81
 11
21.27
 21
43.83
  0
LINE
  8
RAILS
 10
21.27
 20
43.83
 11
21.27
 21
43.83
  0
LINE
  8
RAILS
 10
21.27
 20
43.83
 11
27.25
 21
44.08
  0
LINE
  8
RAILS
 10
27.25
 20
44.08
 11
33.22
 21
44.33
  0
LINE
  8
RAILS
 10
33.22
 20
44.33
 11
39.19
 21
44.60
  0
LINE
  8
RAILS
 10
39.19
 20
44.60
 11
45.17
 21
44.88
  0
LINE
  8
RAILS
 10
45.17
 20
44.88
 11
50.15
 21
45.13
  0
LINE
  8
RAILS
 10
50.15
 20
45.13
 11
50.15
 21
45.13
  0
LINE
  8
RAILS
 10
50.15
 20
45.13
 11
56.12
 21
45.45
  0
LINE
  8
RAILS
 10
56.12
 20
45.45
 11
62.09
 21
45.79
  0
LINE
  8
RAILS
 10
62.09
 20
45.79
 11
68.05
 21
46.16
  0
LINE
  8
RAILS
 10
68.05
 20
46.16
 11
74.02
 21
46.56
  0
LINE
  8
RAILS
 10
74.02
 20
46.56
 11
79.98
 21
46.99
  0
LINE
  8
RAILS
 10
79.98
 20
46.99
 11
85.94
 21
47.45
  0
LINE
  8
RAILS
 10
85.94
 20
47.45
 11
91.90
 21
47.94
  0
LINE
  8
RAILS
 10
91.90
 20
47.94
 11
97.85
 21
48.45
  0
LINE
  8
RAILS
 10
97.85
 20
48.45
 11
103.81
 21
48.99
  0
LINE
  8
RAILS
 10
103.81
 20
48.99
 11
105.69
 21
49.17
  0
LINE
  8
RAILS
 10
105.69
 20
49.17
 11
105.69
 21
49.17
  0
LINE
  8
RAILS
 10
105.69
 20
49.17
 11
111.64
 21
49.76
  0
LINE
  8
RAILS
 10
111.64
 20
49.76
 11
117.58
 21
50.39
  0
LINE
  8
RAILS
 10
117.58
 20
50.39
 11
123.52
 21
51.07
  0
LINE
  8
RAILS
 10
123.52
 20
51.07
 11
129.46
 21
51.79
  0
LINE
  8
RAILS
 10
129.46
 20
51.79
 11
135.39
 21
52.56
  0
LINE
  8
RAILS
 10
135.39
 20
52.56
 11
141.32
 21
53.38
  0
LINE
  8
RAILS
 10
141.32
 20
53.38
 11
147.25
 21
54.23
  0
LINE
  8
RAILS
 10
147.25
 20
54.23
 11
153.17
 21
55.14
  0
LINE
  8
RAILS
 10
153.17
 20
55.14
 11
159.08
 21
56.09
  0
LINE
  8
RAILS
 10
159.08
 20
56.09
 11
164.99
 21
57.08
  0
LINE
  8
RAILS
 10
164.99
 20
57.08
 11
170.89
 21
58.12
  0
LINE
  8
RAILS
 10
170.89
 20
58.12
 11
176.79
 21
59.20
  0
LINE
  8
RAILS
 10
176.79
 20
59.20
 11
182.68
 21
60.33
  0
LINE
  8
RAILS
 10
182.68
 20
60.33
 11
188.56
 21
61.51
  0
LINE
  8
RAILS
 10
188.56
 20
61.51
 11
194.44
 21
62.73
  0
LINE
  8
RAILS
 10
194.44
 20
62.73
 11
200.31
 21
63.99
  0
LINE
  8
RAILS
 10
200.31
 20
63.99
 11
206.18
 21
65.30
  0
LINE
  8
RAILS
 10
206.18
 20
65.30
 11
212.03
 21
66.66
  0
LINE
  8
RAILS
 10
212.03
 20
66.66
 11
217.88
 21
68.06
  0
LINE
  8
RAILS
 10
217.88
 20
68.06
 11
223.72
 21
69.51
  0
LINE
  8
RAILS
 10
223.72
 20
69.51
 11
229.55
 21
71.00
  0
LINE
  8
RAILS
 10
229.55
 20
71.00
 11
229.96
 21
71.11
  0
LINE
  8
RAILS
 10
229.96
 20
71.11
 11
229.96
 21
71.11
  0
LINE
  8
RAILS
 10
229.96
 20
71.11
 11
235.79
 21
72.63
  0
LINE
  8
RAILS
 10
235.79
 20
72.63
 11
241.60
 21
74.17
  0
LINE
  8
RAILS
 10
241.60
 20
74.17
 11
247.42
 21
75.72
  0
LINE
  8
RAILS
 10
247.42
 20
75.72
 11
253.22
 21
77.29
  0
LINE
  8
RAILS
 10
253.22
 20
77.29
 11
259.02
 21
78.87
  0
LINE
  8
RAILS
 10
259.02
 20
78.87
 11
264.82
 21
80.46
  0
LINE
  8
RAILS
 10
264.82
 20
80.46
 11
270.61
 21
82.06
  0
LINE
  8
RAILS
 10
270.61
 20
82.06
 11
276.39
 21
83.67
  0
LINE
  8
RAILS
 10
276.39
 20
83.67
 11
282.17
 21
85.30
  0
LINE
  8
RAILS
 10
282.17
 20
85.30
 11
284.51
 21
85.97
  0
LINE
  8
RAILS
 10
253.66
 20
56.01
 11
259.61
 21
56.59
  0
LINE
  8
RAILS
 10
259.61
 20
56.59
 11
265.55
 21
57.19
  0
LINE
  8
RAILS
 10
265.55
 20
57.19
 11
271.50
 21
57.80
  0
LINE
  8
RAILS
 10
271.50
 20
57.80
 11
277.44
 21
58.42
  0
LINE
  8
RAILS
 10
277.44
 20
58.42
 11
283.39
 21
59.06
  0
LINE
  8
RAILS
 10
283.39
 20
59.06
 11
289.33
 21
59.71
  0
LINE
  8
RAILS
 10
289.33
 20
59.71
 11
295.27
 21
60.38
  0
LINE
  8
RAILS
 10
295.27
 20
60.38
 11
301.20
 21
61.05
  0
LINE
  8
RAILS
 10
301.20
 20
61.05
 11
301.80
 21
61.12
  0
LINE
  8
RAILS
 10
253.66
 20
56.01
 11
259.51
 21
57.59
  0
LINE
  8
RAILS
 10
259.51
 20
57.59
 11
265.35
 21
59.18
  0
LINE
  8
RAILS
 10
265.35
 20
59.18
 11
271.19
 21
60.78
  0
LINE
  8
RAILS
 10
271.19
 20
60.78
 11
277.02
 21
62.40
  0
LINE
  8
RAILS
 10
277.02
 20
62.40
 11
282.85
 21
64.03
  0
LINE
  8
RAILS
 10
282.85
 20
64.03
 11
288.67
 21
65.68
  0
LINE
  8
RAILS
 10
288.67
 20
65.68
 11
290.09
 21
66.08
  0
LINE
  8
RAILS
 10
212.75
 20
34.73
 11
218.77
 21
34.93
  0
LINE
  8
RAILS
 10
218.77
 20
34.93
 11
224.76
 21
35.14
  0
LINE
  8
RAILS
 10
224.76
 20
35.14
 11
224.76
 21
35.14
  0
LINE
  8
RAILS
 10
224.76
 20
35.14
 11
230.76
 21
35.66
  0
LINE
  8
RAILS
 10
230.76
 20
35.66
 11
236.75
 21
36.19
  0
LINE
  8
RAILS
 10
236.75
 20
36.19
 11
242.75
 21
36.74
  0
LINE
  8
RAILS
 10
242.75
 20
36.74
 11
248.74
 21
37.30
  0
LINE
  8
RAILS
 10
248.74
 20
37.30
 11
252.69
 21
37.67
  0
LINE
  8
RAILS
 10
252.69
 20
37.67
 11
252.69
 21
37.67
  0
LINE
  8
RAILS
 10
252.69
 20
37.67
 11
258.65
 21
38.54
  0
LINE
  8
RAILS
 10
258.65
 20
38.54
 11
264.59
 21
39.42
  0
LINE
  8
RAILS
 10
208.13
 20
62.58
 11
213.97
 21
64.25
  0
LINE
  8
RAILS
 10
213.97
 20
64.25
 11
219.57
 21
65.90
  0
LINE
  8
RAILS
 10
219.57
 20
65.90
 11
219.57
 21
65.90
  0
LINE
  8
RAILS
 10
219.57
 20
65.90
 11
225.41
 21
67.35
  0
LINE
  8
RAILS
 10
225.41
 20
67.35
 11
231.25
 21
68.86
  0
LINE
  8
RAILS
 10
231.25
 20
68.86
 11
237.08
 21
70.39
  0
LINE
  8
RAILS
 10
237.08
 20
70.39
 11
238.40
 21
70.73
  0
LINE
  8
RAILS
 10
238.40
 20
70.73
 11
238.40
 21
70.73
  0
LINE
  8
RAILS
 10
238.40
 20
70.73
 11
244.22
 21
72.28
  0
LINE
  8
RAILS
 10
244.22
 20
72.28
 11
246.38
 21
72.86
  0
LINE
  8
RAILS
 10
246.38
 20
72.86
 11
246.38
 21
72.86
  0
LINE
  8
RAILS
 10
246.38
 20
72.86
 11
252.23
 21
74.12
  0
LINE
  8
RAILS
 10
252.23
 20
74.12
 11
257.98
 21
75.38
  0
LINE
  8
RAILS
 10
260.57
 20
60.12
 11
260.29
 21
61.00
  0
LINE
  8
RAILS
 10
261.58
 20
54.61
 11
261.63
 21
53.69
  0
LINE
  8
RAILS
 10
212.77
 20
33.81
 11
212.75
 21
34.73
  0
LINE
  8
RAILS
 10
264.72
 20
38.52
 11
264.59
 21
39.42
  0
LINE
  8
RAILS
 10
207.89
 20
63.47
 11
208.13
 21
62.58
  0
LINE
  8
RAILS
 10
257.78
 20
76.28
 11
257.98
 21
75.38
  0
LINE
  8
RAILS
 10
244.26
 20
54.20
 11
244.22
 21
54.44
  0
ENDSEC
  0
EOF
