  0
SECTION
  2
HEADER
  9
$ACADVER
  1
AC1014
  9
$ACADMAINTVER
 70
     9
  9
$DWGCODEPAGE
  3
ANSI_1252
  9
$INSBASE
 10
0.0
 20
0.0
 30
0.0
  9
$EXTMIN
 10
5.070427543241599
 20
1.405697252702781
 30
0.0
  9
$EXTMAX
 10
206.2093448699207
 20
108.398712899026
 30
0.0
  9
$LIMMIN
 10
0.0
 20
0.0
  9
$LIMMAX
 10
12.0
 20
9.0
  9
$ORTHOMODE
 70
     0
  9
$REGENMODE
 70
     1
  9
$FILLMODE
 70
     1
  9
$QTEXTMODE
 70
     0
  9
$MIRRTEXT
 70
     1
  9
$DRAGMODE
 70
     2
  9
$LTSCALE
 40
1.0
  9
$OSMODE
 70
    37
  9
$ATTMODE
 70
     1
  9
$TEXTSIZE
 40
0.2
  9
$TRACEWID
 40
0.05
  9
$TEXTSTYLE
  7
STANDARD
  9
$CLAYER
  8
0
  9
$CELTYPE
  6
BYLAYER
  9
$CECOLOR
 62
   256
  9
$CELTSCALE
 40
1.0
  9
$DELOBJ
 70
     1
  9
$DISPSILH
 70
     0
  9
$DIMSCALE
 40
1.0
  9
$DIMASZ
 40
0.18
  9
$DIMEXO
 40
0.0625
  9
$DIMDLI
 40
0.38
  9
$DIMRND
 40
0.0
  9
$DIMDLE
 40
0.0
  9
$DIMEXE
 40
0.18
  9
$DIMTP
 40
0.0
  9
$DIMTM
 40
0.0
  9
$DIMTXT
 40
0.18
  9
$DIMCEN
 40
0.09
  9
$DIMTSZ
 40
0.0
  9
$DIMTOL
 70
     0
  9
$DIMLIM
 70
     0
  9
$DIMTIH
 70
     1
  9
$DIMTOH
 70
     1
  9
$DIMSE1
 70
     0
  9
$DIMSE2
 70
     0
  9
$DIMTAD
 70
     0
  9
$DIMZIN
 70
     0
  9
$DIMBLK
  1

  9
$DIMASO
 70
     1
  9
$DIMSHO
 70
     1
  9
$DIMPOST
  1

  9
$DIMAPOST
  1

  9
$DIMALT
 70
     0
  9
$DIMALTD
 70
     2
  9
$DIMALTF
 40
25.4
  9
$DIMLFAC
 40
1.0
  9
$DIMTOFL
 70
     0
  9
$DIMTVP
 40
0.0
  9
$DIMTIX
 70
     0
  9
$DIMSOXD
 70
     0
  9
$DIMSAH
 70
     0
  9
$DIMBLK1
  1

  9
$DIMBLK2
  1

  9
$DIMSTYLE
  2
STANDARD
  9
$DIMCLRD
 70
     0
  9
$DIMCLRE
 70
     0
  9
$DIMCLRT
 70
     0
  9
$DIMTFAC
 40
1.0
  9
$DIMGAP
 40
0.09
  9
$DIMJUST
 70
     0
  9
$DIMSD1
 70
     0
  9
$DIMSD2
 70
     0
  9
$DIMTOLJ
 70
     1
  9
$DIMTZIN
 70
     0
  9
$DIMALTZ
 70
     0
  9
$DIMALTTZ
 70
     0
  9
$DIMFIT
 70
     3
  9
$DIMUPT
 70
     0
  9
$DIMUNIT
 70
     2
  9
$DIMDEC
 70
     4
  9
$DIMTDEC
 70
     4
  9
$DIMALTU
 70
     2
  9
$DIMALTTD
 70
     2
  9
$DIMTXSTY
  7
STANDARD
  9
$DIMAUNIT
 70
     0
  9
$LUNITS
 70
     2
  9
$LUPREC
 70
     4
  9
$SKETCHINC
 40
0.1
  9
$FILLETRAD
 40
0.5
  9
$AUNITS
 70
     0
  9
$AUPREC
 70
     0
  9
$MENU
  1
.
  9
$ELEVATION
 40
0.0
  9
$PELEVATION
 40
0.0
  9
$THICKNESS
 40
0.0
  9
$LIMCHECK
 70
     0
  9
$BLIPMODE
 70
     0
  9
$CHAMFERA
 40
0.5
  9
$CHAMFERB
 40
0.5
  9
$CHAMFERC
 40
1.0
  9
$CHAMFERD
 40
0.0
  9
$SKPOLY
 70
     0
  9
$TDCREATE
 40
2454377.860709444
  9
$TDUPDATE
 40
2454377.863338032
  9
$TDINDWG
 40
0.0026289468
  9
$TDUSRTIMER
 40
0.0026289468
  9
$USRTIMER
 70
     1
  9
$ANGBASE
 50
0.0
  9
$ANGDIR
 70
     0
  9
$PDMODE
 70
     0
  9
$PDSIZE
 40
0.0
  9
$PLINEWID
 40
0.0
  9
$COORDS
 70
     1
  9
$SPLFRAME
 70
     0
  9
$SPLINETYPE
 70
     6
  9
$SPLINESEGS
 70
     8
  9
$ATTDIA
 70
     0
  9
$ATTREQ
 70
     1
  9
$HANDLING
 70
 10241
  9
$HANDSEED
  5
D8
  9
$SURFTAB1
 70
     6
  9
$SURFTAB2
 70
     6
  9
$SURFTYPE
 70
     6
  9
$SURFU
 70
     6
  9
$SURFV
 70
     6
  9
$UCSNAME
  2

  9
$UCSORG
 10
0.0
 20
0.0
 30
0.0
  9
$UCSXDIR
 10
1.0
 20
0.0
 30
0.0
  9
$UCSYDIR
 10
0.0
 20
1.0
 30
0.0
  9
$PUCSNAME
  2

  9
$PUCSORG
 10
0.0
 20
0.0
 30
0.0
  9
$PUCSXDIR
 10
1.0
 20
0.0
 30
0.0
  9
$PUCSYDIR
 10
0.0
 20
1.0
 30
0.0
  9
$USERI1
 70
     0
  9
$USERI2
 70
     0
  9
$USERI3
 70
     0
  9
$USERI4
 70
     0
  9
$USERI5
 70
     0
  9
$USERR1
 40
0.0
  9
$USERR2
 40
0.0
  9
$USERR3
 40
0.0
  9
$USERR4
 40
0.0
  9
$USERR5
 40
0.0
  9
$WORLDVIEW
 70
     1
  9
$SHADEDGE
 70
     3
  9
$SHADEDIF
 70
    70
  9
$TILEMODE
 70
     1
  9
$MAXACTVP
 70
    64
  9
$PINSBASE
 10
0.0
 20
0.0
 30
0.0
  9
$PLIMCHECK
 70
     0
  9
$PEXTMIN
 10
1.000000000000000E+20
 20
1.000000000000000E+20
 30
1.000000000000000E+20
  9
$PEXTMAX
 10
-1.000000000000000E+20
 20
-1.000000000000000E+20
 30
-1.000000000000000E+20
  9
$PLIMMIN
 10
0.0
 20
0.0
  9
$PLIMMAX
 10
12.0
 20
9.0
  9
$UNITMODE
 70
     0
  9
$VISRETAIN
 70
     1
  9
$PLINEGEN
 70
     0
  9
$PSLTSCALE
 70
     1
  9
$TREEDEPTH
 70
  3020
  9
$PICKSTYLE
 70
     1
  9
$CMLSTYLE
  2
STANDARD
  9
$CMLJUST
 70
     0
  9
$CMLSCALE
 40
1.0
  9
$PROXYGRAPHICS
 70
     1
  9
$MEASUREMENT
 70
     0
  0
ENDSEC
  0
SECTION
  2
CLASSES
  0
CLASS
  1
ACDBDICTIONARYWDFLT
  2
AcDbDictionaryWithDefault
  3
AutoCAD 2000
 90
        0
280
     0
281
     0
  0
CLASS
  1
ACDBPLACEHOLDER
  2
AcDbPlaceHolder
  3
AutoCAD 2000
 90
        0
280
     0
281
     0
  0
CLASS
  1
LAYOUT
  2
AcDbLayout
  3
AutoCAD 2000
 90
        0
280
     0
281
     0
  0
CLASS
  1
LONG_TRANSACTION
  2
AcDbLongTransaction
  3
AutoCAD 2000
 90
        0
280
     0
281
     0
  0
CLASS
  1
LWPOLYLINE
  2
AcDbPolyline
  3
AutoCAD 2000
 90
        0
280
     0
281
     1
  0
CLASS
  1
HATCH
  2
AcDbHatch
  3
AutoCAD 2000
 90
        0
280
     0
281
     1
  0
CLASS
  1
XRECORD
  2
AcDbXrecord
  3
AutoCAD 2000
 90
        0
280
     0
281
     0
  0
ENDSEC
  0
SECTION
  2
TABLES
  0
TABLE
  2
VPORT
  5
8
330
0
100
AcDbSymbolTable
 70
     3
  0
VPORT
  5
B1
330
8
100
AcDbSymbolTableRecord
100
AcDbViewportTableRecord
  2
*ACTIVE
 70
     0
 10
0.0
 20
0.0
 11
1.0
 21
1.0
 12
103.1046724349603
 22
54.19935644951303
 13
0.0
 23
0.0
 14
0.5
 24
0.5
 15
0.5
 25
0.5
 16
0.0
 26
0.0
 36
1.0
 17
0.0
 27
0.0
 37
0.0
 40
111.434932109048
 41
1.862204724409448
 42
50.0
 43
0.0
 44
0.0
 50
0.0
 51
0.0
 71
     0
 72
   100
 73
     1
 74
     3
 75
     0
 76
     0
 77
     0
 78
     0
  0
ENDTAB
  0
TABLE
  2
LTYPE
  5
5
330
0
100
AcDbSymbolTable
 70
     2
  0
LTYPE
  5
14
330
5
100
AcDbSymbolTableRecord
100
AcDbLinetypeTableRecord
  2
BYBLOCK
 70
     0
  3

 72
    65
 73
     0
 40
0.0
  0
LTYPE
  5
15
330
5
100
AcDbSymbolTableRecord
100
AcDbLinetypeTableRecord
  2
BYLAYER
 70
     0
  3

 72
    65
 73
     0
 40
0.0
  0
LTYPE
  5
16
330
5
100
AcDbSymbolTableRecord
100
AcDbLinetypeTableRecord
  2
CONTINUOUS
 70
     0
  3
Solid line
 72
    65
 73
     0
 40
0.0
  0
LTYPE
  5
2B
330
5
100
AcDbSymbolTableRecord
100
AcDbLinetypeTableRecord
  2
CENTER
 70
     0
  3
Center ____ _ ____ _ ____ _ ____ _ ____ _ ____
 72
    65
 73
     4
 40
2.0
 49
1.25
 74
     0
 49
-0.25
 74
     0
 49
0.25
 74
     0
 49
-0.25
 74
     0
  0
ENDTAB
  0
TABLE
  2
LAYER
  5
2
330
0
100
AcDbSymbolTable
 70
     6
  0
LAYER
  5
10
330
2
100
AcDbSymbolTableRecord
100
AcDbLayerTableRecord
  2
0
 70
     0
 62
     7
  6
CONTINUOUS
  0
LAYER
  5
2C
330
2
100
AcDbSymbolTableRecord
100
AcDbLayerTableRecord
  2
GAUGE_FACE
 70
     0
 62
     1
  6
CONTINUOUS
  0
LAYER
  5
2D
330
2
100
AcDbSymbolTableRecord
100
AcDbLayerTableRecord
  2
CENTRE_LINE
 70
     0
 62
     5
  6
CENTER
  0
LAYER
  5
2E
330
2
100
AcDbSymbolTableRecord
100
AcDbLayerTableRecord
  2
OUTLINE
 70
     0
 62
     7
  6
CONTINUOUS
  0
LAYER
  5
2F
330
2
100
AcDbSymbolTableRecord
100
AcDbLayerTableRecord
  2
TEXT
 70
     0
 62
     7
  6
CONTINUOUS
  0
LAYER
  5
30
330
2
100
AcDbSymbolTableRecord
100
AcDbLayerTableRecord
  2
BLUNT_NOSE
 70
     0
 62
     3
  6
CONTINUOUS
  0
ENDTAB
  0
TABLE
  2
STYLE
  5
3
330
0
100
AcDbSymbolTable
 70
     1
  0
STYLE
  5
11
330
3
100
AcDbSymbolTableRecord
100
AcDbTextStyleTableRecord
  2
STANDARD
 70
     0
 40
0.0
 41
1.0
 50
0.0
 71
     0
 42
0.2
  3
txt
  4

  0
ENDTAB
  0
TABLE
  2
VIEW
  5
6
330
0
100
AcDbSymbolTable
 70
     0
  0
ENDTAB
  0
TABLE
  2
UCS
  5
7
330
0
100
AcDbSymbolTable
 70
     0
  0
ENDTAB
  0
TABLE
  2
APPID
  5
9
330
0
100
AcDbSymbolTable
 70
     1
  0
APPID
  5
12
330
9
100
AcDbSymbolTableRecord
100
AcDbRegAppTableRecord
  2
ACAD
 70
     0
  0
ENDTAB
  0
TABLE
  2
DIMSTYLE
  5
A
330
0
100
AcDbSymbolTable
 70
     1
  0
DIMSTYLE
105
27
330
A
100
AcDbSymbolTableRecord
100
AcDbDimStyleTableRecord
  2
STANDARD
 70
     0
  3

  4

  5

  6

  7

 40
1.0
 41
0.18
 42
0.0625
 43
0.38
 44
0.18
 45
0.0
 46
0.0
 47
0.0
 48
0.0
140
0.18
141
0.09
142
0.0
143
25.4
144
1.0
145
0.0
146
1.0
147
0.09
 71
     0
 72
     0
 73
     1
 74
     1
 75
     0
 76
     0
 77
     0
 78
     0
170
     0
171
     2
172
     0
173
     0
174
     0
175
     0
176
     0
177
     0
178
     0
270
     2
271
     4
272
     4
273
     2
274
     2
340
11
275
     0
280
     0
281
     0
282
     0
283
     1
284
     0
285
     0
286
     0
287
     3
288
     0
  0
ENDTAB
  0
TABLE
  2
BLOCK_RECORD
  5
1
330
0
100
AcDbSymbolTable
 70
     2
  0
BLOCK_RECORD
  5
1F
102
{ACAD_XDICTIONARY
360
D4
102
}
330
1
100
AcDbSymbolTableRecord
100
AcDbBlockTableRecord
  2
*MODEL_SPACE
  0
BLOCK_RECORD
  5
1B
102
{ACAD_XDICTIONARY
360
D2
102
}
330
1
100
AcDbSymbolTableRecord
100
AcDbBlockTableRecord
  2
*PAPER_SPACE
  0
ENDTAB
  0
ENDSEC
  0
SECTION
  2
BLOCKS
  0
BLOCK
  5
20
330
1F
100
AcDbEntity
  8
0
100
AcDbBlockBegin
  2
*MODEL_SPACE
 70
     0
 10
0.0
 20
0.0
 30
0.0
  3
*MODEL_SPACE
  1

  0
ENDBLK
  5
21
330
1F
100
AcDbEntity
  8
0
100
AcDbBlockEnd
  0
BLOCK
  5
1C
330
1B
100
AcDbEntity
 67
     1
  8
0
100
AcDbBlockBegin
  2
*PAPER_SPACE
 70
     0
 10
0.0
 20
0.0
 30
0.0
  3
*PAPER_SPACE
  1

  0
ENDBLK
  5
1D
330
1B
100
AcDbEntity
 67
     1
  8
0
100
AcDbBlockEnd
  0
ENDSEC
  0
SECTION
  2
ENTITIES
  0
TEXT
  5
73
330
1F
100
AcDbEntity
  8
BLUNT_NOSE
100
AcDbText
 10
8.732885118306128
 20
92.17949595608287
 30
0.0
 40
2.0
  1
Blunt nose
100
AcDbText
  0
CIRCLE
  5
74
330
1F
100
AcDbEntity
  8
BLUNT_NOSE
100
AcDbCircle
 10
5.570427543241599
 20
93.48416723019488
 30
0.0
 40
0.5
  0
LINE
  5
75
330
1F
100
AcDbEntity
  8
BLUNT_NOSE
100
AcDbLine
 10
5.570427543241599
 20
93.98416723019487
 30
0.0
 11
5.570427543241599
 21
92.98416723019487
 31
0.0
  0
LINE
  5
76
330
1F
100
AcDbEntity
  8
BLUNT_NOSE
100
AcDbLine
 10
6.070427543241592
 20
93.48416723019488
 30
0.0
 11
5.070427543241599
 21
93.48416723019488
 31
0.0
  0
TEXT
  5
77
330
1F
100
AcDbEntity
  8
CENTRE_LINE
100
AcDbText
 10
63.17232833515264
 20
91.89926282920328
 30
0.0
 40
2.0
  1
or through bolt C/l
100
AcDbText
  0
TEXT
  5
78
330
1F
100
AcDbEntity
  8
TEXT
100
AcDbText
 10
24.38738230577927
 20
105.398712899026
 30
0.0
 40
3.0
  1
Key  to sybols &  lines
 72
     1
 11
55.88738230577927
 21
105.398712899026
 31
0.0
100
AcDbText
  0
TEXT
  5
79
330
1F
100
AcDbEntity
  8
GAUGE_FACE
100
AcDbText
 10
32.45131467954431
 20
94.66091889438407
 30
0.0
 40
2.0
  1
Rail gauge
100
AcDbText
  0
LINE
  5
7A
330
1F
100
AcDbEntity
  8
GAUGE_FACE
100
AcDbLine
 10
29.06296745639949
 20
92.40507992894977
 30
0.0
 11
29.66296745639953
 21
96.90507992894978
 31
0.0
  0
TEXT
  5
7B
330
1F
100
AcDbEntity
  8
GAUGE_FACE
100
AcDbText
 10
32.45131467954431
 20
91.44809488346977
 30
0.0
 40
2.0
  1
face
100
AcDbText
  0
LINE
  5
7C
330
1F
100
AcDbEntity
  8
GAUGE_FACE
100
AcDbLine
 10
29.06296745639949
 20
92.40507992894977
 30
0.0
 11
29.66296745639949
 21
87.90507992894978
 31
0.0
  0
TEXT
  5
7D
330
1F
100
AcDbEntity
  8
CENTRE_LINE
100
AcDbText
 10
63.17232833515264
 20
95.11208684011737
 30
0.0
 40
2.0
  1
Centre line
100
AcDbText
  0
LINE
  5
7E
330
1F
100
AcDbEntity
  8
CENTRE_LINE
100
AcDbLine
 10
60.00987076008818
 20
87.21665007948097
 30
0.0
 11
60.00987076008818
 21
99.21665007948107
 31
0.0
  0
TEXT
  5
7F
330
1F
100
AcDbEntity
  8
OUTLINE
100
AcDbText
 10
108.9101935454033
 20
92.17949595608287
 30
0.0
 40
2.0
  1
Chair outline
100
AcDbText
  0
LINE
  5
80
330
1F
100
AcDbEntity
  8
OUTLINE
100
AcDbLine
 10
105.2959571745665
 20
88.57015340785917
 30
0.0
 11
105.2959571745665
 21
96.57015340785926
 31
0.0
  0
CIRCLE
  5
81
330
1F
100
AcDbEntity
  8
TEXT
100
AcDbCircle
 10
88.78602108065695
 20
25.46820132086799
 30
0.0
 40
3.0
  0
LINE
  5
82
330
1F
100
AcDbEntity
  8
CENTRE_LINE
100
AcDbLine
 10
64.09980522954737
 20
20.17545111837762
 30
0.0
 11
64.09980522954737
 21
63.17545111837763
 31
0.0
  0
LINE
  5
83
330
1F
100
AcDbEntity
  8
GAUGE_FACE
100
AcDbLine
 10
65.83194808669006
 20
30.17545111837763
 30
0.0
 11
67.11766237240445
 21
21.17545111837761
 31
0.0
  0
LINE
  5
84
330
1F
100
AcDbEntity
  8
GAUGE_FACE
100
AcDbLine
 10
61.49266237240445
 20
30.17545111837765
 30
0.0
 11
60.20694808669006
 21
21.17545111837762
 31
0.0
  0
LINE
  5
85
330
1F
100
AcDbEntity
  8
OUTLINE
100
AcDbLine
 10
76.09980522954728
 20
23.17545111837761
 30
0.0
 11
76.09980522954728
 21
28.17545111837761
 31
0.0
  0
LINE
  5
86
330
1F
100
AcDbEntity
  8
OUTLINE
100
AcDbLine
 10
52.09980522954729
 20
28.17545111837761
 30
0.0
 11
52.09980522954729
 21
23.17545111837761
 31
0.0
  0
TEXT
  5
87
330
1F
100
AcDbEntity
  8
TEXT
100
AcDbText
 10
94.06809881185486
 20
24.8120051626684
 30
0.0
 40
2.0
  1
2C chair
100
AcDbText
  0
LINE
  5
88
330
1F
100
AcDbEntity
  8
CENTRE_LINE
100
AcDbLine
 10
76.09980522954728
 20
25.67545111837761
 30
0.0
 11
52.09980522954729
 21
25.67545111837761
 31
0.0
  0
LINE
  5
89
330
1F
100
AcDbEntity
  8
OUTLINE
100
AcDbLine
 10
74.09980522954717
 20
21.17545111837762
 30
0.0
 11
54.09980522954729
 21
21.17545111837762
 31
0.0
  0
ARC
  5
8A
330
1F
100
AcDbEntity
  8
OUTLINE
100
AcDbCircle
 10
54.09980522954729
 20
23.17545111837761
 30
0.0
 40
2.0
100
AcDbArc
 50
180.0
 51
270.0
  0
TEXT
  5
8B
330
1F
100
AcDbEntity
  8
TEXT
100
AcDbText
 10
87.8027817353578
 20
24.57262641252478
 30
0.0
 40
2.0
  1
3
100
AcDbText
  0
ARC
  5
8C
330
1F
100
AcDbEntity
  8
OUTLINE
100
AcDbCircle
 10
74.09980522954717
 20
23.17545111837761
 30
0.0
 40
2.0
100
AcDbArc
 50
270.0
 51
0.0
  0
TEXT
  5
8D
330
1F
100
AcDbEntity
  8
TEXT
100
AcDbText
 10
87.22797868910413
 20
40.93067539206145
 30
0.0
 40
2.0
  1
2    slab & brkt
100
AcDbText
  0
TEXT
  5
8E
330
1F
100
AcDbEntity
  8
TEXT
100
AcDbText
 10
94.67464692023893
 20
53.92479296054379
 30
0.0
 40
2.0
  1
4C chair
100
AcDbText
  0
LINE
  5
8F
330
1F
100
AcDbEntity
  8
CENTRE_LINE
100
AcDbLine
 10
77.09980522954729
 20
41.67545111837763
 30
0.0
 11
51.09980522954737
 21
41.6754511183776
 31
0.0
  0
LINE
  5
90
330
1F
100
AcDbEntity
  8
OUTLINE
100
AcDbLine
 10
70.09980522954728
 20
34.17545111837761
 30
0.0
 11
77.09980522954729
 21
38.42545111837763
 31
0.0
  0
LINE
  5
91
330
1F
100
AcDbEntity
  8
OUTLINE
100
AcDbLine
 10
77.09980522954729
 20
46.17545111837762
 30
0.0
 11
51.09980522954737
 21
46.17545111837761
 31
0.0
  0
LINE
  5
92
330
1F
100
AcDbEntity
  8
OUTLINE
100
AcDbLine
 10
74.09980522954717
 20
30.17545111837761
 30
0.0
 11
54.09980522954729
 21
30.17545111837761
 31
0.0
  0
LINE
  5
93
330
1F
100
AcDbEntity
  8
OUTLINE
100
AcDbLine
 10
58.09980522954728
 20
34.17545111837761
 30
0.0
 11
51.09980522954737
 21
38.42545111837761
 31
0.0
  0
LINE
  5
94
330
1F
100
AcDbEntity
  8
GAUGE_FACE
100
AcDbLine
 10
63.77830522954735
 20
36.17545111837763
 30
0.0
 11
63.11163856288064
 21
46.17545111837762
 31
0.0
  0
LINE
  5
95
330
1F
100
AcDbEntity
  8
GAUGE_FACE
100
AcDbLine
 10
64.42130522954727
 20
36.17545111837763
 30
0.0
 11
65.08797189621396
 21
46.17545111837762
 31
0.0
  0
LINE
  5
96
330
1F
100
AcDbEntity
  8
OUTLINE
100
AcDbLine
 10
70.09980522954728
 20
34.17545111837762
 30
0.0
 11
58.09980522954728
 21
34.1754511183776
 31
0.0
  0
LINE
  5
97
330
1F
100
AcDbEntity
  8
OUTLINE
100
AcDbLine
 10
70.09980522954728
 20
34.17545111837761
 30
0.0
 11
58.09980522954737
 21
34.17545111837763
 31
0.0
  0
ARC
  5
98
330
1F
100
AcDbEntity
  8
OUTLINE
100
AcDbCircle
 10
54.09980522954729
 20
28.17545111837761
 30
0.0
 40
2.0
100
AcDbArc
 50
90.0
 51
180.0
  0
CIRCLE
  5
99
330
1F
100
AcDbEntity
  8
BLUNT_NOSE
100
AcDbCircle
 10
64.09980522954737
 20
36.17545111837763
 30
0.0
 40
0.5
  0
LINE
  5
9A
330
1F
100
AcDbEntity
  8
BLUNT_NOSE
100
AcDbLine
 10
64.09980522954737
 20
36.67545111837761
 30
0.0
 11
64.09980522954737
 21
35.67545111837761
 31
0.0
  0
LINE
  5
9B
330
1F
100
AcDbEntity
  8
BLUNT_NOSE
100
AcDbLine
 10
63.59980522954737
 20
36.17545111837763
 30
0.0
 11
64.59980522954737
 21
36.17545111837763
 31
0.0
  0
LINE
  5
9C
330
1F
100
AcDbEntity
  8
OUTLINE
100
AcDbLine
 10
51.09980522954737
 20
38.42545111837761
 30
0.0
 11
51.09980522954737
 21
46.1754511183776
 31
0.0
  0
ARC
  5
9D
330
1F
100
AcDbEntity
  8
OUTLINE
100
AcDbCircle
 10
74.09980522954717
 20
28.17545111837761
 30
0.0
 40
2.0
100
AcDbArc
 50
0.0
 51
90.0
  0
CIRCLE
  5
9E
330
1F
100
AcDbEntity
  8
TEXT
100
AcDbCircle
 10
88.05893474424555
 20
41.86465059248291
 30
0.0
 40
3.0
  0
LINE
  5
9F
330
1F
100
AcDbEntity
  8
OUTLINE
100
AcDbLine
 10
77.09980522954729
 20
38.42545111837763
 30
0.0
 11
77.09980522954729
 21
46.17545111837762
 31
0.0
  0
LINE
  5
A0
330
1F
100
AcDbEntity
  8
CENTRE_LINE
100
AcDbLine
 10
46.09980522954737
 20
54.44655215072114
 30
0.0
 11
82.09980522954706
 21
54.44655215072114
 31
0.0
  0
LINE
  5
A1
330
1F
100
AcDbEntity
  8
OUTLINE
100
AcDbLine
 10
80.09980522954728
 20
58.94655215072114
 30
0.0
 11
48.09980522954737
 21
58.94655215072114
 31
0.0
  0
LINE
  5
A2
330
1F
100
AcDbEntity
  8
OUTLINE
100
AcDbLine
 10
80.09980522954728
 20
49.94655215072114
 30
0.0
 11
48.09980522954737
 21
49.94655215072114
 31
0.0
  0
LINE
  5
A3
330
1F
100
AcDbEntity
  8
GAUGE_FACE
100
AcDbLine
 10
73.49266237240437
 20
58.94655215072115
 30
0.0
 11
72.20694808669006
 21
49.94655215072114
 31
0.0
  0
LINE
  5
A4
330
1F
100
AcDbEntity
  8
GAUGE_FACE
100
AcDbLine
 10
54.70694808669006
 20
58.94655215072115
 30
0.0
 11
55.99266237240437
 21
49.94655215072114
 31
0.0
  0
LINE
  5
A5
330
1F
100
AcDbEntity
  8
CENTRE_LINE
100
AcDbLine
 10
64.09980522954737
 20
58.94655215072114
 30
0.0
 11
64.09980522954737
 21
49.94655215072114
 31
0.0
  0
LINE
  5
A6
330
1F
100
AcDbEntity
  8
OUTLINE
100
AcDbLine
 10
46.09980522954737
 20
51.94655215072114
 30
0.0
 11
46.09980522954737
 21
56.94655215072114
 31
0.0
  0
LINE
  5
A7
330
1F
100
AcDbEntity
  8
CENTRE_LINE
100
AcDbLine
 10
55.34980522954717
 20
54.44655215072114
 30
0.0
 11
72.84980522954717
 21
54.44655215072114
 31
0.0
  0
ARC
  5
A8
330
1F
100
AcDbEntity
  8
OUTLINE
100
AcDbCircle
 10
48.09980522954737
 20
51.94655215072114
 30
0.0
 40
2.0
100
AcDbArc
 50
180.0
 51
270.0
  0
ARC
  5
A9
330
1F
100
AcDbEntity
  8
OUTLINE
100
AcDbCircle
 10
48.09980522954737
 20
56.94655215072114
 30
0.0
 40
2.0
100
AcDbArc
 50
90.0
 51
180.0
  0
CIRCLE
  5
AA
330
1F
100
AcDbEntity
  8
TEXT
100
AcDbCircle
 10
89.38614363251039
 20
54.73274941029973
 30
0.0
 40
3.0
  0
LINE
  5
AB
330
1F
100
AcDbEntity
  8
OUTLINE
100
AcDbLine
 10
82.09980522954706
 20
56.94655215072114
 30
0.0
 11
82.09980522954706
 21
51.94655215072114
 31
0.0
  0
ARC
  5
AC
330
1F
100
AcDbEntity
  8
OUTLINE
100
AcDbCircle
 10
80.09980522954728
 20
51.94655215072114
 30
0.0
 40
2.0
100
AcDbArc
 50
270.0
 51
0.0
  0
TEXT
  5
AD
330
1F
100
AcDbEntity
  8
TEXT
100
AcDbText
 10
88.09550490982777
 20
53.7016366508409
 30
0.0
 40
2.0
  1
1
100
AcDbText
  0
ARC
  5
AE
330
1F
100
AcDbEntity
  8
OUTLINE
100
AcDbCircle
 10
80.09980522954728
 20
56.94655215072114
 30
0.0
 40
2.0
100
AcDbArc
 50
0.0
 51
90.0
  0
TEXT
  5
AF
330
1F
100
AcDbEntity
  8
TEXT
100
AcDbText
 10
44.00310909557447
 20
73.629387239804
 30
0.0
 40
3.0
  1
crossing chairs
 72
     1
 11
64.00310909557447
 21
73.629387239804
 31
0.0
100
AcDbText
  0
TEXT
  5
B0
330
1F
100
AcDbEntity
  8
TEXT
100
AcDbText
 10
41.00310909557447
 20
78.81257358053315
 30
0.0
 40
3.0
  1
1 in 3 1/2 common
 72
     1
 11
64.00310909557447
 21
78.81257358053315
 31
0.0
100
AcDbText
  0
ENDSEC
  0
SECTION
  2
OBJECTS
  0
DICTIONARY
  5
C
330
0
100
AcDbDictionary
  3
ACAD_GROUP
350
D
  3
ACAD_PLOTSTYLENAME
350
E
  3
ACAD_MLINESTYLE
350
17
  3
ACAD_PLOTSETTINGS
350
19
  3
ACAD_LAYOUT
350
1A
  3
ACDBHEADERROUNDTRIPXREC
350
B2
  0
DICTIONARY
  5
D4
330
1F
100
AcDbDictionary
280
     1
  3
ACAD_LAYOUTSELFREF
360
D5
  0
DICTIONARY
  5
D2
330
1B
100
AcDbDictionary
280
     1
  3
ACAD_LAYOUTSELFREF
360
D3
  0
DICTIONARY
  5
D
102
{ACAD_REACTORS
330
C
102
}
330
C
100
AcDbDictionary
  0
ACDBDICTIONARYWDFLT
  5
E
102
{ACAD_REACTORS
330
C
102
}
330
C
100
AcDbDictionary
281
     1
  3
Normal
350
F
100
AcDbDictionaryWithDefault
340
F
  0
DICTIONARY
  5
17
102
{ACAD_REACTORS
330
C
102
}
330
C
100
AcDbDictionary
  3
STANDARD
350
18
  0
DICTIONARY
  5
19
102
{ACAD_REACTORS
330
C
102
}
330
C
100
AcDbDictionary
  0
DICTIONARY
  5
1A
102
{ACAD_REACTORS
330
C
102
}
330
C
100
AcDbDictionary
  0
DICTIONARY
  5
B2
102
{ACAD_REACTORS
330
C
102
}
330
C
100
AcDbDictionary
  3
TSTACKALIGN
350
B3
  3
TSTACKSIZE
350
B4
  3
HYPERLINKBASE
350
B5
  3
STYLESHEET
350
B6
  3
LAYOUTDICT
350
B7
  3
PLOTSETDICT
350
B8
  3
PLOTSTYLNAMDICT
350
B9
  3
LWETCUNION
350
BA
  3
INSUNITS
350
BB
  3
CEPSNTYPE
350
BC
  3
FINGERPRINTGUID
350
BD
  3
VERSIONGUID
350
BE
  3
PSVPSCALE
350
BF
  3
PUCSORTHOREF
350
C0
  3
PUCSORTHOVIEW
350
C1
  3
PUCSBASE
350
C2
  3
PUCSORGTOP
350
C3
  3
PUCSORGBOTTOM
350
C4
  3
PUCSORGLEFT
350
C5
  3
PUCSORGRIGHT
350
C6
  3
PUCSORGFRONT
350
C7
  3
PUCSORGBACK
350
C8
  3
UCSORTHOREF
350
C9
  3
UCSORTHOVIEW
350
CA
  3
UCSBASE
350
CB
  3
UCSORGTOP
350
CC
  3
UCSORGBOTTOM
350
CD
  3
UCSORGLEFT
350
CE
  3
UCSORGRIGHT
350
CF
  3
UCSORGFRONT
350
D0
  3
UCSORGBACK
350
D1
  0
XRECORD
  5
D5
102
{ACAD_REACTORS
330
D4
102
}
330
D4
100
AcDbXrecord
340
1F
  0
XRECORD
  5
D3
102
{ACAD_REACTORS
330
D2
102
}
330
D2
100
AcDbXrecord
340
1B
  0
ACDBPLACEHOLDER
  5
F
102
{ACAD_REACTORS
330
E
102
}
330
E
100
AcDbPlaceHolder
280
     0
  0
MLINESTYLE
  5
18
102
{ACAD_REACTORS
330
17
102
}
330
17
100
AcDbMlineStyle
  2
STANDARD
 70
     0
  3

 62
   256
 51
90.0
 52
90.0
 71
     2
 49
0.5
 62
   256
  6
BYLAYER
 49
-0.5
 62
   256
  6
BYLAYER
  0
XRECORD
  5
B3
102
{ACAD_REACTORS
330
B2
102
}
330
B2
100
AcDbXrecord
 90
        1
  0
XRECORD
  5
B4
102
{ACAD_REACTORS
330
B2
102
}
330
B2
100
AcDbXrecord
 90
       70
  0
XRECORD
  5
B5
102
{ACAD_REACTORS
330
B2
102
}
330
B2
100
AcDbXrecord
  1

  0
XRECORD
  5
B6
102
{ACAD_REACTORS
330
B2
102
}
330
B2
100
AcDbXrecord
  1

  0
XRECORD
  5
B7
102
{ACAD_REACTORS
330
B2
102
}
330
B2
100
AcDbXrecord
340
1A
  0
XRECORD
  5
B8
102
{ACAD_REACTORS
330
B2
102
}
330
B2
100
AcDbXrecord
340
19
  0
XRECORD
  5
B9
102
{ACAD_REACTORS
330
B2
102
}
330
B2
100
AcDbXrecord
340
E
  0
XRECORD
  5
BA
102
{ACAD_REACTORS
330
B2
102
}
330
B2
100
AcDbXrecord
 90
    10781
  0
XRECORD
  5
BB
102
{ACAD_REACTORS
330
B2
102
}
330
B2
100
AcDbXrecord
 90
        1
  0
XRECORD
  5
BC
102
{ACAD_REACTORS
330
B2
102
}
330
B2
100
AcDbXrecord
 90
        0
  0
XRECORD
  5
BD
102
{ACAD_REACTORS
330
B2
102
}
330
B2
100
AcDbXrecord
  1
{583606A4-D63F-4859-A7C9-225D02916193}
  0
XRECORD
  5
BE
102
{ACAD_REACTORS
330
B2
102
}
330
B2
100
AcDbXrecord
  1
{E7276762-B232-40F1-AF7D-6D56A2DADD27}
  0
XRECORD
  5
BF
102
{ACAD_REACTORS
330
B2
102
}
330
B2
100
AcDbXrecord
 40
0.0
  0
XRECORD
  5
C0
102
{ACAD_REACTORS
330
B2
102
}
330
B2
100
AcDbXrecord
340
0
  0
XRECORD
  5
C1
102
{ACAD_REACTORS
330
B2
102
}
330
B2
100
AcDbXrecord
 70
     0
  0
XRECORD
  5
C2
102
{ACAD_REACTORS
330
B2
102
}
330
B2
100
AcDbXrecord
340
0
  0
XRECORD
  5
C3
102
{ACAD_REACTORS
330
B2
102
}
330
B2
100
AcDbXrecord
 10
0.0
 20
0.0
 30
0.0
  0
XRECORD
  5
C4
102
{ACAD_REACTORS
330
B2
102
}
330
B2
100
AcDbXrecord
 10
0.0
 20
0.0
 30
0.0
  0
XRECORD
  5
C5
102
{ACAD_REACTORS
330
B2
102
}
330
B2
100
AcDbXrecord
 10
0.0
 20
0.0
 30
0.0
  0
XRECORD
  5
C6
102
{ACAD_REACTORS
330
B2
102
}
330
B2
100
AcDbXrecord
 10
0.0
 20
0.0
 30
0.0
  0
XRECORD
  5
C7
102
{ACAD_REACTORS
330
B2
102
}
330
B2
100
AcDbXrecord
 10
0.0
 20
0.0
 30
0.0
  0
XRECORD
  5
C8
102
{ACAD_REACTORS
330
B2
102
}
330
B2
100
AcDbXrecord
 10
0.0
 20
0.0
 30
0.0
  0
XRECORD
  5
C9
102
{ACAD_REACTORS
330
B2
102
}
330
B2
100
AcDbXrecord
340
0
  0
XRECORD
  5
CA
102
{ACAD_REACTORS
330
B2
102
}
330
B2
100
AcDbXrecord
 70
     0
  0
XRECORD
  5
CB
102
{ACAD_REACTORS
330
B2
102
}
330
B2
100
AcDbXrecord
340
0
  0
XRECORD
  5
CC
102
{ACAD_REACTORS
330
B2
102
}
330
B2
100
AcDbXrecord
 10
0.0
 20
0.0
 30
0.0
  0
XRECORD
  5
CD
102
{ACAD_REACTORS
330
B2
102
}
330
B2
100
AcDbXrecord
 10
0.0
 20
0.0
 30
0.0
  0
XRECORD
  5
CE
102
{ACAD_REACTORS
330
B2
102
}
330
B2
100
AcDbXrecord
 10
0.0
 20
0.0
 30
0.0
  0
XRECORD
  5
CF
102
{ACAD_REACTORS
330
B2
102
}
330
B2
100
AcDbXrecord
 10
0.0
 20
0.0
 30
0.0
  0
XRECORD
  5
D0
102
{ACAD_REACTORS
330
B2
102
}
330
B2
100
AcDbXrecord
 10
0.0
 20
0.0
 30
0.0
  0
XRECORD
  5
D1
102
{ACAD_REACTORS
330
B2
102
}
330
B2
100
AcDbXrecord
 10
0.0
 20
0.0
 30
0.0
  0
ENDSEC
  0
EOF
