  0
SECTION
  2
HEADER
  9
$ACADVER
  1
AC1014
  9
$ACADMAINTVER
 70
     9
  9
$DWGCODEPAGE
  3
ANSI_1252
  9
$INSBASE
 10
0.0
 20
0.0
 30
0.0
  9
$EXTMIN
 10
2.274170826751046
 20
1.794695342954298
 30
0.0
  9
$EXTMAX
 10
217.3869726482402
 20
84.40103920758819
 30
0.0
  9
$LIMMIN
 10
0.0
 20
0.0
  9
$LIMMAX
 10
12.0
 20
9.0
  9
$ORTHOMODE
 70
     0
  9
$REGENMODE
 70
     1
  9
$FILLMODE
 70
     1
  9
$QTEXTMODE
 70
     0
  9
$MIRRTEXT
 70
     1
  9
$DRAGMODE
 70
     2
  9
$LTSCALE
 40
1.0
  9
$OSMODE
 70
    37
  9
$ATTMODE
 70
     1
  9
$TEXTSIZE
 40
0.2
  9
$TRACEWID
 40
0.05
  9
$TEXTSTYLE
  7
STANDARD
  9
$CLAYER
  8
0
  9
$CELTYPE
  6
BYLAYER
  9
$CECOLOR
 62
   256
  9
$CELTSCALE
 40
1.0
  9
$DELOBJ
 70
     1
  9
$DISPSILH
 70
     0
  9
$DIMSCALE
 40
1.0
  9
$DIMASZ
 40
0.18
  9
$DIMEXO
 40
0.0625
  9
$DIMDLI
 40
0.38
  9
$DIMRND
 40
0.0
  9
$DIMDLE
 40
0.0
  9
$DIMEXE
 40
0.18
  9
$DIMTP
 40
0.0
  9
$DIMTM
 40
0.0
  9
$DIMTXT
 40
0.18
  9
$DIMCEN
 40
0.09
  9
$DIMTSZ
 40
0.0
  9
$DIMTOL
 70
     0
  9
$DIMLIM
 70
     0
  9
$DIMTIH
 70
     1
  9
$DIMTOH
 70
     1
  9
$DIMSE1
 70
     0
  9
$DIMSE2
 70
     0
  9
$DIMTAD
 70
     0
  9
$DIMZIN
 70
     0
  9
$DIMBLK
  1

  9
$DIMASO
 70
     1
  9
$DIMSHO
 70
     1
  9
$DIMPOST
  1

  9
$DIMAPOST
  1

  9
$DIMALT
 70
     0
  9
$DIMALTD
 70
     2
  9
$DIMALTF
 40
25.4
  9
$DIMLFAC
 40
1.0
  9
$DIMTOFL
 70
     0
  9
$DIMTVP
 40
0.0
  9
$DIMTIX
 70
     0
  9
$DIMSOXD
 70
     0
  9
$DIMSAH
 70
     0
  9
$DIMBLK1
  1

  9
$DIMBLK2
  1

  9
$DIMSTYLE
  2
STANDARD
  9
$DIMCLRD
 70
     0
  9
$DIMCLRE
 70
     0
  9
$DIMCLRT
 70
     0
  9
$DIMTFAC
 40
1.0
  9
$DIMGAP
 40
0.09
  9
$DIMJUST
 70
     0
  9
$DIMSD1
 70
     0
  9
$DIMSD2
 70
     0
  9
$DIMTOLJ
 70
     1
  9
$DIMTZIN
 70
     0
  9
$DIMALTZ
 70
     0
  9
$DIMALTTZ
 70
     0
  9
$DIMFIT
 70
     3
  9
$DIMUPT
 70
     0
  9
$DIMUNIT
 70
     2
  9
$DIMDEC
 70
     4
  9
$DIMTDEC
 70
     4
  9
$DIMALTU
 70
     2
  9
$DIMALTTD
 70
     2
  9
$DIMTXSTY
  7
STANDARD
  9
$DIMAUNIT
 70
     0
  9
$LUNITS
 70
     2
  9
$LUPREC
 70
     4
  9
$SKETCHINC
 40
0.1
  9
$FILLETRAD
 40
0.5
  9
$AUNITS
 70
     0
  9
$AUPREC
 70
     0
  9
$MENU
  1
.
  9
$ELEVATION
 40
0.0
  9
$PELEVATION
 40
0.0
  9
$THICKNESS
 40
0.0
  9
$LIMCHECK
 70
     0
  9
$BLIPMODE
 70
     0
  9
$CHAMFERA
 40
0.5
  9
$CHAMFERB
 40
0.5
  9
$CHAMFERC
 40
1.0
  9
$CHAMFERD
 40
0.0
  9
$SKPOLY
 70
     0
  9
$TDCREATE
 40
2454377.914998009
  9
$TDUPDATE
 40
2454377.916122858
  9
$TDINDWG
 40
0.0011250347
  9
$TDUSRTIMER
 40
0.0011250347
  9
$USRTIMER
 70
     1
  9
$ANGBASE
 50
0.0
  9
$ANGDIR
 70
     0
  9
$PDMODE
 70
     0
  9
$PDSIZE
 40
0.0
  9
$PLINEWID
 40
0.0
  9
$COORDS
 70
     1
  9
$SPLFRAME
 70
     0
  9
$SPLINETYPE
 70
     6
  9
$SPLINESEGS
 70
     8
  9
$ATTDIA
 70
     0
  9
$ATTREQ
 70
     1
  9
$HANDLING
 70
 10241
  9
$HANDSEED
  5
BA
  9
$SURFTAB1
 70
     6
  9
$SURFTAB2
 70
     6
  9
$SURFTYPE
 70
     6
  9
$SURFU
 70
     6
  9
$SURFV
 70
     6
  9
$UCSNAME
  2

  9
$UCSORG
 10
0.0
 20
0.0
 30
0.0
  9
$UCSXDIR
 10
1.0
 20
0.0
 30
0.0
  9
$UCSYDIR
 10
0.0
 20
1.0
 30
0.0
  9
$PUCSNAME
  2

  9
$PUCSORG
 10
0.0
 20
0.0
 30
0.0
  9
$PUCSXDIR
 10
1.0
 20
0.0
 30
0.0
  9
$PUCSYDIR
 10
0.0
 20
1.0
 30
0.0
  9
$USERI1
 70
     0
  9
$USERI2
 70
     0
  9
$USERI3
 70
     0
  9
$USERI4
 70
     0
  9
$USERI5
 70
     0
  9
$USERR1
 40
0.0
  9
$USERR2
 40
0.0
  9
$USERR3
 40
0.0
  9
$USERR4
 40
0.0
  9
$USERR5
 40
0.0
  9
$WORLDVIEW
 70
     1
  9
$SHADEDGE
 70
     3
  9
$SHADEDIF
 70
    70
  9
$TILEMODE
 70
     1
  9
$MAXACTVP
 70
    64
  9
$PINSBASE
 10
0.0
 20
0.0
 30
0.0
  9
$PLIMCHECK
 70
     0
  9
$PEXTMIN
 10
1.000000000000000E+20
 20
1.000000000000000E+20
 30
1.000000000000000E+20
  9
$PEXTMAX
 10
-1.000000000000000E+20
 20
-1.000000000000000E+20
 30
-1.000000000000000E+20
  9
$PLIMMIN
 10
0.0
 20
0.0
  9
$PLIMMAX
 10
12.0
 20
9.0
  9
$UNITMODE
 70
     0
  9
$VISRETAIN
 70
     1
  9
$PLINEGEN
 70
     0
  9
$PSLTSCALE
 70
     1
  9
$TREEDEPTH
 70
  3020
  9
$PICKSTYLE
 70
     1
  9
$CMLSTYLE
  2
STANDARD
  9
$CMLJUST
 70
     0
  9
$CMLSCALE
 40
1.0
  9
$PROXYGRAPHICS
 70
     1
  9
$MEASUREMENT
 70
     0
  0
ENDSEC
  0
SECTION
  2
CLASSES
  0
CLASS
  1
ACDBDICTIONARYWDFLT
  2
AcDbDictionaryWithDefault
  3
AutoCAD 2000
 90
        0
280
     0
281
     0
  0
CLASS
  1
ACDBPLACEHOLDER
  2
AcDbPlaceHolder
  3
AutoCAD 2000
 90
        0
280
     0
281
     0
  0
CLASS
  1
LAYOUT
  2
AcDbLayout
  3
AutoCAD 2000
 90
        0
280
     0
281
     0
  0
CLASS
  1
LONG_TRANSACTION
  2
AcDbLongTransaction
  3
AutoCAD 2000
 90
        0
280
     0
281
     0
  0
CLASS
  1
LWPOLYLINE
  2
AcDbPolyline
  3
AutoCAD 2000
 90
        0
280
     0
281
     1
  0
CLASS
  1
HATCH
  2
AcDbHatch
  3
AutoCAD 2000
 90
        0
280
     0
281
     1
  0
CLASS
  1
XRECORD
  2
AcDbXrecord
  3
AutoCAD 2000
 90
        0
280
     0
281
     0
  0
ENDSEC
  0
SECTION
  2
TABLES
  0
TABLE
  2
VPORT
  5
8
330
0
100
AcDbSymbolTable
 70
     3
  0
VPORT
  5
93
330
8
100
AcDbSymbolTableRecord
100
AcDbViewportTableRecord
  2
*ACTIVE
 70
     0
 10
0.0
 20
0.0
 11
1.0
 21
1.0
 12
108.69348632412
 22
42.2005196037941
 13
0.0
 23
0.0
 14
0.5
 24
0.5
 15
0.5
 25
0.5
 16
0.0
 26
0.0
 36
1.0
 17
0.0
 27
0.0
 37
0.0
 40
117.4752897533777
 41
1.862204724409448
 42
50.0
 43
0.0
 44
0.0
 50
0.0
 51
0.0
 71
     0
 72
   100
 73
     1
 74
     3
 75
     0
 76
     0
 77
     0
 78
     0
  0
ENDTAB
  0
TABLE
  2
LTYPE
  5
5
330
0
100
AcDbSymbolTable
 70
     2
  0
LTYPE
  5
14
330
5
100
AcDbSymbolTableRecord
100
AcDbLinetypeTableRecord
  2
BYBLOCK
 70
     0
  3

 72
    65
 73
     0
 40
0.0
  0
LTYPE
  5
15
330
5
100
AcDbSymbolTableRecord
100
AcDbLinetypeTableRecord
  2
BYLAYER
 70
     0
  3

 72
    65
 73
     0
 40
0.0
  0
LTYPE
  5
16
330
5
100
AcDbSymbolTableRecord
100
AcDbLinetypeTableRecord
  2
CONTINUOUS
 70
     0
  3
Solid line
 72
    65
 73
     0
 40
0.0
  0
LTYPE
  5
2B
330
5
100
AcDbSymbolTableRecord
100
AcDbLinetypeTableRecord
  2
CENTER
 70
     0
  3
Center ____ _ ____ _ ____ _ ____ _ ____ _ ____
 72
    65
 73
     4
 40
2.0
 49
1.25
 74
     0
 49
-0.25
 74
     0
 49
0.25
 74
     0
 49
-0.25
 74
     0
  0
ENDTAB
  0
TABLE
  2
LAYER
  5
2
330
0
100
AcDbSymbolTable
 70
     6
  0
LAYER
  5
10
330
2
100
AcDbSymbolTableRecord
100
AcDbLayerTableRecord
  2
0
 70
     0
 62
     7
  6
CONTINUOUS
  0
LAYER
  5
2C
330
2
100
AcDbSymbolTableRecord
100
AcDbLayerTableRecord
  2
GAUGE_FACE
 70
     0
 62
     1
  6
CONTINUOUS
  0
LAYER
  5
2D
330
2
100
AcDbSymbolTableRecord
100
AcDbLayerTableRecord
  2
CENTRE_LINE
 70
     0
 62
     5
  6
CENTER
  0
LAYER
  5
2E
330
2
100
AcDbSymbolTableRecord
100
AcDbLayerTableRecord
  2
OUTLINE
 70
     0
 62
     7
  6
CONTINUOUS
  0
LAYER
  5
2F
330
2
100
AcDbSymbolTableRecord
100
AcDbLayerTableRecord
  2
TEXT
 70
     0
 62
     7
  6
CONTINUOUS
  0
LAYER
  5
30
330
2
100
AcDbSymbolTableRecord
100
AcDbLayerTableRecord
  2
BLUNT_NOSE
 70
     0
 62
     3
  6
CONTINUOUS
  0
ENDTAB
  0
TABLE
  2
STYLE
  5
3
330
0
100
AcDbSymbolTable
 70
     1
  0
STYLE
  5
11
330
3
100
AcDbSymbolTableRecord
100
AcDbTextStyleTableRecord
  2
STANDARD
 70
     0
 40
0.0
 41
1.0
 50
0.0
 71
     0
 42
0.2
  3
txt
  4

  0
ENDTAB
  0
TABLE
  2
VIEW
  5
6
330
0
100
AcDbSymbolTable
 70
     0
  0
ENDTAB
  0
TABLE
  2
UCS
  5
7
330
0
100
AcDbSymbolTable
 70
     0
  0
ENDTAB
  0
TABLE
  2
APPID
  5
9
330
0
100
AcDbSymbolTable
 70
     1
  0
APPID
  5
12
330
9
100
AcDbSymbolTableRecord
100
AcDbRegAppTableRecord
  2
ACAD
 70
     0
  0
ENDTAB
  0
TABLE
  2
DIMSTYLE
  5
A
330
0
100
AcDbSymbolTable
 70
     1
  0
DIMSTYLE
105
27
330
A
100
AcDbSymbolTableRecord
100
AcDbDimStyleTableRecord
  2
STANDARD
 70
     0
  3

  4

  5

  6

  7

 40
1.0
 41
0.18
 42
0.0625
 43
0.38
 44
0.18
 45
0.0
 46
0.0
 47
0.0
 48
0.0
140
0.18
141
0.09
142
0.0
143
25.4
144
1.0
145
0.0
146
1.0
147
0.09
 71
     0
 72
     0
 73
     1
 74
     1
 75
     0
 76
     0
 77
     0
 78
     0
170
     0
171
     2
172
     0
173
     0
174
     0
175
     0
176
     0
177
     0
178
     0
270
     2
271
     4
272
     4
273
     2
274
     2
340
11
275
     0
280
     0
281
     0
282
     0
283
     1
284
     0
285
     0
286
     0
287
     3
288
     0
  0
ENDTAB
  0
TABLE
  2
BLOCK_RECORD
  5
1
330
0
100
AcDbSymbolTable
 70
     2
  0
BLOCK_RECORD
  5
1F
102
{ACAD_XDICTIONARY
360
B6
102
}
330
1
100
AcDbSymbolTableRecord
100
AcDbBlockTableRecord
  2
*MODEL_SPACE
  0
BLOCK_RECORD
  5
1B
102
{ACAD_XDICTIONARY
360
B4
102
}
330
1
100
AcDbSymbolTableRecord
100
AcDbBlockTableRecord
  2
*PAPER_SPACE
  0
ENDTAB
  0
ENDSEC
  0
SECTION
  2
BLOCKS
  0
BLOCK
  5
20
330
1F
100
AcDbEntity
  8
0
100
AcDbBlockBegin
  2
*MODEL_SPACE
 70
     0
 10
0.0
 20
0.0
 30
0.0
  3
*MODEL_SPACE
  1

  0
ENDBLK
  5
21
330
1F
100
AcDbEntity
  8
0
100
AcDbBlockEnd
  0
BLOCK
  5
1C
330
1B
100
AcDbEntity
 67
     1
  8
0
100
AcDbBlockBegin
  2
*PAPER_SPACE
 70
     0
 10
0.0
 20
0.0
 30
0.0
  3
*PAPER_SPACE
  1

  0
ENDBLK
  5
1D
330
1B
100
AcDbEntity
 67
     1
  8
0
100
AcDbBlockEnd
  0
ENDSEC
  0
SECTION
  2
ENTITIES
  0
TEXT
  5
64
330
1F
100
AcDbEntity
  8
BLUNT_NOSE
100
AcDbText
 10
5.936628401815575
 20
68.18182226464498
 30
0.0
 40
2.0
  1
Blunt nose
100
AcDbText
  0
CIRCLE
  5
65
330
1F
100
AcDbEntity
  8
BLUNT_NOSE
100
AcDbCircle
 10
2.774170826751046
 20
69.48649353875698
 30
0.0
 40
0.5
  0
LINE
  5
66
330
1F
100
AcDbEntity
  8
BLUNT_NOSE
100
AcDbLine
 10
2.774170826751046
 20
69.98649353875697
 30
0.0
 11
2.774170826751046
 21
68.98649353875697
 31
0.0
  0
LINE
  5
67
330
1F
100
AcDbEntity
  8
BLUNT_NOSE
100
AcDbLine
 10
3.274170826751038
 20
69.48649353875698
 30
0.0
 11
2.274170826751046
 21
69.48649353875698
 31
0.0
  0
TEXT
  5
68
330
1F
100
AcDbEntity
  8
CENTRE_LINE
100
AcDbText
 10
60.37607161866208
 20
67.9015891377654
 30
0.0
 40
2.0
  1
or through bolt C/l
100
AcDbText
  0
TEXT
  5
69
330
1F
100
AcDbEntity
  8
TEXT
100
AcDbText
 10
21.59112558928871
 20
81.40103920758818
 30
0.0
 40
3.0
  1
Key  to sybols &  lines
 72
     1
 11
53.09112558928871
 21
81.40103920758818
 31
0.0
100
AcDbText
  0
TEXT
  5
6A
330
1F
100
AcDbEntity
  8
GAUGE_FACE
100
AcDbText
 10
29.65505796305375
 20
70.66324520294617
 30
0.0
 40
2.0
  1
Rail gauge
100
AcDbText
  0
LINE
  5
6B
330
1F
100
AcDbEntity
  8
GAUGE_FACE
100
AcDbLine
 10
26.26671073990893
 20
68.40740623751187
 30
0.0
 11
26.86671073990897
 21
72.90740623751188
 31
0.0
  0
TEXT
  5
6C
330
1F
100
AcDbEntity
  8
GAUGE_FACE
100
AcDbText
 10
29.65505796305375
 20
67.45042119203188
 30
0.0
 40
2.0
  1
face
100
AcDbText
  0
LINE
  5
6D
330
1F
100
AcDbEntity
  8
GAUGE_FACE
100
AcDbLine
 10
26.26671073990893
 20
68.40740623751187
 30
0.0
 11
26.86671073990894
 21
63.90740623751188
 31
0.0
  0
TEXT
  5
6E
330
1F
100
AcDbEntity
  8
CENTRE_LINE
100
AcDbText
 10
60.37607161866208
 20
71.11441314867949
 30
0.0
 40
2.0
  1
Centre line
100
AcDbText
  0
LINE
  5
6F
330
1F
100
AcDbEntity
  8
CENTRE_LINE
100
AcDbLine
 10
57.21361404359762
 20
63.21897638804308
 30
0.0
 11
57.21361404359762
 21
75.21897638804316
 31
0.0
  0
TEXT
  5
70
330
1F
100
AcDbEntity
  8
OUTLINE
100
AcDbText
 10
106.3747762270425
 20
68.18182226464498
 30
0.0
 40
2.0
  1
Chair outline
100
AcDbText
  0
LINE
  5
71
330
1F
100
AcDbEntity
  8
OUTLINE
100
AcDbLine
 10
102.7605398562057
 20
64.57247971642127
 30
0.0
 11
102.7605398562057
 21
72.57247971642138
 31
0.0
  0
LINE
  5
72
330
1F
100
AcDbEntity
  8
CENTRE_LINE
100
AcDbLine
 10
51.42076769088777
 20
7.333805202636767
 30
0.0
 11
51.42076769088777
 21
47.18396579975574
 31
0.0
  0
LINE
  5
73
330
1F
100
AcDbEntity
  8
OUTLINE
100
AcDbLine
 10
42.42076769088782
 20
15.13923808629489
 30
0.0
 11
60.42076769088772
 21
15.13923808629487
 31
0.0
  0
LINE
  5
74
330
1F
100
AcDbEntity
  8
OUTLINE
100
AcDbLine
 10
42.42076769088782
 20
24.13923808629487
 30
0.0
 11
60.42076769088772
 21
24.13923808629487
 31
0.0
  0
LINE
  5
75
330
1F
100
AcDbEntity
  8
CENTRE_LINE
100
AcDbLine
 10
40.42076769088782
 20
19.63923808629489
 30
0.0
 11
62.42076769088772
 21
19.63923808629488
 31
0.0
  0
LINE
  5
76
330
1F
100
AcDbEntity
  8
GAUGE_FACE
100
AcDbLine
 10
49.42076769088785
 20
19.63923808629487
 30
0.0
 11
48.29576769088783
 21
15.13923808629488
 31
0.0
  0
LINE
  5
77
330
1F
100
AcDbEntity
  8
OUTLINE
100
AcDbLine
 10
40.42076769088782
 20
17.13923808629489
 30
0.0
 11
40.42076769088782
 21
22.1392380862949
 31
0.0
  0
ARC
  5
78
330
1F
100
AcDbEntity
  8
OUTLINE
100
AcDbCircle
 10
42.42076769088782
 20
17.13923808629489
 30
0.0
 40
2.0
100
AcDbArc
 50
180.0
 51
270.0
  0
LINE
  5
79
330
1F
100
AcDbEntity
  8
GAUGE_FACE
100
AcDbLine
 10
49.42076769088785
 20
19.6392380862949
 30
0.0
 11
48.29576769088785
 21
24.13923808629489
 31
0.0
  0
ARC
  5
7A
330
1F
100
AcDbEntity
  8
OUTLINE
100
AcDbCircle
 10
42.42076769088782
 20
22.1392380862949
 30
0.0
 40
2.0
100
AcDbArc
 50
90.0
 51
180.0
  0
ARC
  5
7B
330
1F
100
AcDbEntity
  8
TEXT
100
AcDbCircle
 10
42.42076769088782
 20
22.1392380862949
 30
0.0
 40
2.0
100
AcDbArc
 50
90.0
 51
180.0
  0
CIRCLE
  5
7C
330
1F
100
AcDbEntity
  8
TEXT
100
AcDbCircle
 10
74.98442539918079
 20
19.02305248645917
 30
0.0
 40
3.0
  0
TEXT
  5
7D
330
1F
100
AcDbEntity
  8
TEXT
100
AcDbText
 10
74.41886748245605
 20
17.7799572681987
 30
0.0
 40
2.0
  1
2
100
AcDbText
  0
LINE
  5
7E
330
1F
100
AcDbEntity
  8
OUTLINE
100
AcDbLine
 10
62.42076769088772
 20
22.13923808629487
 30
0.0
 11
62.42076769088772
 21
17.13923808629488
 31
0.0
  0
ARC
  5
7F
330
1F
100
AcDbEntity
  8
OUTLINE
100
AcDbCircle
 10
60.42076769088772
 20
17.13923808629488
 30
0.0
 40
2.0
100
AcDbArc
 50
270.0
 51
0.0
  0
ARC
  5
80
330
1F
100
AcDbEntity
  8
OUTLINE
100
AcDbCircle
 10
60.42076769088772
 20
22.13923808629487
 30
0.0
 40
2.0
100
AcDbArc
 50
0.0
 51
90.0
  0
TEXT
  5
81
330
1F
100
AcDbEntity
  8
TEXT
100
AcDbText
 10
83.58784144679475
 20
17.05657528195281
 30
0.0
 40
2.0
  1
elbow  chair
100
AcDbText
  0
TEXT
  5
82
330
1F
100
AcDbEntity
  8
TEXT
100
AcDbText
 10
83.58784144679475
 20
20.26939929286684
 30
0.0
 40
2.0
  1
K knuckle or
100
AcDbText
  0
TEXT
  5
83
330
1F
100
AcDbEntity
  8
TEXT
100
AcDbText
 10
37.24770254670488
 20
49.04965998109595
 30
0.0
 40
3.0
  1
1 in 31/2 K
 72
     1
 11
51.24770254670488
 21
49.04965998109595
 31
0.0
100
AcDbText
  0
LINE
  5
84
330
1F
100
AcDbEntity
  8
GAUGE_FACE
100
AcDbLine
 10
50.92076769088771
 20
33.18396579975576
 30
0.0
 11
47.92076769088777
 21
45.18396579975576
 31
0.0
  0
LINE
  5
85
330
1F
100
AcDbEntity
  8
CENTRE_LINE
100
AcDbLine
 10
64.29576769088777
 20
40.68396579975575
 30
0.0
 11
38.54576769088777
 21
40.68396579975575
 31
0.0
  0
LINE
  5
86
330
1F
100
AcDbEntity
  8
OUTLINE
100
AcDbLine
 10
64.29576769088777
 20
45.18396579975575
 30
0.0
 11
38.54576769088777
 21
45.18396579975576
 31
0.0
  0
LINE
  5
87
330
1F
100
AcDbEntity
  8
OUTLINE
100
AcDbLine
 10
57.17076769088777
 20
33.18396579975576
 30
0.0
 11
45.67076769088749
 21
33.18396579975576
 31
0.0
  0
LINE
  5
88
330
1F
100
AcDbEntity
  8
OUTLINE
100
AcDbLine
 10
38.54576769088774
 20
37.18396579975574
 30
0.0
 11
38.54576769088777
 21
45.18396579975577
 31
0.0
  0
LINE
  5
89
330
1F
100
AcDbEntity
  8
OUTLINE
100
AcDbLine
 10
38.54576769088774
 20
37.18396579975574
 30
0.0
 11
45.67076769088749
 21
33.18396579975576
 31
0.0
  0
TEXT
  5
8A
330
1F
100
AcDbEntity
  8
TEXT
100
AcDbText
 10
73.76899578038489
 20
39.11691825885541
 30
0.0
 40
2.0
  1
1
100
AcDbText
  0
CIRCLE
  5
8B
330
1F
100
AcDbEntity
  8
TEXT
100
AcDbCircle
 10
74.41886748245605
 20
39.92965231257313
 30
0.0
 40
3.0
  0
LINE
  5
8C
330
1F
100
AcDbEntity
  8
GAUGE_FACE
100
AcDbLine
 10
51.42076769088774
 20
36.18396579975576
 30
0.0
 11
53.67076769088772
 21
45.18396579975576
 31
0.0
  0
LINE
  5
8D
330
1F
100
AcDbEntity
  8
OUTLINE
100
AcDbLine
 10
64.29576769088774
 20
37.18396579975573
 30
0.0
 11
64.29576769088777
 21
45.18396579975575
 31
0.0
  0
LINE
  5
8E
330
1F
100
AcDbEntity
  8
OUTLINE
100
AcDbLine
 10
64.29576769088774
 20
37.18396579975573
 30
0.0
 11
57.17076769088777
 21
33.18396579975576
 31
0.0
  0
CIRCLE
  5
8F
330
1F
100
AcDbEntity
  8
BLUNT_NOSE
100
AcDbCircle
 10
51.42076769088777
 20
36.18396579975576
 30
0.0
 40
0.5
  0
LINE
  5
90
330
1F
100
AcDbEntity
  8
BLUNT_NOSE
100
AcDbLine
 10
51.42076769088777
 20
36.68396579975576
 30
0.0
 11
51.42076769088777
 21
35.68396579975576
 31
0.0
  0
LINE
  5
91
330
1F
100
AcDbEntity
  8
BLUNT_NOSE
100
AcDbLine
 10
50.92076769088777
 20
36.18396579975576
 30
0.0
 11
51.92076769088766
 21
36.18396579975576
 31
0.0
  0
TEXT
  5
92
330
1F
100
AcDbEntity
  8
TEXT
100
AcDbText
 10
81.32560977989584
 20
39.01634282002741
 30
0.0
 40
2.0
  1
Slab & bracket
100
AcDbText
  0
ENDSEC
  0
SECTION
  2
OBJECTS
  0
DICTIONARY
  5
C
330
0
100
AcDbDictionary
  3
ACAD_GROUP
350
D
  3
ACAD_PLOTSTYLENAME
350
E
  3
ACAD_MLINESTYLE
350
17
  3
ACAD_PLOTSETTINGS
350
19
  3
ACAD_LAYOUT
350
1A
  3
ACDBHEADERROUNDTRIPXREC
350
94
  0
DICTIONARY
  5
B6
330
1F
100
AcDbDictionary
280
     1
  3
ACAD_LAYOUTSELFREF
360
B7
  0
DICTIONARY
  5
B4
330
1B
100
AcDbDictionary
280
     1
  3
ACAD_LAYOUTSELFREF
360
B5
  0
DICTIONARY
  5
D
102
{ACAD_REACTORS
330
C
102
}
330
C
100
AcDbDictionary
  0
ACDBDICTIONARYWDFLT
  5
E
102
{ACAD_REACTORS
330
C
102
}
330
C
100
AcDbDictionary
281
     1
  3
Normal
350
F
100
AcDbDictionaryWithDefault
340
F
  0
DICTIONARY
  5
17
102
{ACAD_REACTORS
330
C
102
}
330
C
100
AcDbDictionary
  3
STANDARD
350
18
  0
DICTIONARY
  5
19
102
{ACAD_REACTORS
330
C
102
}
330
C
100
AcDbDictionary
  0
DICTIONARY
  5
1A
102
{ACAD_REACTORS
330
C
102
}
330
C
100
AcDbDictionary
  0
DICTIONARY
  5
94
102
{ACAD_REACTORS
330
C
102
}
330
C
100
AcDbDictionary
  3
TSTACKALIGN
350
95
  3
TSTACKSIZE
350
96
  3
HYPERLINKBASE
350
97
  3
STYLESHEET
350
98
  3
LAYOUTDICT
350
99
  3
PLOTSETDICT
350
9A
  3
PLOTSTYLNAMDICT
350
9B
  3
LWETCUNION
350
9C
  3
INSUNITS
350
9D
  3
CEPSNTYPE
350
9E
  3
FINGERPRINTGUID
350
9F
  3
VERSIONGUID
350
A0
  3
PSVPSCALE
350
A1
  3
PUCSORTHOREF
350
A2
  3
PUCSORTHOVIEW
350
A3
  3
PUCSBASE
350
A4
  3
PUCSORGTOP
350
A5
  3
PUCSORGBOTTOM
350
A6
  3
PUCSORGLEFT
350
A7
  3
PUCSORGRIGHT
350
A8
  3
PUCSORGFRONT
350
A9
  3
PUCSORGBACK
350
AA
  3
UCSORTHOREF
350
AB
  3
UCSORTHOVIEW
350
AC
  3
UCSBASE
350
AD
  3
UCSORGTOP
350
AE
  3
UCSORGBOTTOM
350
AF
  3
UCSORGLEFT
350
B0
  3
UCSORGRIGHT
350
B1
  3
UCSORGFRONT
350
B2
  3
UCSORGBACK
350
B3
  0
XRECORD
  5
B7
102
{ACAD_REACTORS
330
B6
102
}
330
B6
100
AcDbXrecord
340
1F
  0
XRECORD
  5
B5
102
{ACAD_REACTORS
330
B4
102
}
330
B4
100
AcDbXrecord
340
1B
  0
ACDBPLACEHOLDER
  5
F
102
{ACAD_REACTORS
330
E
102
}
330
E
100
AcDbPlaceHolder
280
     0
  0
MLINESTYLE
  5
18
102
{ACAD_REACTORS
330
17
102
}
330
17
100
AcDbMlineStyle
  2
STANDARD
 70
     0
  3

 62
   256
 51
90.0
 52
90.0
 71
     2
 49
0.5
 62
   256
  6
BYLAYER
 49
-0.5
 62
   256
  6
BYLAYER
  0
XRECORD
  5
95
102
{ACAD_REACTORS
330
94
102
}
330
94
100
AcDbXrecord
 90
        1
  0
XRECORD
  5
96
102
{ACAD_REACTORS
330
94
102
}
330
94
100
AcDbXrecord
 90
       70
  0
XRECORD
  5
97
102
{ACAD_REACTORS
330
94
102
}
330
94
100
AcDbXrecord
  1

  0
XRECORD
  5
98
102
{ACAD_REACTORS
330
94
102
}
330
94
100
AcDbXrecord
  1

  0
XRECORD
  5
99
102
{ACAD_REACTORS
330
94
102
}
330
94
100
AcDbXrecord
340
1A
  0
XRECORD
  5
9A
102
{ACAD_REACTORS
330
94
102
}
330
94
100
AcDbXrecord
340
19
  0
XRECORD
  5
9B
102
{ACAD_REACTORS
330
94
102
}
330
94
100
AcDbXrecord
340
E
  0
XRECORD
  5
9C
102
{ACAD_REACTORS
330
94
102
}
330
94
100
AcDbXrecord
 90
    10781
  0
XRECORD
  5
9D
102
{ACAD_REACTORS
330
94
102
}
330
94
100
AcDbXrecord
 90
        1
  0
XRECORD
  5
9E
102
{ACAD_REACTORS
330
94
102
}
330
94
100
AcDbXrecord
 90
        0
  0
XRECORD
  5
9F
102
{ACAD_REACTORS
330
94
102
}
330
94
100
AcDbXrecord
  1
{2D0C74E1-8F71-44CB-BFC5-C0FDDF2E09BD}
  0
XRECORD
  5
A0
102
{ACAD_REACTORS
330
94
102
}
330
94
100
AcDbXrecord
  1
{95C6FB07-F3DE-4386-B9D8-C9D6FF88B137}
  0
XRECORD
  5
A1
102
{ACAD_REACTORS
330
94
102
}
330
94
100
AcDbXrecord
 40
0.0
  0
XRECORD
  5
A2
102
{ACAD_REACTORS
330
94
102
}
330
94
100
AcDbXrecord
340
0
  0
XRECORD
  5
A3
102
{ACAD_REACTORS
330
94
102
}
330
94
100
AcDbXrecord
 70
     0
  0
XRECORD
  5
A4
102
{ACAD_REACTORS
330
94
102
}
330
94
100
AcDbXrecord
340
0
  0
XRECORD
  5
A5
102
{ACAD_REACTORS
330
94
102
}
330
94
100
AcDbXrecord
 10
0.0
 20
0.0
 30
0.0
  0
XRECORD
  5
A6
102
{ACAD_REACTORS
330
94
102
}
330
94
100
AcDbXrecord
 10
0.0
 20
0.0
 30
0.0
  0
XRECORD
  5
A7
102
{ACAD_REACTORS
330
94
102
}
330
94
100
AcDbXrecord
 10
0.0
 20
0.0
 30
0.0
  0
XRECORD
  5
A8
102
{ACAD_REACTORS
330
94
102
}
330
94
100
AcDbXrecord
 10
0.0
 20
0.0
 30
0.0
  0
XRECORD
  5
A9
102
{ACAD_REACTORS
330
94
102
}
330
94
100
AcDbXrecord
 10
0.0
 20
0.0
 30
0.0
  0
XRECORD
  5
AA
102
{ACAD_REACTORS
330
94
102
}
330
94
100
AcDbXrecord
 10
0.0
 20
0.0
 30
0.0
  0
XRECORD
  5
AB
102
{ACAD_REACTORS
330
94
102
}
330
94
100
AcDbXrecord
340
0
  0
XRECORD
  5
AC
102
{ACAD_REACTORS
330
94
102
}
330
94
100
AcDbXrecord
 70
     0
  0
XRECORD
  5
AD
102
{ACAD_REACTORS
330
94
102
}
330
94
100
AcDbXrecord
340
0
  0
XRECORD
  5
AE
102
{ACAD_REACTORS
330
94
102
}
330
94
100
AcDbXrecord
 10
0.0
 20
0.0
 30
0.0
  0
XRECORD
  5
AF
102
{ACAD_REACTORS
330
94
102
}
330
94
100
AcDbXrecord
 10
0.0
 20
0.0
 30
0.0
  0
XRECORD
  5
B0
102
{ACAD_REACTORS
330
94
102
}
330
94
100
AcDbXrecord
 10
0.0
 20
0.0
 30
0.0
  0
XRECORD
  5
B1
102
{ACAD_REACTORS
330
94
102
}
330
94
100
AcDbXrecord
 10
0.0
 20
0.0
 30
0.0
  0
XRECORD
  5
B2
102
{ACAD_REACTORS
330
94
102
}
330
94
100
AcDbXrecord
 10
0.0
 20
0.0
 30
0.0
  0
XRECORD
  5
B3
102
{ACAD_REACTORS
330
94
102
}
330
94
100
AcDbXrecord
 10
0.0
 20
0.0
 30
0.0
  0
ENDSEC
  0
EOF
