  0
SECTION
  2
HEADER
  9
$ACADVER
  1
AC1014
  9
$ACADMAINTVER
 70
     9
  9
$DWGCODEPAGE
  3
ANSI_1252
  9
$INSBASE
 10
0.0
 20
0.0
 30
0.0
  9
$EXTMIN
 10
-13.3287078905605
 20
0.8202352228802283
 30
-0.0015258207003583
  9
$EXTMAX
 10
112.0481187299776
 20
89.59943103282322
 30
0.0000000349246037
  9
$LIMMIN
 10
0.0
 20
0.0
  9
$LIMMAX
 10
12.0
 20
9.0
  9
$ORTHOMODE
 70
     0
  9
$REGENMODE
 70
     1
  9
$FILLMODE
 70
     1
  9
$QTEXTMODE
 70
     0
  9
$MIRRTEXT
 70
     1
  9
$DRAGMODE
 70
     2
  9
$LTSCALE
 40
1.0
  9
$OSMODE
 70
    37
  9
$ATTMODE
 70
     1
  9
$TEXTSIZE
 40
0.2
  9
$TRACEWID
 40
0.05
  9
$TEXTSTYLE
  7
STANDARD
  9
$CLAYER
  8
0
  9
$CELTYPE
  6
BYLAYER
  9
$CECOLOR
 62
   256
  9
$CELTSCALE
 40
1.0
  9
$DELOBJ
 70
     1
  9
$DISPSILH
 70
     0
  9
$DIMSCALE
 40
1.0
  9
$DIMASZ
 40
0.18
  9
$DIMEXO
 40
0.0625
  9
$DIMDLI
 40
0.38
  9
$DIMRND
 40
0.0
  9
$DIMDLE
 40
0.0
  9
$DIMEXE
 40
0.18
  9
$DIMTP
 40
0.0
  9
$DIMTM
 40
0.0
  9
$DIMTXT
 40
0.18
  9
$DIMCEN
 40
0.09
  9
$DIMTSZ
 40
0.0
  9
$DIMTOL
 70
     0
  9
$DIMLIM
 70
     0
  9
$DIMTIH
 70
     1
  9
$DIMTOH
 70
     1
  9
$DIMSE1
 70
     0
  9
$DIMSE2
 70
     0
  9
$DIMTAD
 70
     0
  9
$DIMZIN
 70
     0
  9
$DIMBLK
  1

  9
$DIMASO
 70
     1
  9
$DIMSHO
 70
     1
  9
$DIMPOST
  1

  9
$DIMAPOST
  1

  9
$DIMALT
 70
     0
  9
$DIMALTD
 70
     2
  9
$DIMALTF
 40
25.4
  9
$DIMLFAC
 40
1.0
  9
$DIMTOFL
 70
     0
  9
$DIMTVP
 40
0.0
  9
$DIMTIX
 70
     0
  9
$DIMSOXD
 70
     0
  9
$DIMSAH
 70
     0
  9
$DIMBLK1
  1

  9
$DIMBLK2
  1

  9
$DIMSTYLE
  2
STANDARD
  9
$DIMCLRD
 70
     0
  9
$DIMCLRE
 70
     0
  9
$DIMCLRT
 70
     0
  9
$DIMTFAC
 40
1.0
  9
$DIMGAP
 40
0.09
  9
$DIMJUST
 70
     0
  9
$DIMSD1
 70
     0
  9
$DIMSD2
 70
     0
  9
$DIMTOLJ
 70
     1
  9
$DIMTZIN
 70
     0
  9
$DIMALTZ
 70
     0
  9
$DIMALTTZ
 70
     0
  9
$DIMFIT
 70
     3
  9
$DIMUPT
 70
     0
  9
$DIMUNIT
 70
     2
  9
$DIMDEC
 70
     4
  9
$DIMTDEC
 70
     4
  9
$DIMALTU
 70
     2
  9
$DIMALTTD
 70
     2
  9
$DIMTXSTY
  7
STANDARD
  9
$DIMAUNIT
 70
     0
  9
$LUNITS
 70
     2
  9
$LUPREC
 70
     4
  9
$SKETCHINC
 40
0.1
  9
$FILLETRAD
 40
0.5
  9
$AUNITS
 70
     0
  9
$AUPREC
 70
     0
  9
$MENU
  1
.
  9
$ELEVATION
 40
0.0
  9
$PELEVATION
 40
0.0
  9
$THICKNESS
 40
0.0
  9
$LIMCHECK
 70
     0
  9
$BLIPMODE
 70
     0
  9
$CHAMFERA
 40
0.5
  9
$CHAMFERB
 40
0.5
  9
$CHAMFERC
 40
1.0
  9
$CHAMFERD
 40
0.0
  9
$SKPOLY
 70
     0
  9
$TDCREATE
 40
2454378.443071828
  9
$TDUPDATE
 40
2454378.445879629
  9
$TDINDWG
 40
0.0028079745
  9
$TDUSRTIMER
 40
0.0028079745
  9
$USRTIMER
 70
     1
  9
$ANGBASE
 50
0.0
  9
$ANGDIR
 70
     0
  9
$PDMODE
 70
     0
  9
$PDSIZE
 40
0.0
  9
$PLINEWID
 40
0.0
  9
$COORDS
 70
     1
  9
$SPLFRAME
 70
     0
  9
$SPLINETYPE
 70
     6
  9
$SPLINESEGS
 70
     8
  9
$ATTDIA
 70
     0
  9
$ATTREQ
 70
     1
  9
$HANDLING
 70
 10241
  9
$HANDSEED
  5
100
  9
$SURFTAB1
 70
     6
  9
$SURFTAB2
 70
     6
  9
$SURFTYPE
 70
     6
  9
$SURFU
 70
     6
  9
$SURFV
 70
     6
  9
$UCSNAME
  2

  9
$UCSORG
 10
0.0
 20
0.0
 30
0.0
  9
$UCSXDIR
 10
1.0
 20
0.0
 30
0.0
  9
$UCSYDIR
 10
0.0
 20
1.0
 30
0.0
  9
$PUCSNAME
  2

  9
$PUCSORG
 10
0.0
 20
0.0
 30
0.0
  9
$PUCSXDIR
 10
1.0
 20
0.0
 30
0.0
  9
$PUCSYDIR
 10
0.0
 20
1.0
 30
0.0
  9
$USERI1
 70
     0
  9
$USERI2
 70
     0
  9
$USERI3
 70
     0
  9
$USERI4
 70
     0
  9
$USERI5
 70
     0
  9
$USERR1
 40
0.0
  9
$USERR2
 40
0.0
  9
$USERR3
 40
0.0
  9
$USERR4
 40
0.0
  9
$USERR5
 40
0.0
  9
$WORLDVIEW
 70
     1
  9
$SHADEDGE
 70
     3
  9
$SHADEDIF
 70
    70
  9
$TILEMODE
 70
     1
  9
$MAXACTVP
 70
    64
  9
$PINSBASE
 10
0.0
 20
0.0
 30
0.0
  9
$PLIMCHECK
 70
     0
  9
$PEXTMIN
 10
1.000000000000000E+20
 20
1.000000000000000E+20
 30
1.000000000000000E+20
  9
$PEXTMAX
 10
-1.000000000000000E+20
 20
-1.000000000000000E+20
 30
-1.000000000000000E+20
  9
$PLIMMIN
 10
0.0
 20
0.0
  9
$PLIMMAX
 10
12.0
 20
9.0
  9
$UNITMODE
 70
     0
  9
$VISRETAIN
 70
     1
  9
$PLINEGEN
 70
     0
  9
$PSLTSCALE
 70
     1
  9
$TREEDEPTH
 70
  3020
  9
$PICKSTYLE
 70
     1
  9
$CMLSTYLE
  2
STANDARD
  9
$CMLJUST
 70
     0
  9
$CMLSCALE
 40
1.0
  9
$PROXYGRAPHICS
 70
     1
  9
$MEASUREMENT
 70
     0
  0
ENDSEC
  0
SECTION
  2
CLASSES
  0
CLASS
  1
ACDBDICTIONARYWDFLT
  2
AcDbDictionaryWithDefault
  3
AutoCAD 2000
 90
        0
280
     0
281
     0
  0
CLASS
  1
ACDBPLACEHOLDER
  2
AcDbPlaceHolder
  3
AutoCAD 2000
 90
        0
280
     0
281
     0
  0
CLASS
  1
LAYOUT
  2
AcDbLayout
  3
AutoCAD 2000
 90
        0
280
     0
281
     0
  0
CLASS
  1
LONG_TRANSACTION
  2
AcDbLongTransaction
  3
AutoCAD 2000
 90
        0
280
     0
281
     0
  0
CLASS
  1
LWPOLYLINE
  2
AcDbPolyline
  3
AutoCAD 2000
 90
        0
280
     0
281
     1
  0
CLASS
  1
HATCH
  2
AcDbHatch
  3
AutoCAD 2000
 90
        0
280
     0
281
     1
  0
CLASS
  1
XRECORD
  2
AcDbXrecord
  3
AutoCAD 2000
 90
        0
280
     0
281
     0
  0
ENDSEC
  0
SECTION
  2
TABLES
  0
TABLE
  2
VPORT
  5
8
330
0
100
AcDbSymbolTable
 70
     5
  0
VPORT
  5
D9
330
8
100
AcDbSymbolTableRecord
100
AcDbViewportTableRecord
  2
*ACTIVE
 70
     0
 10
0.0
 20
0.0
 11
1.0
 21
1.0
 12
45.05262358515635
 22
44.79971551641161
 13
0.0
 23
0.0
 14
0.5
 24
0.5
 15
0.5
 25
0.5
 16
0.0
 26
0.0
 36
1.0
 17
0.0
 27
0.0
 37
0.0
 40
90.65561293104904
 41
1.862204724409448
 42
50.0
 43
0.0
 44
0.0
 50
0.0
 51
0.0
 71
     0
 72
   100
 73
     1
 74
     3
 75
     0
 76
     0
 77
     0
 78
     0
  0
ENDTAB
  0
TABLE
  2
LTYPE
  5
5
330
0
100
AcDbSymbolTable
 70
     2
  0
LTYPE
  5
14
330
5
100
AcDbSymbolTableRecord
100
AcDbLinetypeTableRecord
  2
BYBLOCK
 70
     0
  3

 72
    65
 73
     0
 40
0.0
  0
LTYPE
  5
15
330
5
100
AcDbSymbolTableRecord
100
AcDbLinetypeTableRecord
  2
BYLAYER
 70
     0
  3

 72
    65
 73
     0
 40
0.0
  0
LTYPE
  5
16
330
5
100
AcDbSymbolTableRecord
100
AcDbLinetypeTableRecord
  2
CONTINUOUS
 70
     0
  3
Solid line
 72
    65
 73
     0
 40
0.0
  0
LTYPE
  5
2B
330
5
100
AcDbSymbolTableRecord
100
AcDbLinetypeTableRecord
  2
CENTER
 70
     0
  3
Center ____ _ ____ _ ____ _ ____ _ ____ _ ____
 72
    65
 73
     4
 40
2.0
 49
1.25
 74
     0
 49
-0.25
 74
     0
 49
0.25
 74
     0
 49
-0.25
 74
     0
  0
ENDTAB
  0
TABLE
  2
LAYER
  5
2
330
0
100
AcDbSymbolTable
 70
     6
  0
LAYER
  5
10
330
2
100
AcDbSymbolTableRecord
100
AcDbLayerTableRecord
  2
0
 70
     0
 62
     7
  6
CONTINUOUS
  0
LAYER
  5
2C
330
2
100
AcDbSymbolTableRecord
100
AcDbLayerTableRecord
  2
GAUGE_FACE
 70
     0
 62
     1
  6
CONTINUOUS
  0
LAYER
  5
2D
330
2
100
AcDbSymbolTableRecord
100
AcDbLayerTableRecord
  2
CENTRE_LINE
 70
     0
 62
     5
  6
CENTER
  0
LAYER
  5
2E
330
2
100
AcDbSymbolTableRecord
100
AcDbLayerTableRecord
  2
OUTLINE
 70
     0
 62
     7
  6
CONTINUOUS
  0
LAYER
  5
2F
330
2
100
AcDbSymbolTableRecord
100
AcDbLayerTableRecord
  2
TEXT
 70
     0
 62
     7
  6
CONTINUOUS
  0
LAYER
  5
30
330
2
100
AcDbSymbolTableRecord
100
AcDbLayerTableRecord
  2
BLUNT_NOSE
 70
     0
 62
     3
  6
CONTINUOUS
  0
ENDTAB
  0
TABLE
  2
STYLE
  5
3
330
0
100
AcDbSymbolTable
 70
     1
  0
STYLE
  5
11
330
3
100
AcDbSymbolTableRecord
100
AcDbTextStyleTableRecord
  2
STANDARD
 70
     0
 40
0.0
 41
1.0
 50
0.0
 71
     0
 42
0.2
  3
txt
  4

  0
ENDTAB
  0
TABLE
  2
VIEW
  5
6
330
0
100
AcDbSymbolTable
 70
     0
  0
ENDTAB
  0
TABLE
  2
UCS
  5
7
330
0
100
AcDbSymbolTable
 70
     0
  0
ENDTAB
  0
TABLE
  2
APPID
  5
9
330
0
100
AcDbSymbolTable
 70
     1
  0
APPID
  5
12
330
9
100
AcDbSymbolTableRecord
100
AcDbRegAppTableRecord
  2
ACAD
 70
     0
  0
ENDTAB
  0
TABLE
  2
DIMSTYLE
  5
A
330
0
100
AcDbSymbolTable
 70
     1
  0
DIMSTYLE
105
27
330
A
100
AcDbSymbolTableRecord
100
AcDbDimStyleTableRecord
  2
STANDARD
 70
     0
  3

  4

  5

  6

  7

 40
1.0
 41
0.18
 42
0.0625
 43
0.38
 44
0.18
 45
0.0
 46
0.0
 47
0.0
 48
0.0
140
0.18
141
0.09
142
0.0
143
25.4
144
1.0
145
0.0
146
1.0
147
0.09
 71
     0
 72
     0
 73
     1
 74
     1
 75
     0
 76
     0
 77
     0
 78
     0
170
     0
171
     2
172
     0
173
     0
174
     0
175
     0
176
     0
177
     0
178
     0
270
     2
271
     4
272
     4
273
     2
274
     2
340
11
275
     0
280
     0
281
     0
282
     0
283
     1
284
     0
285
     0
286
     0
287
     3
288
     0
  0
ENDTAB
  0
TABLE
  2
BLOCK_RECORD
  5
1
330
0
100
AcDbSymbolTable
 70
     3
  0
BLOCK_RECORD
  5
1F
102
{ACAD_XDICTIONARY
360
FC
102
}
330
1
100
AcDbSymbolTableRecord
100
AcDbBlockTableRecord
  2
*MODEL_SPACE
  0
BLOCK_RECORD
  5
1B
102
{ACAD_XDICTIONARY
360
FA
102
}
330
1
100
AcDbSymbolTableRecord
100
AcDbBlockTableRecord
  2
*PAPER_SPACE
  0
ENDTAB
  0
ENDSEC
  0
SECTION
  2
BLOCKS
  0
BLOCK
  5
20
330
1F
100
AcDbEntity
  8
0
100
AcDbBlockBegin
  2
*MODEL_SPACE
 70
     0
 10
0.0
 20
0.0
 30
0.0
  3
*MODEL_SPACE
  1

  0
ENDBLK
  5
21
330
1F
100
AcDbEntity
  8
0
100
AcDbBlockEnd
  0
BLOCK
  5
1C
330
1B
100
AcDbEntity
 67
     1
  8
0
100
AcDbBlockBegin
  2
*PAPER_SPACE
 70
     0
 10
0.0
 20
0.0
 30
0.0
  3
*PAPER_SPACE
  1

  0
ENDBLK
  5
1D
330
1B
100
AcDbEntity
 67
     1
  8
0
100
AcDbBlockEnd
  0
ENDSEC
  0
SECTION
  2
ENTITIES
  0
TEXT
  5
63
330
1F
100
AcDbEntity
  8
TEXT
100
AcDbText
 10
34.00558887854863
 20
2.705382384083502
 30
0.0
 40
2.0
  1
elbow  chair
100
AcDbText
  0
TEXT
  5
64
330
1F
100
AcDbEntity
  8
TEXT
100
AcDbText
 10
34.00558887854863
 20
5.918206394997529
 30
0.0
 40
2.0
  1
K knuckle or
100
AcDbText
  0
LINE
  5
65
330
1F
100
AcDbEntity
  8
GAUGE_FACE
100
AcDbLine
 10
19.40857294276674
 20
11.8222005864658
 30
0.0
 11
19.10857294276701
 21
7.3222005864658
 31
0.0
  0
LINE
  5
67
330
1F
100
AcDbEntity
  8
CENTRE_LINE
100
AcDbLine
 10
17.10857294276701
 20
0.8222005864658008
 30
0.0
 11
17.10857294276701
 21
29.85376563488173
 31
0.0
  0
ARC
  5
68
330
1F
100
AcDbEntity
  8
OUTLINE
100
AcDbCircle
 10
26.10857294276696
 20
9.822200586465793
 30
0.0
 40
2.0
100
AcDbArc
 50
0.0
 51
90.0
  0
ARC
  5
69
330
1F
100
AcDbEntity
  8
OUTLINE
100
AcDbCircle
 10
8.108572942767075
 20
9.822200586465829
 30
0.0
 40
2.0
100
AcDbArc
 50
90.0
 51
180.0
  0
ARC
  5
6A
330
1F
100
AcDbEntity
  8
TEXT
100
AcDbCircle
 10
8.108572942767075
 20
9.822200586465829
 30
0.0
 40
2.0
100
AcDbArc
 50
90.0
 51
180.0
  0
LINE
  5
6B
330
1F
100
AcDbEntity
  8
OUTLINE
100
AcDbLine
 10
8.108572942767075
 20
2.822200586465822
 30
0.0
 11
26.10857294276696
 21
2.8222005864658
 31
0.0
  0
LINE
  5
6C
330
1F
100
AcDbEntity
  8
CENTRE_LINE
100
AcDbLine
 10
6.108572942767075
 20
7.322200586465822
 30
0.0
 11
28.10857294276696
 21
7.3222005864658
 31
0.0
  0
LINE
  5
6D
330
1F
100
AcDbEntity
  8
GAUGE_FACE
100
AcDbLine
 10
19.40857294276674
 20
2.822200586465822
 30
0.0
 11
19.10857294276701
 21
7.3222005864658
 31
0.0
  0
LINE
  5
6F
330
1F
100
AcDbEntity
  8
OUTLINE
100
AcDbLine
 10
6.108572942767075
 20
4.822200586465822
 30
0.0
 11
6.108572942767075
 21
9.822200586465829
 31
0.0
  0
ARC
  5
70
330
1F
100
AcDbEntity
  8
OUTLINE
100
AcDbCircle
 10
8.108572942767075
 20
4.822200586465822
 30
0.0
 40
2.0
100
AcDbArc
 50
180.0
 51
270.0
  0
LINE
  5
71
330
1F
100
AcDbEntity
  8
OUTLINE
100
AcDbLine
 10
28.10857294276696
 20
9.822200586465793
 30
0.0
 11
28.10857294276696
 21
4.8222005864658
 31
0.0
  0
ARC
  5
72
330
1F
100
AcDbEntity
  8
OUTLINE
100
AcDbCircle
 10
26.10857294276696
 20
4.8222005864658
 30
0.0
 40
2.0
100
AcDbArc
 50
270.0
 51
0.0
  0
LINE
  5
73
330
1F
100
AcDbEntity
  8
OUTLINE
100
AcDbLine
 10
4.608572942767018
 20
19.85376563488173
 30
0.0
 11
11.10857294276701
 21
15.85376563488173
 31
0.0
  0
LINE
  5
74
330
1F
100
AcDbEntity
  8
OUTLINE
100
AcDbLine
 10
29.60857294276701
 20
27.85376563488171
 30
0.0
 11
4.608572942767018
 21
27.85376563488175
 31
0.0
  0
LINE
  5
75
330
1F
100
AcDbEntity
  8
CENTRE_LINE
100
AcDbLine
 10
31.10857294276701
 20
21.85376563488172
 30
0.0
 11
3.108572942767075
 21
21.85376563488173
 31
0.0
  0
LINE
  5
76
330
1F
100
AcDbEntity
  8
OUTLINE
100
AcDbLine
 10
4.608572942767018
 20
19.85376563488173
 30
0.0
 11
4.608572942767018
 21
27.85376563488175
 31
0.0
  0
LINE
  5
77
330
1F
100
AcDbEntity
  8
GAUGE_FACE
100
AcDbLine
 10
17.10857294276701
 20
18.85376563488171
 30
0.0
 11
16.50857294276721
 21
27.85376563488172
 31
0.0
  0
LINE
  5
78
330
1F
100
AcDbEntity
  8
GAUGE_FACE
100
AcDbLine
 10
19.70857294276715
 20
15.85376563488173
 30
0.0
 11
20.50857294276688
 21
27.85376563488172
 31
0.0
  0
LINE
  5
79
330
1F
100
AcDbEntity
  8
OUTLINE
100
AcDbLine
 10
29.60857294276701
 20
19.8537656348817
 30
0.0
 11
29.60857294276701
 21
27.85376563488171
 31
0.0
  0
LINE
  5
7A
330
1F
100
AcDbEntity
  8
OUTLINE
100
AcDbLine
 10
23.10857294276702
 20
15.85376563488173
 30
0.0
 11
11.10857294276701
 21
15.85376563488173
 31
0.0
  0
LINE
  5
7B
330
1F
100
AcDbEntity
  8
OUTLINE
100
AcDbLine
 10
8.108572942767075
 20
11.8222005864658
 30
0.0
 11
26.10857294276696
 21
11.8222005864658
 31
0.0
  0
CIRCLE
  5
7C
330
1F
100
AcDbEntity
  8
BLUNT_NOSE
100
AcDbCircle
 10
17.10857294276701
 20
18.85376563488172
 30
0.0
 40
0.5
  0
LINE
  5
7D
330
1F
100
AcDbEntity
  8
BLUNT_NOSE
100
AcDbLine
 10
17.10857294276701
 20
18.35376563488173
 30
0.0
 11
17.10857294276701
 21
19.35376563488172
 31
0.0
  0
LINE
  5
7E
330
1F
100
AcDbEntity
  8
BLUNT_NOSE
100
AcDbLine
 10
17.60857294276696
 20
18.85376563488172
 30
0.0
 11
16.60857294276701
 21
18.85376563488172
 31
0.0
  0
LINE
  5
7F
330
1F
100
AcDbEntity
  8
OUTLINE
100
AcDbLine
 10
29.60857294276701
 20
19.8537656348817
 30
0.0
 11
23.10857294276702
 21
15.85376563488173
 31
0.0
  0
CIRCLE
  5
80
330
1F
100
AcDbEntity
  8
TEXT
100
AcDbCircle
 10
40.31139678740124
 20
12.76451815605151
 30
0.0
 40
3.0
  0
TEXT
  5
81
330
1F
100
AcDbEntity
  8
TEXT
100
AcDbText
 10
36.69979537276533
 20
19.18061483833998
 30
0.0
 40
2.0
  1
Slab and bracket (nose)
100
AcDbText
  0
TEXT
  5
82
330
1F
100
AcDbEntity
  8
TEXT
100
AcDbText
 10
38.68372459005076
 20
12.22269534617008
 30
0.0
 40
2.0
  1
19
100
AcDbText
  0
CIRCLE
  5
83
330
1F
100
AcDbEntity
  8
TEXT
100
AcDbCircle
 10
46.49601033839713
 20
25.88902507833381
 30
0.0
 40
3.0
  0
TEXT
  5
84
330
1F
100
AcDbEntity
  8
TEXT
100
AcDbText
 10
45.13961610124545
 20
25.07629070240729
 30
0.0
 40
2.0
  1
18
100
AcDbText
  0
LINE
  5
85
330
1F
100
AcDbEntity
  8
OUTLINE
100
AcDbLine
 10
2.044099140364671
 20
37.38135308686948
 30
0.0
 11
35.04409914036473
 21
37.38135308686948
 31
0.0
  0
LINE
  5
86
330
1F
100
AcDbEntity
  8
OUTLINE
100
AcDbLine
 10
2.044099140364671
 20
45.38135308686948
 30
0.0
 11
35.04409914036473
 21
45.38135308686948
 31
0.0
  0
LINE
  5
87
330
1F
100
AcDbEntity
  8
CENTRE_LINE
100
AcDbLine
 10
2.044099140364671
 20
41.38135308686945
 30
0.0
 11
35.04409914036473
 21
41.38135308686945
 31
0.0
  0
LINE
  5
88
330
1F
100
AcDbEntity
  8
OUTLINE
100
AcDbLine
 10
2.044099140364671
 20
37.38135308686948
 30
0.0
 11
2.044099140364671
 21
45.38135308686948
 31
0.0
  0
LINE
  5
89
330
1F
100
AcDbEntity
  8
GAUGE_FACE
100
AcDbLine
 10
16.1332870561335
 20
45.38135308686948
 30
0.0
 11
16.6666203894668
 21
37.38135308686948
 31
0.0
  0
LINE
  5
8A
330
1F
100
AcDbEntity
  8
OUTLINE
100
AcDbLine
 10
35.04409914036473
 20
37.38135308686948
 30
0.0
 11
35.04409914036473
 21
45.38135308686948
 31
0.0
  0
LINE
  5
8B
330
1F
100
AcDbEntity
  8
GAUGE_FACE
100
AcDbLine
 10
25.31076580703127
 20
45.38135308686948
 30
0.0
 11
24.77743247369802
 21
37.38135308686948
 31
0.0
  0
TEXT
  5
8C
330
1F
100
AcDbEntity
  8
TEXT
100
AcDbText
 10
-3.115766062247693
 20
52.37665011905582
 30
0.0
 40
3.0
  1
elbow  crossing
 72
     1
 11
17.1342339377523
 21
52.37665011905582
 31
0.0
100
AcDbText
  0
TEXT
  5
8D
330
1F
100
AcDbEntity
  8
TEXT
100
AcDbText
 10
-2.865766062247693
 20
57.19588613542693
 30
0.0
 40
3.0
  1
1 in 71/2  K or
 72
     1
 11
17.1342339377523
 21
57.19588613542693
 31
0.0
100
AcDbText
  0
TEXT
  5
8E
330
1F
100
AcDbEntity
  8
TEXT
100
AcDbText
 10
40.9517174826795
 20
38.09534540280568
 30
0.0
 40
2.0
  1
Slab and bracket
100
AcDbText
  0
CIRCLE
  5
8F
330
1F
100
AcDbEntity
  8
TEXT
100
AcDbCircle
 10
49.58831744944298
 20
44.41774073332064
 30
0.0
 40
3.0
  0
TEXT
  5
90
330
1F
100
AcDbEntity
  8
TEXT
100
AcDbText
 10
48.23192384602829
 20
43.60500667960288
 30
0.0
 40
2.0
  1
17
100
AcDbText
  0
TEXT
  5
CB
330
1F
100
AcDbEntity
  8
BLUNT_NOSE
100
AcDbText
 10
-9.664692646168347
 20
73.3799020831413
 30
0.0
 40
2.0
  1
Blunt nose
100
AcDbText
  0
LINE
  5
CC
330
1F
100
AcDbEntity
  8
BLUNT_NOSE
100
AcDbLine
 10
-12.32715022123288
 20
74.6845733572533
 30
0.0
 11
-13.32715022123287
 21
74.6845733572533
 31
0.0
  0
CIRCLE
  5
CD
330
1F
100
AcDbEntity
  8
BLUNT_NOSE
100
AcDbCircle
 10
-12.82715022123287
 20
74.6845733572533
 30
0.0
 40
0.5
  0
LINE
  5
CE
330
1F
100
AcDbEntity
  8
BLUNT_NOSE
100
AcDbLine
 10
-12.82715022123287
 20
75.18457335725329
 30
0.0
 11
-12.82715022123287
 21
74.1845733572533
 31
0.0
  0
TEXT
  5
CF
330
1F
100
AcDbEntity
  8
TEXT
100
AcDbText
 10
5.989804541304792
 20
86.59911902608449
 30
0.0
 40
3.0
  1
Key  to sybols &  lines
 72
     1
 11
37.48980454130479
 21
86.59911902608449
 31
0.0
100
AcDbText
  0
TEXT
  5
D0
330
1F
100
AcDbEntity
  8
GAUGE_FACE
100
AcDbText
 10
14.05373691506983
 20
75.86132502144249
 30
0.0
 40
2.0
  1
Rail gauge
100
AcDbText
  0
LINE
  5
D1
330
1F
100
AcDbEntity
  8
GAUGE_FACE
100
AcDbLine
 10
10.66538969192501
 20
73.6054860560082
 30
0.0
 11
11.26538969192505
 21
78.1054860560082
 31
0.0
  0
LINE
  5
D2
330
1F
100
AcDbEntity
  8
GAUGE_FACE
100
AcDbLine
 10
10.66538969192501
 20
73.6054860560082
 30
0.0
 11
11.26538969192502
 21
69.1054860560082
 31
0.0
  0
TEXT
  5
D3
330
1F
100
AcDbEntity
  8
GAUGE_FACE
100
AcDbText
 10
14.05373691506983
 20
72.64850101052819
 30
0.0
 40
2.0
  1
face
100
AcDbText
  0
TEXT
  5
D4
330
1F
100
AcDbEntity
  8
CENTRE_LINE
100
AcDbText
 10
44.77475057067816
 20
76.3124929671758
 30
0.0
 40
2.0
  1
Centre line
100
AcDbText
  0
LINE
  5
D5
330
1F
100
AcDbEntity
  8
CENTRE_LINE
100
AcDbLine
 10
41.61229299561369
 20
68.41705620653939
 30
0.0
 11
41.61229299561369
 21
80.41705620653948
 31
0.0
  0
TEXT
  5
D6
330
1F
100
AcDbEntity
  8
CENTRE_LINE
100
AcDbText
 10
44.77475057067816
 20
73.09966895626171
 30
0.0
 40
2.0
  1
or through bolt C/l
100
AcDbText
  0
LINE
  5
D7
330
1F
100
AcDbEntity
  8
OUTLINE
100
AcDbLine
 10
86.76721569247423
 20
69.7705595349176
 30
0.0
 11
86.76721569247423
 21
77.77055953491769
 31
0.0
  0
TEXT
  5
D8
330
1F
100
AcDbEntity
  8
OUTLINE
100
AcDbText
 10
90.38145206331103
 20
73.3799020831413
 30
0.0
 40
2.0
  1
Chair outline
100
AcDbText
  0
ENDSEC
  0
SECTION
  2
OBJECTS
  0
DICTIONARY
  5
C
330
0
100
AcDbDictionary
  3
ACAD_GROUP
350
D
  3
ACAD_PLOTSTYLENAME
350
E
  3
ACAD_MLINESTYLE
350
17
  3
ACAD_PLOTSETTINGS
350
19
  3
ACAD_LAYOUT
350
1A
  3
ACDBHEADERROUNDTRIPXREC
350
DA
  0
DICTIONARY
  5
FC
330
1F
100
AcDbDictionary
280
     1
  3
ACAD_LAYOUTSELFREF
360
FD
  0
DICTIONARY
  5
FA
330
1B
100
AcDbDictionary
280
     1
  3
ACAD_LAYOUTSELFREF
360
FB
  0
DICTIONARY
  5
D
102
{ACAD_REACTORS
330
C
102
}
330
C
100
AcDbDictionary
  0
ACDBDICTIONARYWDFLT
  5
E
102
{ACAD_REACTORS
330
C
102
}
330
C
100
AcDbDictionary
281
     1
  3
Normal
350
F
100
AcDbDictionaryWithDefault
340
F
  0
DICTIONARY
  5
17
102
{ACAD_REACTORS
330
C
102
}
330
C
100
AcDbDictionary
  3
STANDARD
350
18
  0
DICTIONARY
  5
19
102
{ACAD_REACTORS
330
C
102
}
330
C
100
AcDbDictionary
  0
DICTIONARY
  5
1A
102
{ACAD_REACTORS
330
C
102
}
330
C
100
AcDbDictionary
  0
DICTIONARY
  5
DA
102
{ACAD_REACTORS
330
C
102
}
330
C
100
AcDbDictionary
  3
TSTACKALIGN
350
DB
  3
TSTACKSIZE
350
DC
  3
HYPERLINKBASE
350
DD
  3
STYLESHEET
350
DE
  3
LAYOUTDICT
350
DF
  3
PLOTSETDICT
350
E0
  3
PLOTSTYLNAMDICT
350
E1
  3
LWETCUNION
350
E2
  3
INSUNITS
350
E3
  3
CEPSNTYPE
350
E4
  3
FINGERPRINTGUID
350
E5
  3
VERSIONGUID
350
E6
  3
PSVPSCALE
350
E7
  3
PUCSORTHOREF
350
E8
  3
PUCSORTHOVIEW
350
E9
  3
PUCSBASE
350
EA
  3
PUCSORGTOP
350
EB
  3
PUCSORGBOTTOM
350
EC
  3
PUCSORGLEFT
350
ED
  3
PUCSORGRIGHT
350
EE
  3
PUCSORGFRONT
350
EF
  3
PUCSORGBACK
350
F0
  3
UCSORTHOREF
350
F1
  3
UCSORTHOVIEW
350
F2
  3
UCSBASE
350
F3
  3
UCSORGTOP
350
F4
  3
UCSORGBOTTOM
350
F5
  3
UCSORGLEFT
350
F6
  3
UCSORGRIGHT
350
F7
  3
UCSORGFRONT
350
F8
  3
UCSORGBACK
350
F9
  0
XRECORD
  5
FD
102
{ACAD_REACTORS
330
FC
102
}
330
FC
100
AcDbXrecord
340
1F
  0
XRECORD
  5
FB
102
{ACAD_REACTORS
330
FA
102
}
330
FA
100
AcDbXrecord
340
1B
  0
ACDBPLACEHOLDER
  5
F
102
{ACAD_REACTORS
330
E
102
}
330
E
100
AcDbPlaceHolder
280
     0
  0
MLINESTYLE
  5
18
102
{ACAD_REACTORS
330
17
102
}
330
17
100
AcDbMlineStyle
  2
STANDARD
 70
     0
  3

 62
   256
 51
90.0
 52
90.0
 71
     2
 49
0.5
 62
   256
  6
BYLAYER
 49
-0.5
 62
   256
  6
BYLAYER
  0
XRECORD
  5
DB
102
{ACAD_REACTORS
330
DA
102
}
330
DA
100
AcDbXrecord
 90
        1
  0
XRECORD
  5
DC
102
{ACAD_REACTORS
330
DA
102
}
330
DA
100
AcDbXrecord
 90
       70
  0
XRECORD
  5
DD
102
{ACAD_REACTORS
330
DA
102
}
330
DA
100
AcDbXrecord
  1

  0
XRECORD
  5
DE
102
{ACAD_REACTORS
330
DA
102
}
330
DA
100
AcDbXrecord
  1

  0
XRECORD
  5
DF
102
{ACAD_REACTORS
330
DA
102
}
330
DA
100
AcDbXrecord
340
1A
  0
XRECORD
  5
E0
102
{ACAD_REACTORS
330
DA
102
}
330
DA
100
AcDbXrecord
340
19
  0
XRECORD
  5
E1
102
{ACAD_REACTORS
330
DA
102
}
330
DA
100
AcDbXrecord
340
E
  0
XRECORD
  5
E2
102
{ACAD_REACTORS
330
DA
102
}
330
DA
100
AcDbXrecord
 90
    10781
  0
XRECORD
  5
E3
102
{ACAD_REACTORS
330
DA
102
}
330
DA
100
AcDbXrecord
 90
        1
  0
XRECORD
  5
E4
102
{ACAD_REACTORS
330
DA
102
}
330
DA
100
AcDbXrecord
 90
        0
  0
XRECORD
  5
E5
102
{ACAD_REACTORS
330
DA
102
}
330
DA
100
AcDbXrecord
  1
{832384E0-9C11-4FA6-AF94-0838F9924A35}
  0
XRECORD
  5
E6
102
{ACAD_REACTORS
330
DA
102
}
330
DA
100
AcDbXrecord
  1
{0A10E2D1-B272-4268-9337-35E6007C5964}
  0
XRECORD
  5
E7
102
{ACAD_REACTORS
330
DA
102
}
330
DA
100
AcDbXrecord
 40
0.0
  0
XRECORD
  5
E8
102
{ACAD_REACTORS
330
DA
102
}
330
DA
100
AcDbXrecord
340
0
  0
XRECORD
  5
E9
102
{ACAD_REACTORS
330
DA
102
}
330
DA
100
AcDbXrecord
 70
     0
  0
XRECORD
  5
EA
102
{ACAD_REACTORS
330
DA
102
}
330
DA
100
AcDbXrecord
340
0
  0
XRECORD
  5
EB
102
{ACAD_REACTORS
330
DA
102
}
330
DA
100
AcDbXrecord
 10
0.0
 20
0.0
 30
0.0
  0
XRECORD
  5
EC
102
{ACAD_REACTORS
330
DA
102
}
330
DA
100
AcDbXrecord
 10
0.0
 20
0.0
 30
0.0
  0
XRECORD
  5
ED
102
{ACAD_REACTORS
330
DA
102
}
330
DA
100
AcDbXrecord
 10
0.0
 20
0.0
 30
0.0
  0
XRECORD
  5
EE
102
{ACAD_REACTORS
330
DA
102
}
330
DA
100
AcDbXrecord
 10
0.0
 20
0.0
 30
0.0
  0
XRECORD
  5
EF
102
{ACAD_REACTORS
330
DA
102
}
330
DA
100
AcDbXrecord
 10
0.0
 20
0.0
 30
0.0
  0
XRECORD
  5
F0
102
{ACAD_REACTORS
330
DA
102
}
330
DA
100
AcDbXrecord
 10
0.0
 20
0.0
 30
0.0
  0
XRECORD
  5
F1
102
{ACAD_REACTORS
330
DA
102
}
330
DA
100
AcDbXrecord
340
0
  0
XRECORD
  5
F2
102
{ACAD_REACTORS
330
DA
102
}
330
DA
100
AcDbXrecord
 70
     0
  0
XRECORD
  5
F3
102
{ACAD_REACTORS
330
DA
102
}
330
DA
100
AcDbXrecord
340
0
  0
XRECORD
  5
F4
102
{ACAD_REACTORS
330
DA
102
}
330
DA
100
AcDbXrecord
 10
0.0
 20
0.0
 30
0.0
  0
XRECORD
  5
F5
102
{ACAD_REACTORS
330
DA
102
}
330
DA
100
AcDbXrecord
 10
0.0
 20
0.0
 30
0.0
  0
XRECORD
  5
F6
102
{ACAD_REACTORS
330
DA
102
}
330
DA
100
AcDbXrecord
 10
0.0
 20
0.0
 30
0.0
  0
XRECORD
  5
F7
102
{ACAD_REACTORS
330
DA
102
}
330
DA
100
AcDbXrecord
 10
0.0
 20
0.0
 30
0.0
  0
XRECORD
  5
F8
102
{ACAD_REACTORS
330
DA
102
}
330
DA
100
AcDbXrecord
 10
0.0
 20
0.0
 30
0.0
  0
XRECORD
  5
F9
102
{ACAD_REACTORS
330
DA
102
}
330
DA
100
AcDbXrecord
 10
0.0
 20
0.0
 30
0.0
  0
ENDSEC
  0
EOF
