  0
SECTION
  2
HEADER
  9
$ACADVER
  1
AC1014
  9
$ACADMAINTVER
 70
     9
  9
$DWGCODEPAGE
  3
ANSI_1252
  9
$INSBASE
 10
0.0
 20
0.0
 30
0.0
  9
$EXTMIN
 10
-2.827077052526718
 20
-3.037488084118899
 30
-0.0015258207003583
  9
$EXTMAX
 10
121.2910260188914
 20
60.00228556084582
 30
0.0000000349246037
  9
$LIMMIN
 10
0.0
 20
0.0
  9
$LIMMAX
 10
12.0
 20
9.0
  9
$ORTHOMODE
 70
     0
  9
$REGENMODE
 70
     1
  9
$FILLMODE
 70
     1
  9
$QTEXTMODE
 70
     0
  9
$MIRRTEXT
 70
     1
  9
$DRAGMODE
 70
     2
  9
$LTSCALE
 40
1.0
  9
$OSMODE
 70
    37
  9
$ATTMODE
 70
     1
  9
$TEXTSIZE
 40
0.2
  9
$TRACEWID
 40
0.05
  9
$TEXTSTYLE
  7
STANDARD
  9
$CLAYER
  8
0
  9
$CELTYPE
  6
BYLAYER
  9
$CECOLOR
 62
   256
  9
$CELTSCALE
 40
1.0
  9
$DELOBJ
 70
     1
  9
$DISPSILH
 70
     0
  9
$DIMSCALE
 40
1.0
  9
$DIMASZ
 40
0.18
  9
$DIMEXO
 40
0.0625
  9
$DIMDLI
 40
0.38
  9
$DIMRND
 40
0.0
  9
$DIMDLE
 40
0.0
  9
$DIMEXE
 40
0.18
  9
$DIMTP
 40
0.0
  9
$DIMTM
 40
0.0
  9
$DIMTXT
 40
0.18
  9
$DIMCEN
 40
0.09
  9
$DIMTSZ
 40
0.0
  9
$DIMTOL
 70
     0
  9
$DIMLIM
 70
     0
  9
$DIMTIH
 70
     1
  9
$DIMTOH
 70
     1
  9
$DIMSE1
 70
     0
  9
$DIMSE2
 70
     0
  9
$DIMTAD
 70
     0
  9
$DIMZIN
 70
     0
  9
$DIMBLK
  1

  9
$DIMASO
 70
     1
  9
$DIMSHO
 70
     1
  9
$DIMPOST
  1

  9
$DIMAPOST
  1

  9
$DIMALT
 70
     0
  9
$DIMALTD
 70
     2
  9
$DIMALTF
 40
25.4
  9
$DIMLFAC
 40
1.0
  9
$DIMTOFL
 70
     0
  9
$DIMTVP
 40
0.0
  9
$DIMTIX
 70
     0
  9
$DIMSOXD
 70
     0
  9
$DIMSAH
 70
     0
  9
$DIMBLK1
  1

  9
$DIMBLK2
  1

  9
$DIMSTYLE
  2
STANDARD
  9
$DIMCLRD
 70
     0
  9
$DIMCLRE
 70
     0
  9
$DIMCLRT
 70
     0
  9
$DIMTFAC
 40
1.0
  9
$DIMGAP
 40
0.09
  9
$DIMJUST
 70
     0
  9
$DIMSD1
 70
     0
  9
$DIMSD2
 70
     0
  9
$DIMTOLJ
 70
     1
  9
$DIMTZIN
 70
     0
  9
$DIMALTZ
 70
     0
  9
$DIMALTTZ
 70
     0
  9
$DIMFIT
 70
     3
  9
$DIMUPT
 70
     0
  9
$DIMUNIT
 70
     2
  9
$DIMDEC
 70
     4
  9
$DIMTDEC
 70
     4
  9
$DIMALTU
 70
     2
  9
$DIMALTTD
 70
     2
  9
$DIMTXSTY
  7
STANDARD
  9
$DIMAUNIT
 70
     0
  9
$LUNITS
 70
     2
  9
$LUPREC
 70
     4
  9
$SKETCHINC
 40
0.1
  9
$FILLETRAD
 40
0.5
  9
$AUNITS
 70
     0
  9
$AUPREC
 70
     0
  9
$MENU
  1
.
  9
$ELEVATION
 40
0.0
  9
$PELEVATION
 40
0.0
  9
$THICKNESS
 40
0.0
  9
$LIMCHECK
 70
     0
  9
$BLIPMODE
 70
     0
  9
$CHAMFERA
 40
0.5
  9
$CHAMFERB
 40
0.5
  9
$CHAMFERC
 40
1.0
  9
$CHAMFERD
 40
0.0
  9
$SKPOLY
 70
     0
  9
$TDCREATE
 40
2454374.495102349
  9
$TDUPDATE
 40
2454374.499643553
  9
$TDINDWG
 40
0.0045415625
  9
$TDUSRTIMER
 40
0.0045415625
  9
$USRTIMER
 70
     1
  9
$ANGBASE
 50
0.0
  9
$ANGDIR
 70
     0
  9
$PDMODE
 70
     0
  9
$PDSIZE
 40
0.0
  9
$PLINEWID
 40
0.0
  9
$COORDS
 70
     1
  9
$SPLFRAME
 70
     0
  9
$SPLINETYPE
 70
     6
  9
$SPLINESEGS
 70
     8
  9
$ATTDIA
 70
     0
  9
$ATTREQ
 70
     1
  9
$HANDLING
 70
 10241
  9
$HANDSEED
  5
ED
  9
$SURFTAB1
 70
     6
  9
$SURFTAB2
 70
     6
  9
$SURFTYPE
 70
     6
  9
$SURFU
 70
     6
  9
$SURFV
 70
     6
  9
$UCSNAME
  2

  9
$UCSORG
 10
0.0
 20
0.0
 30
0.0
  9
$UCSXDIR
 10
1.0
 20
0.0
 30
0.0
  9
$UCSYDIR
 10
0.0
 20
1.0
 30
0.0
  9
$PUCSNAME
  2

  9
$PUCSORG
 10
0.0
 20
0.0
 30
0.0
  9
$PUCSXDIR
 10
1.0
 20
0.0
 30
0.0
  9
$PUCSYDIR
 10
0.0
 20
1.0
 30
0.0
  9
$USERI1
 70
     0
  9
$USERI2
 70
     0
  9
$USERI3
 70
     0
  9
$USERI4
 70
     0
  9
$USERI5
 70
     0
  9
$USERR1
 40
0.0
  9
$USERR2
 40
0.0
  9
$USERR3
 40
0.0
  9
$USERR4
 40
0.0
  9
$USERR5
 40
0.0
  9
$WORLDVIEW
 70
     1
  9
$SHADEDGE
 70
     3
  9
$SHADEDIF
 70
    70
  9
$TILEMODE
 70
     1
  9
$MAXACTVP
 70
    64
  9
$PINSBASE
 10
0.0
 20
0.0
 30
0.0
  9
$PLIMCHECK
 70
     0
  9
$PEXTMIN
 10
1.000000000000000E+20
 20
1.000000000000000E+20
 30
1.000000000000000E+20
  9
$PEXTMAX
 10
-1.000000000000000E+20
 20
-1.000000000000000E+20
 30
-1.000000000000000E+20
  9
$PLIMMIN
 10
0.0
 20
0.0
  9
$PLIMMAX
 10
12.0
 20
9.0
  9
$UNITMODE
 70
     0
  9
$VISRETAIN
 70
     1
  9
$PLINEGEN
 70
     0
  9
$PSLTSCALE
 70
     1
  9
$TREEDEPTH
 70
  3020
  9
$PICKSTYLE
 70
     1
  9
$CMLSTYLE
  2
STANDARD
  9
$CMLJUST
 70
     0
  9
$CMLSCALE
 40
1.0
  9
$PROXYGRAPHICS
 70
     1
  9
$MEASUREMENT
 70
     0
  0
ENDSEC
  0
SECTION
  2
CLASSES
  0
CLASS
  1
ACDBDICTIONARYWDFLT
  2
AcDbDictionaryWithDefault
  3
AutoCAD 2000
 90
        0
280
     0
281
     0
  0
CLASS
  1
ACDBPLACEHOLDER
  2
AcDbPlaceHolder
  3
AutoCAD 2000
 90
        0
280
     0
281
     0
  0
CLASS
  1
LAYOUT
  2
AcDbLayout
  3
AutoCAD 2000
 90
        0
280
     0
281
     0
  0
CLASS
  1
LONG_TRANSACTION
  2
AcDbLongTransaction
  3
AutoCAD 2000
 90
        0
280
     0
281
     0
  0
CLASS
  1
LWPOLYLINE
  2
AcDbPolyline
  3
AutoCAD 2000
 90
        0
280
     0
281
     1
  0
CLASS
  1
HATCH
  2
AcDbHatch
  3
AutoCAD 2000
 90
        0
280
     0
281
     1
  0
CLASS
  1
XRECORD
  2
AcDbXrecord
  3
AutoCAD 2000
 90
        0
280
     0
281
     0
  0
ENDSEC
  0
SECTION
  2
TABLES
  0
TABLE
  2
VPORT
  5
8
330
0
100
AcDbSymbolTable
 70
     4
  0
VPORT
  5
C6
330
8
100
AcDbSymbolTableRecord
100
AcDbViewportTableRecord
  2
*ACTIVE
 70
     0
 10
0.0
 20
0.0
 11
1.0
 21
1.0
 12
52.34286396341231
 22
30.75340686861928
 13
0.0
 23
0.0
 14
0.5
 24
0.5
 15
0.5
 25
0.5
 16
0.0
 26
0.0
 36
1.0
 17
0.0
 27
0.0
 37
0.0
 40
79.87919696753785
 41
1.862204724409448
 42
50.0
 43
0.0
 44
0.0
 50
0.0
 51
0.0
 71
     0
 72
   100
 73
     1
 74
     3
 75
     0
 76
     0
 77
     0
 78
     0
  0
ENDTAB
  0
TABLE
  2
LTYPE
  5
5
330
0
100
AcDbSymbolTable
 70
     2
  0
LTYPE
  5
14
330
5
100
AcDbSymbolTableRecord
100
AcDbLinetypeTableRecord
  2
BYBLOCK
 70
     0
  3

 72
    65
 73
     0
 40
0.0
  0
LTYPE
  5
15
330
5
100
AcDbSymbolTableRecord
100
AcDbLinetypeTableRecord
  2
BYLAYER
 70
     0
  3

 72
    65
 73
     0
 40
0.0
  0
LTYPE
  5
16
330
5
100
AcDbSymbolTableRecord
100
AcDbLinetypeTableRecord
  2
CONTINUOUS
 70
     0
  3
Solid line
 72
    65
 73
     0
 40
0.0
  0
LTYPE
  5
2B
330
5
100
AcDbSymbolTableRecord
100
AcDbLinetypeTableRecord
  2
CENTER
 70
     0
  3
Center ____ _ ____ _ ____ _ ____ _ ____ _ ____
 72
    65
 73
     4
 40
2.0
 49
1.25
 74
     0
 49
-0.25
 74
     0
 49
0.25
 74
     0
 49
-0.25
 74
     0
  0
ENDTAB
  0
TABLE
  2
LAYER
  5
2
330
0
100
AcDbSymbolTable
 70
     6
  0
LAYER
  5
10
330
2
100
AcDbSymbolTableRecord
100
AcDbLayerTableRecord
  2
0
 70
     0
 62
     7
  6
CONTINUOUS
  0
LAYER
  5
2C
330
2
100
AcDbSymbolTableRecord
100
AcDbLayerTableRecord
  2
GAUGE_FACE
 70
     0
 62
     1
  6
CONTINUOUS
  0
LAYER
  5
2D
330
2
100
AcDbSymbolTableRecord
100
AcDbLayerTableRecord
  2
CENTRE_LINE
 70
     0
 62
     5
  6
CENTER
  0
LAYER
  5
2E
330
2
100
AcDbSymbolTableRecord
100
AcDbLayerTableRecord
  2
OUTLINE
 70
     0
 62
     7
  6
CONTINUOUS
  0
LAYER
  5
2F
330
2
100
AcDbSymbolTableRecord
100
AcDbLayerTableRecord
  2
TEXT
 70
     0
 62
     7
  6
CONTINUOUS
  0
LAYER
  5
A5
330
2
100
AcDbSymbolTableRecord
100
AcDbLayerTableRecord
  2
BLUNT_NOSE
 70
     0
 62
     3
  6
CONTINUOUS
  0
ENDTAB
  0
TABLE
  2
STYLE
  5
3
330
0
100
AcDbSymbolTable
 70
     1
  0
STYLE
  5
11
330
3
100
AcDbSymbolTableRecord
100
AcDbTextStyleTableRecord
  2
STANDARD
 70
     0
 40
0.0
 41
1.0
 50
0.0
 71
     0
 42
0.2
  3
txt
  4

  0
ENDTAB
  0
TABLE
  2
VIEW
  5
6
330
0
100
AcDbSymbolTable
 70
     0
  0
ENDTAB
  0
TABLE
  2
UCS
  5
7
330
0
100
AcDbSymbolTable
 70
     0
  0
ENDTAB
  0
TABLE
  2
APPID
  5
9
330
0
100
AcDbSymbolTable
 70
     1
  0
APPID
  5
12
330
9
100
AcDbSymbolTableRecord
100
AcDbRegAppTableRecord
  2
ACAD
 70
     0
  0
ENDTAB
  0
TABLE
  2
DIMSTYLE
  5
A
330
0
100
AcDbSymbolTable
 70
     1
  0
DIMSTYLE
105
27
330
A
100
AcDbSymbolTableRecord
100
AcDbDimStyleTableRecord
  2
STANDARD
 70
     0
  3

  4

  5

  6

  7

 40
1.0
 41
0.18
 42
0.0625
 43
0.38
 44
0.18
 45
0.0
 46
0.0
 47
0.0
 48
0.0
140
0.18
141
0.09
142
0.0
143
25.4
144
1.0
145
0.0
146
1.0
147
0.09
 71
     0
 72
     0
 73
     1
 74
     1
 75
     0
 76
     0
 77
     0
 78
     0
170
     0
171
     2
172
     0
173
     0
174
     0
175
     0
176
     0
177
     0
178
     0
270
     2
271
     4
272
     4
273
     2
274
     2
340
11
275
     0
280
     0
281
     0
282
     0
283
     1
284
     0
285
     0
286
     0
287
     3
288
     0
  0
ENDTAB
  0
TABLE
  2
BLOCK_RECORD
  5
1
330
0
100
AcDbSymbolTable
 70
     3
  0
BLOCK_RECORD
  5
1F
102
{ACAD_XDICTIONARY
360
E9
102
}
330
1
100
AcDbSymbolTableRecord
100
AcDbBlockTableRecord
  2
*MODEL_SPACE
  0
BLOCK_RECORD
  5
1B
102
{ACAD_XDICTIONARY
360
E7
102
}
330
1
100
AcDbSymbolTableRecord
100
AcDbBlockTableRecord
  2
*PAPER_SPACE
  0
ENDTAB
  0
ENDSEC
  0
SECTION
  2
BLOCKS
  0
BLOCK
  5
20
330
1F
100
AcDbEntity
  8
0
100
AcDbBlockBegin
  2
*MODEL_SPACE
 70
     0
 10
0.0
 20
0.0
 30
0.0
  3
*MODEL_SPACE
  1

  0
ENDBLK
  5
21
330
1F
100
AcDbEntity
  8
0
100
AcDbBlockEnd
  0
BLOCK
  5
1C
330
1B
100
AcDbEntity
 67
     1
  8
0
100
AcDbBlockBegin
  2
*PAPER_SPACE
 70
     0
 10
0.0
 20
0.0
 30
0.0
  3
*PAPER_SPACE
  1

  0
ENDBLK
  5
1D
330
1B
100
AcDbEntity
 67
     1
  8
0
100
AcDbBlockEnd
  0
ENDSEC
  0
SECTION
  2
ENTITIES
  0
LINE
  5
59
330
1F
100
AcDbEntity
  8
CENTRE_LINE
100
AcDbLine
 10
57.3408992654987
 20
1.669618697067648
 30
0.0
 11
39.09089926549873
 21
1.669618697067648
 31
0.0
  0
LINE
  5
5A
330
1F
100
AcDbEntity
  8
CENTRE_LINE
100
AcDbLine
 10
57.0908992654987
 20
12.91961869706764
 30
0.0
 11
37.59089926549873
 21
12.91961869706764
 31
0.0
  0
LINE
  5
5B
330
1F
100
AcDbEntity
  8
OUTLINE
100
AcDbLine
 10
39.59089926549874
 20
16.66961869706764
 30
0.0
 11
53.84089926549872
 21
16.66961869706764
 31
0.0
  0
LINE
  5
5C
330
1F
100
AcDbEntity
  8
OUTLINE
100
AcDbLine
 10
39.59089926549874
 20
9.169618697067646
 30
0.0
 11
53.8408992654987
 21
9.169618697067646
 31
0.0
  0
LINE
  5
5D
330
1F
100
AcDbEntity
  8
OUTLINE
100
AcDbLine
 10
40.09089926549874
 20
9.169618697067646
 30
0.0
 11
47.84089926549873
 21
9.169618697067646
 31
0.0
  0
LINE
  5
5E
330
1F
100
AcDbEntity
  8
OUTLINE
100
AcDbLine
 10
40.09089926549873
 20
-2.830381302932352
 30
0.0
 11
47.84089926549873
 21
-2.830381302932352
 31
0.0
  0
LINE
  5
5F
330
1F
100
AcDbEntity
  8
OUTLINE
100
AcDbLine
 10
40.09089926549874
 20
6.169618697067649
 30
0.0
 11
47.84089926549873
 21
6.169618697067649
 31
0.0
  0
LINE
  5
60
330
1F
100
AcDbEntity
  8
OUTLINE
100
AcDbLine
 10
39.09089926549873
 20
5.169618697067647
 30
0.0
 11
39.09089926549873
 21
-1.830381302932352
 31
0.0
  0
ARC
  5
61
330
1F
100
AcDbEntity
  8
OUTLINE
100
AcDbCircle
 10
40.09089926549873
 20
-1.830381302932352
 30
0.0
 40
1.0
100
AcDbArc
 50
180.0
 51
270.0
  0
ARC
  5
62
330
1F
100
AcDbEntity
  8
OUTLINE
100
AcDbCircle
 10
39.59089926549873
 20
11.16961869706764
 30
0.0
 40
2.0
100
AcDbArc
 50
180.0
 51
270.0
  0
ARC
  5
63
330
1F
100
AcDbEntity
  8
OUTLINE
100
AcDbCircle
 10
40.09089926549874
 20
5.169618697067647
 30
0.0
 40
1.0
100
AcDbArc
 50
90.0
 51
180.0
  0
LINE
  5
64
330
1F
100
AcDbEntity
  8
OUTLINE
100
AcDbLine
 10
37.59089926549873
 20
11.16961869706764
 30
0.0
 11
37.59089926549873
 21
14.66961869706764
 31
0.0
  0
ARC
  5
65
330
1F
100
AcDbEntity
  8
OUTLINE
100
AcDbCircle
 10
39.59089926549873
 20
14.66961869706764
 30
0.0
 40
2.0
100
AcDbArc
 50
90.0
 51
180.0
  0
LINE
  5
66
330
1F
100
AcDbEntity
  8
GAUGE_FACE
100
AcDbLine
 10
47.84089926549873
 20
6.169618697067649
 30
0.0
 11
47.84089926549873
 21
-2.830381302932352
 31
0.0
  0
ARC
  5
67
330
1F
100
AcDbEntity
  8
OUTLINE
100
AcDbCircle
 10
53.84089926549873
 20
1.669618697067648
 30
0.0
 40
3.5
100
AcDbArc
 50
270.0
 51
90.0
  0
LINE
  5
68
330
1F
100
AcDbEntity
  8
GAUGE_FACE
100
AcDbLine
 10
47.84089926549873
 20
6.169618697067649
 30
0.0
 11
47.84089926549873
 21
-2.830381302932352
 31
0.0
  0
LINE
  5
69
330
1F
100
AcDbEntity
  8
OUTLINE
100
AcDbLine
 10
53.84089926549873
 20
-1.830381302932352
 30
0.0
 11
48.84089926549873
 21
-1.830381302932352
 31
0.0
  0
ARC
  5
6A
330
1F
100
AcDbEntity
  8
OUTLINE
100
AcDbCircle
 10
47.84089926549873
 20
-1.830381302932352
 30
0.0
 40
1.0
100
AcDbArc
 50
270.0
 51
0.0
  0
TEXT
  5
6B
330
1F
100
AcDbEntity
  8
TEXT
100
AcDbText
 10
59.81402877888418
 20
12.78775418999465
 30
0.0
 40
2.0
  1
2   Loose heel chair
100
AcDbText
  0
TEXT
  5
6C
330
1F
100
AcDbEntity
  8
TEXT
100
AcDbText
 10
60.1606042151615
 20
1.596776890685347
 30
0.0
 40
2.0
  1
3   SS slide Chair
100
AcDbText
  0
LINE
  5
6D
330
1F
100
AcDbEntity
  8
GAUGE_FACE
100
AcDbLine
 10
47.84089926549873
 20
16.66961869706764
 30
0.0
 11
47.84089926549873
 21
9.169618697067646
 31
0.0
  0
ARC
  5
6E
330
1F
100
AcDbEntity
  8
OUTLINE
100
AcDbCircle
 10
53.3024377270372
 20
12.91961869706764
 30
0.0
 40
3.788461538461532
100
AcDbArc
 50
261.8287664400507
 51
98.17123355994965
  0
CIRCLE
  5
6F
330
1F
100
AcDbEntity
  8
TEXT
100
AcDbCircle
 10
60.83570216830989
 20
2.728474131966769
 30
0.0
 40
2.0
  0
LINE
  5
70
330
1F
100
AcDbEntity
  8
OUTLINE
100
AcDbLine
 10
53.84089926549873
 20
5.169618697067647
 30
0.0
 11
48.84089926549873
 21
5.169618697067647
 31
0.0
  0
ARC
  5
71
330
1F
100
AcDbEntity
  8
OUTLINE
100
AcDbCircle
 10
47.84089926549873
 20
5.169618697067647
 30
0.0
 40
1.0
100
AcDbArc
 50
0.0
 51
90.0
  0
CIRCLE
  5
72
330
1F
100
AcDbEntity
  8
TEXT
100
AcDbCircle
 10
60.56442357437434
 20
13.29401811913247
 30
0.0
 40
2.0
  0
TEXT
  5
73
330
1F
100
AcDbEntity
  8
TEXT
100
AcDbText
 10
34.78765798121471
 20
30.76286312968993
 30
0.0
 40
3.0
  1
Swich rail chairs
100
AcDbText
  0
LINE
  5
74
330
1F
100
AcDbEntity
  8
CENTRE_LINE
100
AcDbLine
 10
58.84089926549872
 20
23.16961869706763
 30
0.0
 11
39.09089926549873
 21
23.16961869706763
 31
0.0
  0
LINE
  5
75
330
1F
100
AcDbEntity
  8
OUTLINE
100
AcDbLine
 10
41.09089926549873
 20
26.66961869706764
 30
0.0
 11
55.34089926549873
 21
26.66961869706764
 31
0.0
  0
LINE
  5
76
330
1F
100
AcDbEntity
  8
OUTLINE
100
AcDbLine
 10
41.09089926549873
 20
19.66961869706764
 30
0.0
 11
55.34089926549873
 21
19.66961869706764
 31
0.0
  0
LINE
  5
77
330
1F
100
AcDbEntity
  8
OUTLINE
100
AcDbLine
 10
39.09089926549873
 20
24.66961869706764
 30
0.0
 11
39.09089926549873
 21
21.66961869706764
 31
0.0
  0
ARC
  5
78
330
1F
100
AcDbEntity
  8
OUTLINE
100
AcDbCircle
 10
41.09089926549873
 20
21.66961869706764
 30
0.0
 40
2.0
100
AcDbArc
 50
180.0
 51
270.0
  0
ARC
  5
79
330
1F
100
AcDbEntity
  8
OUTLINE
100
AcDbCircle
 10
41.09089926549873
 20
24.66961869706764
 30
0.0
 40
2.0
100
AcDbArc
 50
90.0
 51
180.0
  0
TEXT
  5
7A
330
1F
100
AcDbEntity
  8
TEXT
100
AcDbText
 10
61.28530507402754
 20
23.07607954861139
 30
0.0
 40
2.0
  1
1   2S chair
100
AcDbText
  0
LINE
  5
7B
330
1F
100
AcDbEntity
  8
GAUGE_FACE
100
AcDbLine
 10
47.84089926549873
 20
26.66961869706764
 30
0.0
 11
47.84089926549873
 21
19.66961869706764
 31
0.0
  0
ARC
  5
7C
330
1F
100
AcDbEntity
  8
OUTLINE
100
AcDbCircle
 10
55.34089926549873
 20
23.16961869706763
 30
0.0
 40
3.5
100
AcDbArc
 50
270.0
 51
90.0
  0
CIRCLE
  5
7D
330
1F
100
AcDbEntity
  8
TEXT
100
AcDbCircle
 10
62.46337499939714
 20
23.85956242850702
 30
0.0
 40
2.0
  0
CIRCLE
  5
B8
330
1F
100
AcDbEntity
  8
BLUNT_NOSE
100
AcDbCircle
 10
-2.324829734604072
 20
45.08614038002694
 30
0.0
 40
0.5
  0
LINE
  5
B9
330
1F
100
AcDbEntity
  8
BLUNT_NOSE
100
AcDbLine
 10
-2.324829734604072
 20
45.58614038002694
 30
0.0
 11
-2.324829734604072
 21
44.58614038002695
 31
0.0
  0
LINE
  5
BA
330
1F
100
AcDbEntity
  8
BLUNT_NOSE
100
AcDbLine
 10
-1.82482973460408
 20
45.08614038002694
 30
0.0
 11
-2.824829734604072
 21
45.08614038002694
 31
0.0
  0
TEXT
  5
BB
330
1F
100
AcDbEntity
  8
BLUNT_NOSE
100
AcDbText
 10
0.8376278404604562
 20
43.78146910591495
 30
0.0
 40
2.0
  1
Blunt nose
100
AcDbText
  0
TEXT
  5
BC
330
1F
100
AcDbEntity
  8
CENTRE_LINE
100
AcDbText
 10
55.27707105730697
 20
43.50123597903535
 30
0.0
 40
2.0
  1
or through bolt C/l
100
AcDbText
  0
TEXT
  5
BD
330
1F
100
AcDbEntity
  8
TEXT
100
AcDbText
 10
16.49212502793359
 20
57.00068604885814
 30
0.0
 40
3.0
  1
Key  to sybols &  lines
 72
     1
 11
47.99212502793359
 21
57.00068604885814
 31
0.0
100
AcDbText
  0
TEXT
  5
BE
330
1F
100
AcDbEntity
  8
GAUGE_FACE
100
AcDbText
 10
24.55605740169863
 20
46.26289204421614
 30
0.0
 40
2.0
  1
Rail gauge
100
AcDbText
  0
LINE
  5
BF
330
1F
100
AcDbEntity
  8
GAUGE_FACE
100
AcDbLine
 10
21.16771017855382
 20
44.00705307878185
 30
0.0
 11
21.76771017855385
 21
48.50705307878185
 31
0.0
  0
TEXT
  5
C0
330
1F
100
AcDbEntity
  8
GAUGE_FACE
100
AcDbText
 10
24.55605740169863
 20
43.05006803330184
 30
0.0
 40
2.0
  1
face
100
AcDbText
  0
LINE
  5
C1
330
1F
100
AcDbEntity
  8
GAUGE_FACE
100
AcDbLine
 10
21.16771017855382
 20
44.00705307878185
 30
0.0
 11
21.76771017855382
 21
39.50705307878185
 31
0.0
  0
TEXT
  5
C2
330
1F
100
AcDbEntity
  8
CENTRE_LINE
100
AcDbText
 10
55.27707105730697
 20
46.71405998994944
 30
0.0
 40
2.0
  1
Centre line
100
AcDbText
  0
LINE
  5
C3
330
1F
100
AcDbEntity
  8
CENTRE_LINE
100
AcDbLine
 10
52.11461348224251
 20
38.81862322931304
 30
0.0
 11
52.11461348224251
 21
50.81862322931313
 31
0.0
  0
TEXT
  5
C4
330
1F
100
AcDbEntity
  8
OUTLINE
100
AcDbText
 10
99.62435935222481
 20
43.78146910591495
 30
0.0
 40
2.0
  1
Chair outline
100
AcDbText
  0
LINE
  5
C5
330
1F
100
AcDbEntity
  8
OUTLINE
100
AcDbLine
 10
96.01012298138801
 20
40.17212655769124
 30
0.0
 11
96.01012298138801
 21
48.17212655769134
 31
0.0
  0
ENDSEC
  0
SECTION
  2
OBJECTS
  0
DICTIONARY
  5
C
330
0
100
AcDbDictionary
  3
ACAD_GROUP
350
D
  3
ACAD_PLOTSTYLENAME
350
E
  3
ACAD_MLINESTYLE
350
17
  3
ACAD_PLOTSETTINGS
350
19
  3
ACAD_LAYOUT
350
1A
  3
ACDBHEADERROUNDTRIPXREC
350
C7
  0
DICTIONARY
  5
E9
330
1F
100
AcDbDictionary
280
     1
  3
ACAD_LAYOUTSELFREF
360
EA
  0
DICTIONARY
  5
E7
330
1B
100
AcDbDictionary
280
     1
  3
ACAD_LAYOUTSELFREF
360
E8
  0
DICTIONARY
  5
D
102
{ACAD_REACTORS
330
C
102
}
330
C
100
AcDbDictionary
  0
ACDBDICTIONARYWDFLT
  5
E
102
{ACAD_REACTORS
330
C
102
}
330
C
100
AcDbDictionary
281
     1
  3
Normal
350
F
100
AcDbDictionaryWithDefault
340
F
  0
DICTIONARY
  5
17
102
{ACAD_REACTORS
330
C
102
}
330
C
100
AcDbDictionary
  3
STANDARD
350
18
  0
DICTIONARY
  5
19
102
{ACAD_REACTORS
330
C
102
}
330
C
100
AcDbDictionary
  0
DICTIONARY
  5
1A
102
{ACAD_REACTORS
330
C
102
}
330
C
100
AcDbDictionary
  0
DICTIONARY
  5
C7
102
{ACAD_REACTORS
330
C
102
}
330
C
100
AcDbDictionary
  3
TSTACKALIGN
350
C8
  3
TSTACKSIZE
350
C9
  3
HYPERLINKBASE
350
CA
  3
STYLESHEET
350
CB
  3
LAYOUTDICT
350
CC
  3
PLOTSETDICT
350
CD
  3
PLOTSTYLNAMDICT
350
CE
  3
LWETCUNION
350
CF
  3
INSUNITS
350
D0
  3
CEPSNTYPE
350
D1
  3
FINGERPRINTGUID
350
D2
  3
VERSIONGUID
350
D3
  3
PSVPSCALE
350
D4
  3
PUCSORTHOREF
350
D5
  3
PUCSORTHOVIEW
350
D6
  3
PUCSBASE
350
D7
  3
PUCSORGTOP
350
D8
  3
PUCSORGBOTTOM
350
D9
  3
PUCSORGLEFT
350
DA
  3
PUCSORGRIGHT
350
DB
  3
PUCSORGFRONT
350
DC
  3
PUCSORGBACK
350
DD
  3
UCSORTHOREF
350
DE
  3
UCSORTHOVIEW
350
DF
  3
UCSBASE
350
E0
  3
UCSORGTOP
350
E1
  3
UCSORGBOTTOM
350
E2
  3
UCSORGLEFT
350
E3
  3
UCSORGRIGHT
350
E4
  3
UCSORGFRONT
350
E5
  3
UCSORGBACK
350
E6
  0
XRECORD
  5
EA
102
{ACAD_REACTORS
330
E9
102
}
330
E9
100
AcDbXrecord
340
1F
  0
XRECORD
  5
E8
102
{ACAD_REACTORS
330
E7
102
}
330
E7
100
AcDbXrecord
340
1B
  0
ACDBPLACEHOLDER
  5
F
102
{ACAD_REACTORS
330
E
102
}
330
E
100
AcDbPlaceHolder
280
     0
  0
MLINESTYLE
  5
18
102
{ACAD_REACTORS
330
17
102
}
330
17
100
AcDbMlineStyle
  2
STANDARD
 70
     0
  3

 62
   256
 51
90.0
 52
90.0
 71
     2
 49
0.5
 62
   256
  6
BYLAYER
 49
-0.5
 62
   256
  6
BYLAYER
  0
XRECORD
  5
C8
102
{ACAD_REACTORS
330
C7
102
}
330
C7
100
AcDbXrecord
 90
        1
  0
XRECORD
  5
C9
102
{ACAD_REACTORS
330
C7
102
}
330
C7
100
AcDbXrecord
 90
       70
  0
XRECORD
  5
CA
102
{ACAD_REACTORS
330
C7
102
}
330
C7
100
AcDbXrecord
  1

  0
XRECORD
  5
CB
102
{ACAD_REACTORS
330
C7
102
}
330
C7
100
AcDbXrecord
  1

  0
XRECORD
  5
CC
102
{ACAD_REACTORS
330
C7
102
}
330
C7
100
AcDbXrecord
340
1A
  0
XRECORD
  5
CD
102
{ACAD_REACTORS
330
C7
102
}
330
C7
100
AcDbXrecord
340
19
  0
XRECORD
  5
CE
102
{ACAD_REACTORS
330
C7
102
}
330
C7
100
AcDbXrecord
340
E
  0
XRECORD
  5
CF
102
{ACAD_REACTORS
330
C7
102
}
330
C7
100
AcDbXrecord
 90
    10781
  0
XRECORD
  5
D0
102
{ACAD_REACTORS
330
C7
102
}
330
C7
100
AcDbXrecord
 90
        1
  0
XRECORD
  5
D1
102
{ACAD_REACTORS
330
C7
102
}
330
C7
100
AcDbXrecord
 90
        0
  0
XRECORD
  5
D2
102
{ACAD_REACTORS
330
C7
102
}
330
C7
100
AcDbXrecord
  1
{141B53A9-BF90-47A0-B5B5-F7F9000E0FEB}
  0
XRECORD
  5
D3
102
{ACAD_REACTORS
330
C7
102
}
330
C7
100
AcDbXrecord
  1
{F574EEDF-E22E-4838-A919-7C9AC3FB031C}
  0
XRECORD
  5
D4
102
{ACAD_REACTORS
330
C7
102
}
330
C7
100
AcDbXrecord
 40
0.0
  0
XRECORD
  5
D5
102
{ACAD_REACTORS
330
C7
102
}
330
C7
100
AcDbXrecord
340
0
  0
XRECORD
  5
D6
102
{ACAD_REACTORS
330
C7
102
}
330
C7
100
AcDbXrecord
 70
     0
  0
XRECORD
  5
D7
102
{ACAD_REACTORS
330
C7
102
}
330
C7
100
AcDbXrecord
340
0
  0
XRECORD
  5
D8
102
{ACAD_REACTORS
330
C7
102
}
330
C7
100
AcDbXrecord
 10
0.0
 20
0.0
 30
0.0
  0
XRECORD
  5
D9
102
{ACAD_REACTORS
330
C7
102
}
330
C7
100
AcDbXrecord
 10
0.0
 20
0.0
 30
0.0
  0
XRECORD
  5
DA
102
{ACAD_REACTORS
330
C7
102
}
330
C7
100
AcDbXrecord
 10
0.0
 20
0.0
 30
0.0
  0
XRECORD
  5
DB
102
{ACAD_REACTORS
330
C7
102
}
330
C7
100
AcDbXrecord
 10
0.0
 20
0.0
 30
0.0
  0
XRECORD
  5
DC
102
{ACAD_REACTORS
330
C7
102
}
330
C7
100
AcDbXrecord
 10
0.0
 20
0.0
 30
0.0
  0
XRECORD
  5
DD
102
{ACAD_REACTORS
330
C7
102
}
330
C7
100
AcDbXrecord
 10
0.0
 20
0.0
 30
0.0
  0
XRECORD
  5
DE
102
{ACAD_REACTORS
330
C7
102
}
330
C7
100
AcDbXrecord
340
0
  0
XRECORD
  5
DF
102
{ACAD_REACTORS
330
C7
102
}
330
C7
100
AcDbXrecord
 70
     0
  0
XRECORD
  5
E0
102
{ACAD_REACTORS
330
C7
102
}
330
C7
100
AcDbXrecord
340
0
  0
XRECORD
  5
E1
102
{ACAD_REACTORS
330
C7
102
}
330
C7
100
AcDbXrecord
 10
0.0
 20
0.0
 30
0.0
  0
XRECORD
  5
E2
102
{ACAD_REACTORS
330
C7
102
}
330
C7
100
AcDbXrecord
 10
0.0
 20
0.0
 30
0.0
  0
XRECORD
  5
E3
102
{ACAD_REACTORS
330
C7
102
}
330
C7
100
AcDbXrecord
 10
0.0
 20
0.0
 30
0.0
  0
XRECORD
  5
E4
102
{ACAD_REACTORS
330
C7
102
}
330
C7
100
AcDbXrecord
 10
0.0
 20
0.0
 30
0.0
  0
XRECORD
  5
E5
102
{ACAD_REACTORS
330
C7
102
}
330
C7
100
AcDbXrecord
 10
0.0
 20
0.0
 30
0.0
  0
XRECORD
  5
E6
102
{ACAD_REACTORS
330
C7
102
}
330
C7
100
AcDbXrecord
 10
0.0
 20
0.0
 30
0.0
  0
ENDSEC
  0
EOF
